  0
SECTION
  2
HEADER
  9
$ACADVER
  1
AC1006
  9
$EXTMIN
 10
0.258280
 20
0.425920
  9
$EXTMAX
 10
8.255720
 20
10.703880
  9
$LTSCALE
 40
0.044000
  9
$PDMODE
 70
    35
  9
$PDSIZE
 40
0.035200
  0
ENDSEC
  0
SECTION
  2
TABLES
  0
TABLE
  2
LTYPE
 70
     9
  0
LTYPE
  2
CONTINUOUS
 70
    64
  3
Solid line
 72
    65
 73
     0
 40
0.000000
  0
LTYPE
  2
DASHED
 70
    64
  3
__ __ __ __ __ __ __ __ __ __ __ __ __ __ __
 72
    65
 73
     2
 40
0.000330
 49
0.000220
 49
-0.000110
  0
LTYPE
  2
HIDDEN
 70
    64
  3
 _ _ _ _ _ _ _ _ _ _ _ _ _ _ _ _ _ _ _ _ _ _
 72
    65
 73
     2
 40
0.000165
 49
0.000110
 49
-0.000055
  0
LTYPE
  2
CENTER
 70
    64
  3
____ _ ____ _ ____ _ ____ _ ____ _ ____ _ ____
 72
    65
 73
     4
 40
0.000880
 49
0.000550
 49
-0.000110
 49
0.000110
 49
-0.000110
  0
LTYPE
  2
PHANTOM
 70
    64
  3
_____ _ _ _____ _ _ _____ _ _ _____ _ _ ____
 72
    65
 73
     6
 40
0.001100
 49
0.000550
 49
-0.000110
 49
0.000110
 49
-0.000110
 49
0.000110
 49
-0.000110
  0
LTYPE
  2
DOT
 70
    64
  3
...............................................
 72
    65
 73
     2
 40
0.000110
 49
0.000000
 49
-0.000110
  0
LTYPE
  2
DASHDOT
 70
    64
  3
__ . __ . __ . __ . __ . __ . __ . __ . __ . __
 72
    65
 73
     4
 40
0.000440
 49
0.000220
 49
-0.000110
 49
0.000000
 49
-0.000110
  0
LTYPE
  2
BORDER
 70
    64
  3
__ __ . __ __ . __ __ . __ __ . __ __ . __ __
 72
    65
 73
     6
 40
0.000770
 49
0.000220
 49
-0.000110
 49
0.000220
 49
-0.000110
 49
0.000000
 49
-0.000110
  0
LTYPE
  2
DIVIDE
 70
    64
  3
__ . . __ . . __ . . __ . . __ . . __ . . __
 72
    65
 73
     6
 40
0.000550
 49
0.000220
 49
-0.000110
 49
0.000000
 49
-0.000110
 49
0.000000
 49
-0.000110
  0
LTYPE
  2
DOTDOT
 70
    64
  3
 . .  . .  . .  . .  . .  . . 
 72
    65
 73
     5
 40
0.000242
 49
-0.000110
 49
0.000000
 49
-0.000110
 49
0.000000
 49
-0.000110
  0
ENDTAB
  0
TABLE
  2
STYLE
 70
     2
  0
STYLE
 70
     0
  2
SN0
 40
0.000000
 41
0.000440
 50
0.000000
 71
     0
 42
0.000000
  3
ROMAND
  0
STYLE
 70
    68
  2
SV0
 40
0.000000
 41
0.000440
 50
0.000000
 71
     0
 42
0.000000
  3
ROMAND
  0
ENDTAB
  0
TABLE
  2
LAYER
 70
     3
  0
LAYER
  2
FOREGROUND
 70
    64
 62
     7
  6
CONTINUOUS
  0
LAYER
  2
BACKGROUND
 70
    65
 62
    -7
  6
CONTINUOUS
  0
LAYER
  2
0
 70
    64
 62
     7
  6
CONTINUOUS
  0
ENDTAB
  0
ENDSEC
  0
SECTION
  2
ENTITIES
  0
POLYLINE
  8
FOREGROUND
  6
CONTINUOUS
 66
     1
 40
0.000000
 41
0.000000
  0
VERTEX
  8
FOREGROUND
  6
CONTINUOUS
 10
0.000000
 20
11.129800
  0
VERTEX
  8
FOREGROUND
  6
CONTINUOUS
 10
8.499920
 20
11.129800
  0
VERTEX
  8
FOREGROUND
  6
CONTINUOUS
 10
8.499920
 20
0.129800
  0
VERTEX
  8
FOREGROUND
  6
CONTINUOUS
 10
0.000000
 20
0.129800
  0
VERTEX
  8
FOREGROUND
  6
CONTINUOUS
 10
0.000000
 20
11.129800
  0
SEQEND
  8
0
  0
TEXT
  8
0
 10
3.460600
 20
5.844960
 40
0.138029
  1
15.01" Dia.
 41
1.000000
  7
SN0
 71
     0
 72
     5
 11
4.278212
 21
5.844960
  0
LINE
  8
0
  6
CONTINUOUS
 10
5.831320
 20
7.647200
 11
5.831320
 21
7.651160
  0
POLYLINE
  8
0
  6
CONTINUOUS
 66
     1
 40
0.014080
 41
0.014080
  0
VERTEX
  8
0
  6
CONTINUOUS
 10
8.237240
 20
1.161600
  0
VERTEX
  8
0
  6
CONTINUOUS
 10
8.166400
 20
1.276000
  0
VERTEX
  8
0
  6
CONTINUOUS
 10
8.097320
 20
1.391280
  0
VERTEX
  8
0
  6
CONTINUOUS
 10
8.030880
 20
1.507440
  0
VERTEX
  8
0
  6
CONTINUOUS
 10
7.966200
 20
1.624920
  0
VERTEX
  8
0
  6
CONTINUOUS
 10
7.904160
 20
1.742840
  0
VERTEX
  8
0
  6
CONTINUOUS
 10
7.844320
 20
1.862080
  0
VERTEX
  8
0
  6
CONTINUOUS
 10
7.786240
 20
1.982200
  0
VERTEX
  8
0
  6
CONTINUOUS
 10
7.730800
 20
2.102760
  0
VERTEX
  8
0
  6
CONTINUOUS
 10
7.677120
 20
2.224640
  0
VERTEX
  8
0
  6
CONTINUOUS
 10
7.626080
 20
2.346960
  0
VERTEX
  8
0
  6
CONTINUOUS
 10
7.577240
 20
2.470600
  0
VERTEX
  8
0
  6
CONTINUOUS
 10
7.530600
 20
2.594240
  0
VERTEX
  8
0
  6
CONTINUOUS
 10
7.486160
 20
2.719200
  0
VERTEX
  8
0
  6
CONTINUOUS
 10
7.443920
 20
2.844600
  0
VERTEX
  8
0
  6
CONTINUOUS
 10
7.403880
 20
2.970880
  0
VERTEX
  8
0
  6
CONTINUOUS
 10
7.366040
 20
3.098040
  0
VERTEX
  8
0
  6
CONTINUOUS
 10
7.330840
 20
3.225640
  0
VERTEX
  8
0
  6
CONTINUOUS
 10
7.297400
 20
3.353680
  0
VERTEX
  8
0
  6
CONTINUOUS
 10
7.266600
 20
3.482600
  0
VERTEX
  8
0
  6
CONTINUOUS
 10
7.238000
 20
3.611960
  0
VERTEX
  8
0
  6
CONTINUOUS
 10
7.211600
 20
3.741760
  0
VERTEX
  8
0
  6
CONTINUOUS
 10
7.187840
 20
3.872440
  0
VERTEX
  8
0
  6
CONTINUOUS
 10
7.165840
 20
4.003120
  0
VERTEX
  8
0
  6
CONTINUOUS
 10
7.146480
 20
4.134680
  0
VERTEX
  8
0
  6
CONTINUOUS
 10
7.129760
 20
4.266680
  0
VERTEX
  8
0
  6
CONTINUOUS
 10
7.114800
 20
4.399120
  0
VERTEX
  8
0
  6
CONTINUOUS
 10
7.102480
 20
4.532000
  0
VERTEX
  8
0
  6
CONTINUOUS
 10
7.092360
 20
4.664880
  0
VERTEX
  8
0
  6
CONTINUOUS
 10
7.084440
 20
4.798640
  0
VERTEX
  8
0
  6
CONTINUOUS
 10
7.079160
 20
4.932400
  0
VERTEX
  8
0
  6
CONTINUOUS
 10
7.076080
 20
5.066600
  0
VERTEX
  8
0
  6
CONTINUOUS
 10
7.075200
 20
5.201240
  0
VERTEX
  8
0
  6
CONTINUOUS
 10
7.076960
 20
5.335880
  0
VERTEX
  8
0
  6
CONTINUOUS
 10
7.080920
 20
5.470080
  0
VERTEX
  8
0
  6
CONTINUOUS
 10
7.087080
 20
5.603840
  0
VERTEX
  8
0
  6
CONTINUOUS
 10
7.095880
 20
5.736720
  0
VERTEX
  8
0
  6
CONTINUOUS
 10
7.106880
 20
5.869160
  0
VERTEX
  8
0
  6
CONTINUOUS
 10
7.120080
 20
6.000720
  0
VERTEX
  8
0
  6
CONTINUOUS
 10
7.135480
 20
6.132280
  0
VERTEX
  8
0
  6
CONTINUOUS
 10
7.153080
 20
6.262520
  0
VERTEX
  8
0
  6
CONTINUOUS
 10
7.173320
 20
6.392760
  0
VERTEX
  8
0
  6
CONTINUOUS
 10
7.195760
 20
6.522120
  0
VERTEX
  8
0
  6
CONTINUOUS
 10
7.220400
 20
6.651040
  0
VERTEX
  8
0
  6
CONTINUOUS
 10
7.247240
 20
6.779080
  0
VERTEX
  8
0
  6
CONTINUOUS
 10
7.276280
 20
6.906680
  0
VERTEX
  8
0
  6
CONTINUOUS
 10
7.307520
 20
7.033840
  0
VERTEX
  8
0
  6
CONTINUOUS
 10
7.341400
 20
7.160120
  0
VERTEX
  8
0
  6
CONTINUOUS
 10
7.377040
 20
7.285520
  0
VERTEX
  8
0
  6
CONTINUOUS
 10
7.415320
 20
7.410480
  0
VERTEX
  8
0
  6
CONTINUOUS
 10
7.455360
 20
7.535000
  0
VERTEX
  8
0
  6
CONTINUOUS
 10
7.498040
 20
7.658640
  0
VERTEX
  8
0
  6
CONTINUOUS
 10
7.542920
 20
7.781400
  0
VERTEX
  8
0
  6
CONTINUOUS
 10
7.589560
 20
7.903720
  0
VERTEX
  8
0
  6
CONTINUOUS
 10
7.638840
 20
8.025600
  0
VERTEX
  8
0
  6
CONTINUOUS
 10
7.743560
 20
8.266720
  0
VERTEX
  8
0
  6
CONTINUOUS
 10
7.799440
 20
8.385960
  0
VERTEX
  8
0
  6
CONTINUOUS
 10
7.857080
 20
8.504760
  0
VERTEX
  8
0
  6
CONTINUOUS
 10
7.917360
 20
8.623120
  0
VERTEX
  8
0
  6
CONTINUOUS
 10
7.979400
 20
8.740600
  0
VERTEX
  8
0
  6
CONTINUOUS
 10
8.043640
 20
8.857200
  0
VERTEX
  8
0
  6
CONTINUOUS
 10
8.110080
 20
8.972920
  0
VERTEX
  8
0
  6
CONTINUOUS
 10
8.249560
 20
9.203920
  0
VERTEX
  8
0
  6
CONTINUOUS
 10
7.569320
 20
10.211960
  0
VERTEX
  8
0
  6
CONTINUOUS
 10
6.496160
 20
9.205680
  0
VERTEX
  8
0
  6
CONTINUOUS
 10
6.496160
 20
2.312200
  0
VERTEX
  8
0
  6
CONTINUOUS
 10
7.548640
 20
0.710600
  0
VERTEX
  8
0
  6
CONTINUOUS
 10
8.239880
 20
1.160720
  0
VERTEX
  8
0
  6
CONTINUOUS
 10
8.237240
 20
1.161600
  0
SEQEND
  8
0
  0
TEXT
  8
0
 10
7.002600
 20
8.919680
 40
0.138029
  1
BA  1178
 41
1.000000
  7
SN0
 71
     0
 72
     5
 11
7.687112
 21
8.919680
  0
TEXT
  8
0
 10
6.819120
 20
8.728280
 40
0.138029
  1
1-3/4" x 9-1/2"
 41
1.000000
  7
SN0
 71
     0
 72
     5
 11
7.871583
 21
8.728280
  0
TEXT
  8
0
 10
2.389640
 20
2.550240
 40
0.138029
  1
BA  1178
 41
1.000000
  7
SN0
 71
     0
 72
     5
 11
3.074152
 21
2.550240
  0
TEXT
  8
0
 10
2.206160
 20
2.358400
 40
0.138029
  1
1-3/4" x 9-1/2"
 41
1.000000
  7
SN0
 71
     0
 72
     5
 11
3.258623
 21
2.358400
  0
SOLID
  8
0
 62
    15
 10
2.663320
 20
7.208080
 11
3.275360
 21
6.812960
 12
2.354440
 22
6.770280
 13
2.966920
 23
6.374720
  0
POLYLINE
  8
0
  6
CONTINUOUS
 66
     1
 40
0.000000
 41
0.000000
  0
VERTEX
  8
0
  6
CONTINUOUS
 10
2.663320
 20
7.208080
  0
VERTEX
  8
0
  6
CONTINUOUS
 10
3.275360
 20
6.812960
  0
VERTEX
  8
0
  6
CONTINUOUS
 10
2.966920
 20
6.374720
  0
VERTEX
  8
0
  6
CONTINUOUS
 10
2.354440
 20
6.770280
  0
VERTEX
  8
0
  6
CONTINUOUS
 10
2.663320
 20
7.208080
  0
SEQEND
  8
0
  0
SOLID
  8
0
 62
    15
 10
5.497800
 20
10.703440
 11
6.110280
 21
10.307880
 12
5.519360
 22
9.487720
 13
6.131840
 23
9.092600
  0
POLYLINE
  8
0
  6
CONTINUOUS
 66
     1
 40
0.000000
 41
0.000000
  0
VERTEX
  8
0
  6
CONTINUOUS
 10
5.497800
 20
10.703440
  0
VERTEX
  8
0
  6
CONTINUOUS
 10
6.110280
 20
10.307880
  0
VERTEX
  8
0
  6
CONTINUOUS
 10
6.131840
 20
9.092600
  0
VERTEX
  8
0
  6
CONTINUOUS
 10
5.519360
 20
9.487720
  0
VERTEX
  8
0
  6
CONTINUOUS
 10
5.497800
 20
10.703440
  0
SEQEND
  8
0
  0
SOLID
  8
0
 62
    15
 10
5.519360
 20
9.487720
 11
6.131840
 21
9.092600
 12
5.518480
 22
9.486400
 13
6.130960
 23
9.091280
  0
POLYLINE
  8
0
  6
CONTINUOUS
 66
     1
 40
0.000000
 41
0.000000
  0
VERTEX
  8
0
  6
CONTINUOUS
 10
5.519360
 20
9.487720
  0
VERTEX
  8
0
  6
CONTINUOUS
 10
6.131840
 20
9.092600
  0
VERTEX
  8
0
  6
CONTINUOUS
 10
6.130960
 20
9.091280
  0
VERTEX
  8
0
  6
CONTINUOUS
 10
5.518480
 20
9.486400
  0
VERTEX
  8
0
  6
CONTINUOUS
 10
5.519360
 20
9.487720
  0
SEQEND
  8
0
  0
SOLID
  8
0
 62
    15
 10
5.518480
 20
9.486400
 11
6.130960
 21
9.091280
 12
5.040200
 22
9.246160
 13
5.652680
 23
8.851040
  0
POLYLINE
  8
0
  6
CONTINUOUS
 66
     1
 40
0.000000
 41
0.000000
  0
VERTEX
  8
0
  6
CONTINUOUS
 10
5.518480
 20
9.486400
  0
VERTEX
  8
0
  6
CONTINUOUS
 10
6.130960
 20
9.091280
  0
VERTEX
  8
0
  6
CONTINUOUS
 10
5.652680
 20
8.851040
  0
VERTEX
  8
0
  6
CONTINUOUS
 10
5.040200
 20
9.246160
  0
VERTEX
  8
0
  6
CONTINUOUS
 10
5.518480
 20
9.486400
  0
SEQEND
  8
0
  0
SOLID
  8
0
 62
    15
 10
5.040200
 20
9.246160
 11
5.652680
 21
8.851040
 12
4.584360
 22
8.976880
 13
5.196840
 23
8.581760
  0
POLYLINE
  8
0
  6
CONTINUOUS
 66
     1
 40
0.000000
 41
0.000000
  0
VERTEX
  8
0
  6
CONTINUOUS
 10
5.040200
 20
9.246160
  0
VERTEX
  8
0
  6
CONTINUOUS
 10
5.652680
 20
8.851040
  0
VERTEX
  8
0
  6
CONTINUOUS
 10
5.196840
 20
8.581760
  0
VERTEX
  8
0
  6
CONTINUOUS
 10
4.584360
 20
8.976880
  0
VERTEX
  8
0
  6
CONTINUOUS
 10
5.040200
 20
9.246160
  0
SEQEND
  8
0
  0
SOLID
  8
0
 62
    15
 10
4.584360
 20
8.976880
 11
5.196840
 21
8.581760
 12
4.151840
 22
8.679440
 13
4.763880
 23
8.284320
  0
POLYLINE
  8
0
  6
CONTINUOUS
 66
     1
 40
0.000000
 41
0.000000
  0
VERTEX
  8
0
  6
CONTINUOUS
 10
4.584360
 20
8.976880
  0
VERTEX
  8
0
  6
CONTINUOUS
 10
5.196840
 20
8.581760
  0
VERTEX
  8
0
  6
CONTINUOUS
 10
4.763880
 20
8.284320
  0
VERTEX
  8
0
  6
CONTINUOUS
 10
4.151840
 20
8.679440
  0
VERTEX
  8
0
  6
CONTINUOUS
 10
4.584360
 20
8.976880
  0
SEQEND
  8
0
  0
SOLID
  8
0
 62
    15
 10
4.151840
 20
8.679440
 11
4.763880
 21
8.284320
 12
3.742640
 22
8.353840
 13
4.355120
 23
7.958720
  0
POLYLINE
  8
0
  6
CONTINUOUS
 66
     1
 40
0.000000
 41
0.000000
  0
VERTEX
  8
0
  6
CONTINUOUS
 10
4.151840
 20
8.679440
  0
VERTEX
  8
0
  6
CONTINUOUS
 10
4.763880
 20
8.284320
  0
VERTEX
  8
0
  6
CONTINUOUS
 10
4.355120
 20
7.958720
  0
VERTEX
  8
0
  6
CONTINUOUS
 10
3.742640
 20
8.353840
  0
VERTEX
  8
0
  6
CONTINUOUS
 10
4.151840
 20
8.679440
  0
SEQEND
  8
0
  0
SOLID
  8
0
 62
    15
 10
3.742640
 20
8.353840
 11
4.355120
 21
7.958720
 12
3.358080
 22
8.000080
 13
3.970120
 23
7.604960
  0
POLYLINE
  8
0
  6
CONTINUOUS
 66
     1
 40
0.000000
 41
0.000000
  0
VERTEX
  8
0
  6
CONTINUOUS
 10
3.742640
 20
8.353840
  0
VERTEX
  8
0
  6
CONTINUOUS
 10
4.355120
 20
7.958720
  0
VERTEX
  8
0
  6
CONTINUOUS
 10
3.970120
 20
7.604960
  0
VERTEX
  8
0
  6
CONTINUOUS
 10
3.358080
 20
8.000080
  0
VERTEX
  8
0
  6
CONTINUOUS
 10
3.742640
 20
8.353840
  0
SEQEND
  8
0
  0
SOLID
  8
0
 62
    15
 10
3.358080
 20
8.000080
 11
3.970120
 21
7.604960
 12
2.997720
 22
7.618160
 13
3.610200
 23
7.222600
  0
POLYLINE
  8
0
  6
CONTINUOUS
 66
     1
 40
0.000000
 41
0.000000
  0
VERTEX
  8
0
  6
CONTINUOUS
 10
3.358080
 20
8.000080
  0
VERTEX
  8
0
  6
CONTINUOUS
 10
3.970120
 20
7.604960
  0
VERTEX
  8
0
  6
CONTINUOUS
 10
3.610200
 20
7.222600
  0
VERTEX
  8
0
  6
CONTINUOUS
 10
2.997720
 20
7.618160
  0
VERTEX
  8
0
  6
CONTINUOUS
 10
3.358080
 20
8.000080
  0
SEQEND
  8
0
  0
SOLID
  8
0
 62
    15
 10
2.997720
 20
7.618160
 11
3.610200
 21
7.222600
 12
2.663320
 22
7.208080
 13
3.275360
 23
6.812960
  0
POLYLINE
  8
0
  6
CONTINUOUS
 66
     1
 40
0.000000
 41
0.000000
  0
VERTEX
  8
0
  6
CONTINUOUS
 10
2.997720
 20
7.618160
  0
VERTEX
  8
0
  6
CONTINUOUS
 10
3.610200
 20
7.222600
  0
VERTEX
  8
0
  6
CONTINUOUS
 10
3.275360
 20
6.812960
  0
VERTEX
  8
0
  6
CONTINUOUS
 10
2.663320
 20
7.208080
  0
VERTEX
  8
0
  6
CONTINUOUS
 10
2.997720
 20
7.618160
  0
SEQEND
  8
0
  0
SOLID
  8
0
 62
    15
 10
1.130360
 20
2.747360
 11
1.742840
 21
2.351800
 12
0.305800
 22
2.746040
 13
0.917840
 23
2.350920
  0
POLYLINE
  8
0
  6
CONTINUOUS
 66
     1
 40
0.000000
 41
0.000000
  0
VERTEX
  8
0
  6
CONTINUOUS
 10
1.130360
 20
2.747360
  0
VERTEX
  8
0
  6
CONTINUOUS
 10
1.742840
 20
2.351800
  0
VERTEX
  8
0
  6
CONTINUOUS
 10
0.917840
 20
2.350920
  0
VERTEX
  8
0
  6
CONTINUOUS
 10
0.305800
 20
2.746040
  0
VERTEX
  8
0
  6
CONTINUOUS
 10
1.130360
 20
2.747360
  0
SEQEND
  8
0
  0
SOLID
  8
0
 62
    15
 10
2.354440
 20
6.770280
 11
2.966920
 21
6.374720
 12
2.076360
 22
6.311360
 13
2.688840
 23
5.915800
  0
POLYLINE
  8
0
  6
CONTINUOUS
 66
     1
 40
0.000000
 41
0.000000
  0
VERTEX
  8
0
  6
CONTINUOUS
 10
2.354440
 20
6.770280
  0
VERTEX
  8
0
  6
CONTINUOUS
 10
2.966920
 20
6.374720
  0
VERTEX
  8
0
  6
CONTINUOUS
 10
2.688840
 20
5.915800
  0
VERTEX
  8
0
  6
CONTINUOUS
 10
2.076360
 20
6.311360
  0
VERTEX
  8
0
  6
CONTINUOUS
 10
2.354440
 20
6.770280
  0
SEQEND
  8
0
  0
SOLID
  8
0
 62
    15
 10
2.076360
 20
6.311360
 11
2.688840
 21
5.915800
 12
1.833480
 22
5.836600
 13
2.445960
 23
5.441480
  0
POLYLINE
  8
0
  6
CONTINUOUS
 66
     1
 40
0.000000
 41
0.000000
  0
VERTEX
  8
0
  6
CONTINUOUS
 10
2.076360
 20
6.311360
  0
VERTEX
  8
0
  6
CONTINUOUS
 10
2.688840
 20
5.915800
  0
VERTEX
  8
0
  6
CONTINUOUS
 10
2.445960
 20
5.441480
  0
VERTEX
  8
0
  6
CONTINUOUS
 10
1.833480
 20
5.836600
  0
VERTEX
  8
0
  6
CONTINUOUS
 10
2.076360
 20
6.311360
  0
SEQEND
  8
0
  0
SOLID
  8
0
 62
    15
 10
1.833480
 20
5.836600
 11
2.445960
 21
5.441480
 12
1.625360
 22
5.348640
 13
2.237840
 23
4.953520
  0
POLYLINE
  8
0
  6
CONTINUOUS
 66
     1
 40
0.000000
 41
0.000000
  0
VERTEX
  8
0
  6
CONTINUOUS
 10
1.833480
 20
5.836600
  0
VERTEX
  8
0
  6
CONTINUOUS
 10
2.445960
 20
5.441480
  0
VERTEX
  8
0
  6
CONTINUOUS
 10
2.237840
 20
4.953520
  0
VERTEX
  8
0
  6
CONTINUOUS
 10
1.625360
 20
5.348640
  0
VERTEX
  8
0
  6
CONTINUOUS
 10
1.833480
 20
5.836600
  0
SEQEND
  8
0
  0
SOLID
  8
0
 62
    15
 10
1.625360
 20
5.348640
 11
2.237840
 21
4.953520
 12
1.452880
 22
4.847920
 13
2.065360
 23
4.452360
  0
POLYLINE
  8
0
  6
CONTINUOUS
 66
     1
 40
0.000000
 41
0.000000
  0
VERTEX
  8
0
  6
CONTINUOUS
 10
1.625360
 20
5.348640
  0
VERTEX
  8
0
  6
CONTINUOUS
 10
2.237840
 20
4.953520
  0
VERTEX
  8
0
  6
CONTINUOUS
 10
2.065360
 20
4.452360
  0
VERTEX
  8
0
  6
CONTINUOUS
 10
1.452880
 20
4.847920
  0
VERTEX
  8
0
  6
CONTINUOUS
 10
1.625360
 20
5.348640
  0
SEQEND
  8
0
  0
SOLID
  8
0
 62
    15
 10
1.452880
 20
4.847920
 11
2.065360
 21
4.452360
 12
1.316480
 22
4.336200
 13
1.928960
 23
3.940640
  0
POLYLINE
  8
0
  6
CONTINUOUS
 66
     1
 40
0.000000
 41
0.000000
  0
VERTEX
  8
0
  6
CONTINUOUS
 10
1.452880
 20
4.847920
  0
VERTEX
  8
0
  6
CONTINUOUS
 10
2.065360
 20
4.452360
  0
VERTEX
  8
0
  6
CONTINUOUS
 10
1.928960
 20
3.940640
  0
VERTEX
  8
0
  6
CONTINUOUS
 10
1.316480
 20
4.336200
  0
VERTEX
  8
0
  6
CONTINUOUS
 10
1.452880
 20
4.847920
  0
SEQEND
  8
0
  0
SOLID
  8
0
 62
    15
 10
1.316480
 20
4.336200
 11
1.928960
 21
3.940640
 12
1.216600
 22
3.814800
 13
1.829080
 23
3.419240
  0
POLYLINE
  8
0
  6
CONTINUOUS
 66
     1
 40
0.000000
 41
0.000000
  0
VERTEX
  8
0
  6
CONTINUOUS
 10
1.316480
 20
4.336200
  0
VERTEX
  8
0
  6
CONTINUOUS
 10
1.928960
 20
3.940640
  0
VERTEX
  8
0
  6
CONTINUOUS
 10
1.829080
 20
3.419240
  0
VERTEX
  8
0
  6
CONTINUOUS
 10
1.216600
 20
3.814800
  0
VERTEX
  8
0
  6
CONTINUOUS
 10
1.316480
 20
4.336200
  0
SEQEND
  8
0
  0
SOLID
  8
0
 62
    15
 10
1.216600
 20
3.814800
 11
1.829080
 21
3.419240
 12
1.154120
 22
3.285480
 13
1.766160
 23
2.889920
  0
POLYLINE
  8
0
  6
CONTINUOUS
 66
     1
 40
0.000000
 41
0.000000
  0
VERTEX
  8
0
  6
CONTINUOUS
 10
1.216600
 20
3.814800
  0
VERTEX
  8
0
  6
CONTINUOUS
 10
1.829080
 20
3.419240
  0
VERTEX
  8
0
  6
CONTINUOUS
 10
1.766160
 20
2.889920
  0
VERTEX
  8
0
  6
CONTINUOUS
 10
1.154120
 20
3.285480
  0
VERTEX
  8
0
  6
CONTINUOUS
 10
1.216600
 20
3.814800
  0
SEQEND
  8
0
  0
SOLID
  8
0
 62
    15
 10
1.154120
 20
3.285480
 11
1.766160
 21
2.889920
 12
1.129040
 22
2.749560
 13
1.741080
 23
2.354000
  0
POLYLINE
  8
0
  6
CONTINUOUS
 66
     1
 40
0.000000
 41
0.000000
  0
VERTEX
  8
0
  6
CONTINUOUS
 10
1.154120
 20
3.285480
  0
VERTEX
  8
0
  6
CONTINUOUS
 10
1.766160
 20
2.889920
  0
VERTEX
  8
0
  6
CONTINUOUS
 10
1.741080
 20
2.354000
  0
VERTEX
  8
0
  6
CONTINUOUS
 10
1.129040
 20
2.749560
  0
VERTEX
  8
0
  6
CONTINUOUS
 10
1.154120
 20
3.285480
  0
SEQEND
  8
0
  0
SOLID
  8
0
 62
    15
 10
1.129040
 20
2.749560
 11
1.741080
 21
2.354000
 12
1.130360
 22
2.747360
 13
1.742840
 23
2.351800
  0
POLYLINE
  8
0
  6
CONTINUOUS
 66
     1
 40
0.000000
 41
0.000000
  0
VERTEX
  8
0
  6
CONTINUOUS
 10
1.129040
 20
2.749560
  0
VERTEX
  8
0
  6
CONTINUOUS
 10
1.741080
 20
2.354000
  0
VERTEX
  8
0
  6
CONTINUOUS
 10
1.742840
 20
2.351800
  0
VERTEX
  8
0
  6
CONTINUOUS
 10
1.130360
 20
2.747360
  0
VERTEX
  8
0
  6
CONTINUOUS
 10
1.129040
 20
2.749560
  0
SEQEND
  8
0
  0
POLYLINE
  8
0
  6
CONTINUOUS
 66
     1
 40
0.000000
 41
0.000000
  0
VERTEX
  8
0
  6
CONTINUOUS
 10
1.130360
 20
2.747360
  0
VERTEX
  8
0
  6
CONTINUOUS
 10
0.305800
 20
2.746040
  0
VERTEX
  8
0
  6
CONTINUOUS
 10
0.295680
 20
4.662680
  0
VERTEX
  8
0
  6
CONTINUOUS
 10
4.049760
 20
10.443840
  0
VERTEX
  8
0
  6
CONTINUOUS
 10
4.049760
 20
10.444280
  0
VERTEX
  8
0
  6
CONTINUOUS
 10
5.497800
 20
10.703440
  0
VERTEX
  8
0
  6
CONTINUOUS
 10
5.519360
 20
9.487720
  0
VERTEX
  8
0
  6
CONTINUOUS
 10
5.518480
 20
9.486400
  0
VERTEX
  8
0
  6
CONTINUOUS
 10
5.040200
 20
9.246160
  0
VERTEX
  8
0
  6
CONTINUOUS
 10
4.584360
 20
8.976880
  0
VERTEX
  8
0
  6
CONTINUOUS
 10
4.151840
 20
8.679440
  0
VERTEX
  8
0
  6
CONTINUOUS
 10
3.742640
 20
8.353840
  0
VERTEX
  8
0
  6
CONTINUOUS
 10
3.358080
 20
8.000080
  0
VERTEX
  8
0
  6
CONTINUOUS
 10
2.997720
 20
7.618160
  0
VERTEX
  8
0
  6
CONTINUOUS
 10
2.663320
 20
7.208080
  0
VERTEX
  8
0
  6
CONTINUOUS
 10
2.354440
 20
6.770280
  0
VERTEX
  8
0
  6
CONTINUOUS
 10
2.076360
 20
6.311360
  0
VERTEX
  8
0
  6
CONTINUOUS
 10
1.833480
 20
5.836600
  0
VERTEX
  8
0
  6
CONTINUOUS
 10
1.625360
 20
5.348640
  0
VERTEX
  8
0
  6
CONTINUOUS
 10
1.452880
 20
4.847920
  0
VERTEX
  8
0
  6
CONTINUOUS
 10
1.316480
 20
4.336200
  0
VERTEX
  8
0
  6
CONTINUOUS
 10
1.216600
 20
3.814800
  0
VERTEX
  8
0
  6
CONTINUOUS
 10
1.154120
 20
3.285480
  0
VERTEX
  8
0
  6
CONTINUOUS
 10
1.129040
 20
2.749560
  0
VERTEX
  8
0
  6
CONTINUOUS
 10
1.130360
 20
2.747360
  0
SEQEND
  8
0
  0
POLYLINE
  8
0
  6
CONTINUOUS
 66
     1
 40
0.000000
 41
0.000000
  0
VERTEX
  8
0
  6
CONTINUOUS
 10
6.105440
 20
1.523280
  0
VERTEX
  8
0
  6
CONTINUOUS
 10
0.304040
 20
1.523280
  0
VERTEX
  8
0
  6
CONTINUOUS
 10
0.304040
 20
1.741960
  0
VERTEX
  8
0
  6
CONTINUOUS
 10
0.468600
 20
1.806640
  0
VERTEX
  8
0
  6
CONTINUOUS
 10
0.634480
 20
1.867360
  0
VERTEX
  8
0
  6
CONTINUOUS
 10
0.802560
 20
1.924560
  0
VERTEX
  8
0
  6
CONTINUOUS
 10
0.972400
 20
1.977360
  0
VERTEX
  8
0
  6
CONTINUOUS
 10
1.144000
 20
2.026640
  0
VERTEX
  8
0
  6
CONTINUOUS
 10
1.316920
 20
2.071960
  0
VERTEX
  8
0
  6
CONTINUOUS
 10
1.492040
 20
2.112880
  0
VERTEX
  8
0
  6
CONTINUOUS
 10
1.668040
 20
2.149840
  0
VERTEX
  8
0
  6
CONTINUOUS
 10
1.845800
 20
2.182840
  0
VERTEX
  8
0
  6
CONTINUOUS
 10
2.025320
 20
2.211440
  0
VERTEX
  8
0
  6
CONTINUOUS
 10
2.205720
 20
2.235640
  0
VERTEX
  8
0
  6
CONTINUOUS
 10
2.387880
 20
2.255880
  0
VERTEX
  8
0
  6
CONTINUOUS
 10
2.570920
 20
2.271720
  0
VERTEX
  8
0
  6
CONTINUOUS
 10
2.755280
 20
2.282720
  0
VERTEX
  8
0
  6
CONTINUOUS
 10
2.940960
 20
2.289760
  0
VERTEX
  8
0
  6
CONTINUOUS
 10
3.127960
 20
2.291960
  0
VERTEX
  8
0
  6
CONTINUOUS
 10
3.316280
 20
2.289760
  0
VERTEX
  8
0
  6
CONTINUOUS
 10
3.503280
 20
2.282720
  0
VERTEX
  8
0
  6
CONTINUOUS
 10
3.689400
 20
2.271280
  0
VERTEX
  8
0
  6
CONTINUOUS
 10
3.874200
 20
2.255440
  0
VERTEX
  8
0
  6
CONTINUOUS
 10
4.057680
 20
2.234760
  0
VERTEX
  8
0
  6
CONTINUOUS
 10
4.239400
 20
2.210120
  0
VERTEX
  8
0
  6
CONTINUOUS
 10
4.420240
 20
2.181080
  0
VERTEX
  8
0
  6
CONTINUOUS
 10
4.599320
 20
2.147640
  0
VERTEX
  8
0
  6
CONTINUOUS
 10
4.777080
 20
2.110240
  0
VERTEX
  8
0
  6
CONTINUOUS
 10
4.953080
 20
2.068440
  0
VERTEX
  8
0
  6
CONTINUOUS
 10
5.127760
 20
2.022240
  0
VERTEX
  8
0
  6
CONTINUOUS
 10
5.300680
 20
1.972520
  0
VERTEX
  8
0
  6
CONTINUOUS
 10
5.471400
 20
1.918400
  0
VERTEX
  8
0
  6
CONTINUOUS
 10
5.640800
 20
1.860760
  0
VERTEX
  8
0
  6
CONTINUOUS
 10
5.808440
 20
1.798720
  0
VERTEX
  8
0
  6
CONTINUOUS
 10
5.986640
 20
1.728320
  0
VERTEX
  8
0
  6
CONTINUOUS
 10
6.020520
 20
1.710720
  0
VERTEX
  8
0
  6
CONTINUOUS
 10
6.047360
 20
1.690480
  0
VERTEX
  8
0
  6
CONTINUOUS
 10
6.068040
 20
1.667600
  0
VERTEX
  8
0
  6
CONTINUOUS
 10
6.078600
 20
1.651760
  0
VERTEX
  8
0
  6
CONTINUOUS
 10
6.094000
 20
1.619640
  0
VERTEX
  8
0
  6
CONTINUOUS
 10
6.102360
 20
1.588840
  0
VERTEX
  8
0
  6
CONTINUOUS
 10
6.105880
 20
1.561120
  0
VERTEX
  8
0
  6
CONTINUOUS
 10
6.105880
 20
1.529880
  0
VERTEX
  8
0
  6
CONTINUOUS
 10
6.105440
 20
1.523280
  0
SEQEND
  8
0
  0
POLYLINE
  8
0
  6
CONTINUOUS
 66
     1
 40
0.000000
 41
0.000000
  0
VERTEX
  8
0
  6
CONTINUOUS
 10
0.259600
 20
0.426360
  0
VERTEX
  8
0
  6
CONTINUOUS
 10
6.061000
 20
0.426360
  0
VERTEX
  8
0
  6
CONTINUOUS
 10
6.061000
 20
0.644600
  0
VERTEX
  8
0
  6
CONTINUOUS
 10
5.896440
 20
0.709280
  0
VERTEX
  8
0
  6
CONTINUOUS
 10
5.730560
 20
0.770000
  0
VERTEX
  8
0
  6
CONTINUOUS
 10
5.562480
 20
0.827200
  0
VERTEX
  8
0
  6
CONTINUOUS
 10
5.392640
 20
0.880000
  0
VERTEX
  8
0
  6
CONTINUOUS
 10
5.221040
 20
0.929280
  0
VERTEX
  8
0
  6
CONTINUOUS
 10
5.047680
 20
0.974600
  0
VERTEX
  8
0
  6
CONTINUOUS
 10
4.873000
 20
1.015520
  0
VERTEX
  8
0
  6
CONTINUOUS
 10
4.696560
 20
1.052480
  0
VERTEX
  8
0
  6
CONTINUOUS
 10
4.518800
 20
1.085480
  0
VERTEX
  8
0
  6
CONTINUOUS
 10
4.339720
 20
1.114080
  0
VERTEX
  8
0
  6
CONTINUOUS
 10
4.158880
 20
1.138280
  0
VERTEX
  8
0
  6
CONTINUOUS
 10
3.977160
 20
1.158520
  0
VERTEX
  8
0
  6
CONTINUOUS
 10
3.793680
 20
1.174360
  0
VERTEX
  8
0
  6
CONTINUOUS
 10
3.609320
 20
1.185360
  0
VERTEX
  8
0
  6
CONTINUOUS
 10
3.423640
 20
1.192400
  0
VERTEX
  8
0
  6
CONTINUOUS
 10
3.237080
 20
1.194600
  0
VERTEX
  8
0
  6
CONTINUOUS
 10
3.048760
 20
1.192400
  0
VERTEX
  8
0
  6
CONTINUOUS
 10
2.861320
 20
1.185360
  0
VERTEX
  8
0
  6
CONTINUOUS
 10
2.675640
 20
1.173920
  0
VERTEX
  8
0
  6
CONTINUOUS
 10
2.490840
 20
1.158080
  0
VERTEX
  8
0
  6
CONTINUOUS
 10
2.307360
 20
1.137400
  0
VERTEX
  8
0
  6
CONTINUOUS
 10
2.125200
 20
1.112760
  0
VERTEX
  8
0
  6
CONTINUOUS
 10
1.944360
 20
1.083720
  0
VERTEX
  8
0
  6
CONTINUOUS
 10
1.765280
 20
1.050280
  0
VERTEX
  8
0
  6
CONTINUOUS
 10
1.587520
 20
1.012880
  0
VERTEX
  8
0
  6
CONTINUOUS
 10
1.411520
 20
0.971080
  0
VERTEX
  8
0
  6
CONTINUOUS
 10
1.236840
 20
0.924880
  0
VERTEX
  8
0
  6
CONTINUOUS
 10
1.064360
 20
0.875160
  0
VERTEX
  8
0
  6
CONTINUOUS
 10
0.893200
 20
0.821040
  0
VERTEX
  8
0
  6
CONTINUOUS
 10
0.723800
 20
0.763400
  0
VERTEX
  8
0
  6
CONTINUOUS
 10
0.556600
 20
0.701360
  0
VERTEX
  8
0
  6
CONTINUOUS
 10
0.378400
 20
0.630960
  0
VERTEX
  8
0
  6
CONTINUOUS
 10
0.344520
 20
0.613360
  0
VERTEX
  8
0
  6
CONTINUOUS
 10
0.317680
 20
0.593120
  0
VERTEX
  8
0
  6
CONTINUOUS
 10
0.297000
 20
0.570240
  0
VERTEX
  8
0
  6
CONTINUOUS
 10
0.286440
 20
0.554840
  0
VERTEX
  8
0
  6
CONTINUOUS
 10
0.271480
 20
0.522720
  0
VERTEX
  8
0
  6
CONTINUOUS
 10
0.262680
 20
0.491480
  0
VERTEX
  8
0
  6
CONTINUOUS
 10
0.259160
 20
0.463760
  0
VERTEX
  8
0
  6
CONTINUOUS
 10
0.259160
 20
0.432960
  0
VERTEX
  8
0
  6
CONTINUOUS
 10
0.259600
 20
0.426360
  0
SEQEND
  8
0
  0
ENDSEC
  0
EOF
