  0
SECTION
  2
HEADER
  9
$ACADVER
  1
AC1006
  9
$EXTMIN
 10
1.856360
 20
0.783200
  9
$EXTMAX
 10
6.783920
 20
7.353280
  9
$LTSCALE
 40
0.044000
  9
$PDMODE
 70
    35
  9
$PDSIZE
 40
0.035200
  0
ENDSEC
  0
SECTION
  2
TABLES
  0
TABLE
  2
LTYPE
 70
     9
  0
LTYPE
  2
CONTINUOUS
 70
    64
  3
Solid line
 72
    65
 73
     0
 40
0.000000
  0
LTYPE
  2
DASHED
 70
    64
  3
__ __ __ __ __ __ __ __ __ __ __ __ __ __ __
 72
    65
 73
     2
 40
0.000330
 49
0.000220
 49
-0.000110
  0
LTYPE
  2
HIDDEN
 70
    64
  3
 _ _ _ _ _ _ _ _ _ _ _ _ _ _ _ _ _ _ _ _ _ _
 72
    65
 73
     2
 40
0.000165
 49
0.000110
 49
-0.000055
  0
LTYPE
  2
CENTER
 70
    64
  3
____ _ ____ _ ____ _ ____ _ ____ _ ____ _ ____
 72
    65
 73
     4
 40
0.000880
 49
0.000550
 49
-0.000110
 49
0.000110
 49
-0.000110
  0
LTYPE
  2
PHANTOM
 70
    64
  3
_____ _ _ _____ _ _ _____ _ _ _____ _ _ ____
 72
    65
 73
     6
 40
0.001100
 49
0.000550
 49
-0.000110
 49
0.000110
 49
-0.000110
 49
0.000110
 49
-0.000110
  0
LTYPE
  2
DOT
 70
    64
  3
...............................................
 72
    65
 73
     2
 40
0.000110
 49
0.000000
 49
-0.000110
  0
LTYPE
  2
DASHDOT
 70
    64
  3
__ . __ . __ . __ . __ . __ . __ . __ . __ . __
 72
    65
 73
     4
 40
0.000440
 49
0.000220
 49
-0.000110
 49
0.000000
 49
-0.000110
  0
LTYPE
  2
BORDER
 70
    64
  3
__ __ . __ __ . __ __ . __ __ . __ __ . __ __
 72
    65
 73
     6
 40
0.000770
 49
0.000220
 49
-0.000110
 49
0.000220
 49
-0.000110
 49
0.000000
 49
-0.000110
  0
LTYPE
  2
DIVIDE
 70
    64
  3
__ . . __ . . __ . . __ . . __ . . __ . . __
 72
    65
 73
     6
 40
0.000550
 49
0.000220
 49
-0.000110
 49
0.000000
 49
-0.000110
 49
0.000000
 49
-0.000110
  0
LTYPE
  2
DOTDOT
 70
    64
  3
 . .  . .  . .  . .  . .  . . 
 72
    65
 73
     5
 40
0.000242
 49
-0.000110
 49
0.000000
 49
-0.000110
 49
0.000000
 49
-0.000110
  0
ENDTAB
  0
TABLE
  2
STYLE
 70
     2
  0
STYLE
 70
     0
  2
SN0
 40
0.000000
 41
0.000440
 50
0.000000
 71
     0
 42
0.000000
  3
ROMAND
  0
STYLE
 70
    68
  2
SV0
 40
0.000000
 41
0.000440
 50
0.000000
 71
     0
 42
0.000000
  3
ROMAND
  0
ENDTAB
  0
TABLE
  2
LAYER
 70
     3
  0
LAYER
  2
FOREGROUND
 70
    64
 62
     7
  6
CONTINUOUS
  0
LAYER
  2
BACKGROUND
 70
    65
 62
    -7
  6
CONTINUOUS
  0
LAYER
  2
0
 70
    64
 62
     7
  6
CONTINUOUS
  0
ENDTAB
  0
ENDSEC
  0
SECTION
  2
ENTITIES
  0
POLYLINE
  8
FOREGROUND
  6
CONTINUOUS
 66
     1
 40
0.000000
 41
0.000000
  0
VERTEX
  8
FOREGROUND
  6
CONTINUOUS
 10
0.000000
 20
8.136480
  0
VERTEX
  8
FOREGROUND
  6
CONTINUOUS
 10
8.499920
 20
8.136480
  0
VERTEX
  8
FOREGROUND
  6
CONTINUOUS
 10
8.499920
 20
-2.863520
  0
VERTEX
  8
FOREGROUND
  6
CONTINUOUS
 10
0.000000
 20
-2.863520
  0
VERTEX
  8
FOREGROUND
  6
CONTINUOUS
 10
0.000000
 20
8.136480
  0
SEQEND
  8
0
  0
POLYLINE
  8
FOREGROUND
  6
CONTINUOUS
 66
     1
 40
0.000000
 41
0.000000
  0
VERTEX
  8
FOREGROUND
  6
CONTINUOUS
 10
0.000000
 20
8.136480
  0
VERTEX
  8
FOREGROUND
  6
CONTINUOUS
 10
8.499920
 20
8.136480
  0
VERTEX
  8
FOREGROUND
  6
CONTINUOUS
 10
8.499920
 20
-2.863520
  0
VERTEX
  8
FOREGROUND
  6
CONTINUOUS
 10
0.000000
 20
-2.863520
  0
VERTEX
  8
FOREGROUND
  6
CONTINUOUS
 10
0.000000
 20
8.136480
  0
SEQEND
  8
0
  0
POLYLINE
  8
0
  6
CONTINUOUS
 66
     1
 40
0.000000
 41
0.000000
  0
VERTEX
  8
0
  6
CONTINUOUS
 10
1.863840
 20
0.783640
  0
VERTEX
  8
0
  6
CONTINUOUS
 10
1.863840
 20
1.605120
  0
VERTEX
  8
0
  6
CONTINUOUS
 10
2.473680
 20
1.605120
  0
VERTEX
  8
0
  6
CONTINUOUS
 10
2.474560
 20
1.571680
  0
VERTEX
  8
0
  6
CONTINUOUS
 10
2.478080
 20
1.539120
  0
VERTEX
  8
0
  6
CONTINUOUS
 10
2.489080
 20
1.491160
  0
VERTEX
  8
0
  6
CONTINUOUS
 10
2.500080
 20
1.460360
  0
VERTEX
  8
0
  6
CONTINUOUS
 10
2.515040
 20
1.431320
  0
VERTEX
  8
0
  6
CONTINUOUS
 10
2.533960
 20
1.403600
  0
VERTEX
  8
0
  6
CONTINUOUS
 10
2.557720
 20
1.378080
  0
VERTEX
  8
0
  6
CONTINUOUS
 10
2.585880
 20
1.354320
  0
VERTEX
  8
0
  6
CONTINUOUS
 10
2.619760
 20
1.333200
  0
VERTEX
  8
0
  6
CONTINUOUS
 10
2.658920
 20
1.314720
  0
VERTEX
  8
0
  6
CONTINUOUS
 10
2.704240
 20
1.298880
  0
VERTEX
  8
0
  6
CONTINUOUS
 10
2.755720
 20
1.286120
  0
VERTEX
  8
0
  6
CONTINUOUS
 10
2.813800
 20
1.277320
  0
VERTEX
  8
0
  6
CONTINUOUS
 10
2.879360
 20
1.271600
  0
VERTEX
  8
0
  6
CONTINUOUS
 10
2.952400
 20
1.270280
  0
VERTEX
  8
0
  6
CONTINUOUS
 10
2.991560
 20
1.271160
  0
VERTEX
  8
0
  6
CONTINUOUS
 10
2.998600
 20
1.120240
  0
VERTEX
  8
0
  6
CONTINUOUS
 10
3.021480
 20
1.120240
  0
VERTEX
  8
0
  6
CONTINUOUS
 10
3.021920
 20
1.133000
  0
VERTEX
  8
0
  6
CONTINUOUS
 10
3.027200
 20
1.156760
  0
VERTEX
  8
0
  6
CONTINUOUS
 10
3.036440
 20
1.178760
  0
VERTEX
  8
0
  6
CONTINUOUS
 10
3.049640
 20
1.198120
  0
VERTEX
  8
0
  6
CONTINUOUS
 10
3.065920
 20
1.214840
  0
VERTEX
  8
0
  6
CONTINUOUS
 10
3.085720
 20
1.228040
  0
VERTEX
  8
0
  6
CONTINUOUS
 10
3.107720
 20
1.237280
  0
VERTEX
  8
0
  6
CONTINUOUS
 10
3.131480
 20
1.242120
  0
VERTEX
  8
0
  6
CONTINUOUS
 10
3.156560
 20
1.242120
  0
VERTEX
  8
0
  6
CONTINUOUS
 10
3.180320
 20
1.237280
  0
VERTEX
  8
0
  6
CONTINUOUS
 10
3.202320
 20
1.228040
  0
VERTEX
  8
0
  6
CONTINUOUS
 10
3.221680
 20
1.214840
  0
VERTEX
  8
0
  6
CONTINUOUS
 10
3.238400
 20
1.198120
  0
VERTEX
  8
0
  6
CONTINUOUS
 10
3.251600
 20
1.178760
  0
VERTEX
  8
0
  6
CONTINUOUS
 10
3.260840
 20
1.156760
  0
VERTEX
  8
0
  6
CONTINUOUS
 10
3.265680
 20
1.133000
  0
VERTEX
  8
0
  6
CONTINUOUS
 10
3.266120
 20
1.120240
  0
VERTEX
  8
0
  6
CONTINUOUS
 10
3.285040
 20
1.120240
  0
VERTEX
  8
0
  6
CONTINUOUS
 10
3.285480
 20
1.133000
  0
VERTEX
  8
0
  6
CONTINUOUS
 10
3.290760
 20
1.156760
  0
VERTEX
  8
0
  6
CONTINUOUS
 10
3.300000
 20
1.178760
  0
VERTEX
  8
0
  6
CONTINUOUS
 10
3.313200
 20
1.198120
  0
VERTEX
  8
0
  6
CONTINUOUS
 10
3.329480
 20
1.214840
  0
VERTEX
  8
0
  6
CONTINUOUS
 10
3.349280
 20
1.228040
  0
VERTEX
  8
0
  6
CONTINUOUS
 10
3.371280
 20
1.237280
  0
VERTEX
  8
0
  6
CONTINUOUS
 10
3.395040
 20
1.242120
  0
VERTEX
  8
0
  6
CONTINUOUS
 10
3.420120
 20
1.242120
  0
VERTEX
  8
0
  6
CONTINUOUS
 10
3.443880
 20
1.237280
  0
VERTEX
  8
0
  6
CONTINUOUS
 10
3.465880
 20
1.228040
  0
VERTEX
  8
0
  6
CONTINUOUS
 10
3.485240
 20
1.214840
  0
VERTEX
  8
0
  6
CONTINUOUS
 10
3.501960
 20
1.198120
  0
VERTEX
  8
0
  6
CONTINUOUS
 10
3.515160
 20
1.178760
  0
VERTEX
  8
0
  6
CONTINUOUS
 10
3.524400
 20
1.156760
  0
VERTEX
  8
0
  6
CONTINUOUS
 10
3.529240
 20
1.133000
  0
VERTEX
  8
0
  6
CONTINUOUS
 10
3.529680
 20
1.120240
  0
VERTEX
  8
0
  6
CONTINUOUS
 10
3.545520
 20
1.120240
  0
VERTEX
  8
0
  6
CONTINUOUS
 10
3.545960
 20
1.133000
  0
VERTEX
  8
0
  6
CONTINUOUS
 10
3.551240
 20
1.156760
  0
VERTEX
  8
0
  6
CONTINUOUS
 10
3.560480
 20
1.178760
  0
VERTEX
  8
0
  6
CONTINUOUS
 10
3.573680
 20
1.198120
  0
VERTEX
  8
0
  6
CONTINUOUS
 10
3.589960
 20
1.214840
  0
VERTEX
  8
0
  6
CONTINUOUS
 10
3.609760
 20
1.228040
  0
VERTEX
  8
0
  6
CONTINUOUS
 10
3.631760
 20
1.237280
  0
VERTEX
  8
0
  6
CONTINUOUS
 10
3.655520
 20
1.242120
  0
VERTEX
  8
0
  6
CONTINUOUS
 10
3.680600
 20
1.242120
  0
VERTEX
  8
0
  6
CONTINUOUS
 10
3.704360
 20
1.237280
  0
VERTEX
  8
0
  6
CONTINUOUS
 10
3.726360
 20
1.228040
  0
VERTEX
  8
0
  6
CONTINUOUS
 10
3.745720
 20
1.214840
  0
VERTEX
  8
0
  6
CONTINUOUS
 10
3.762440
 20
1.198120
  0
VERTEX
  8
0
  6
CONTINUOUS
 10
3.775640
 20
1.178760
  0
VERTEX
  8
0
  6
CONTINUOUS
 10
3.784880
 20
1.156760
  0
VERTEX
  8
0
  6
CONTINUOUS
 10
3.789720
 20
1.133000
  0
VERTEX
  8
0
  6
CONTINUOUS
 10
3.790160
 20
1.120240
  0
VERTEX
  8
0
  6
CONTINUOUS
 10
3.809080
 20
1.120240
  0
VERTEX
  8
0
  6
CONTINUOUS
 10
3.809520
 20
1.133000
  0
VERTEX
  8
0
  6
CONTINUOUS
 10
3.814800
 20
1.156760
  0
VERTEX
  8
0
  6
CONTINUOUS
 10
3.824040
 20
1.178760
  0
VERTEX
  8
0
  6
CONTINUOUS
 10
3.837240
 20
1.198120
  0
VERTEX
  8
0
  6
CONTINUOUS
 10
3.853520
 20
1.214840
  0
VERTEX
  8
0
  6
CONTINUOUS
 10
3.873320
 20
1.228040
  0
VERTEX
  8
0
  6
CONTINUOUS
 10
3.895320
 20
1.237280
  0
VERTEX
  8
0
  6
CONTINUOUS
 10
3.919080
 20
1.242120
  0
VERTEX
  8
0
  6
CONTINUOUS
 10
3.944160
 20
1.242120
  0
VERTEX
  8
0
  6
CONTINUOUS
 10
3.967920
 20
1.237280
  0
VERTEX
  8
0
  6
CONTINUOUS
 10
3.989920
 20
1.228040
  0
VERTEX
  8
0
  6
CONTINUOUS
 10
4.009280
 20
1.214840
  0
VERTEX
  8
0
  6
CONTINUOUS
 10
4.026000
 20
1.198120
  0
VERTEX
  8
0
  6
CONTINUOUS
 10
4.039200
 20
1.178760
  0
VERTEX
  8
0
  6
CONTINUOUS
 10
4.048440
 20
1.156760
  0
VERTEX
  8
0
  6
CONTINUOUS
 10
4.053280
 20
1.133000
  0
VERTEX
  8
0
  6
CONTINUOUS
 10
4.053720
 20
1.120240
  0
VERTEX
  8
0
  6
CONTINUOUS
 10
4.070000
 20
1.120240
  0
VERTEX
  8
0
  6
CONTINUOUS
 10
4.070440
 20
1.133000
  0
VERTEX
  8
0
  6
CONTINUOUS
 10
4.075280
 20
1.156760
  0
VERTEX
  8
0
  6
CONTINUOUS
 10
4.084520
 20
1.178760
  0
VERTEX
  8
0
  6
CONTINUOUS
 10
4.097720
 20
1.198120
  0
VERTEX
  8
0
  6
CONTINUOUS
 10
4.114440
 20
1.214840
  0
VERTEX
  8
0
  6
CONTINUOUS
 10
4.133800
 20
1.228040
  0
VERTEX
  8
0
  6
CONTINUOUS
 10
4.155800
 20
1.237280
  0
VERTEX
  8
0
  6
CONTINUOUS
 10
4.179560
 20
1.242120
  0
VERTEX
  8
0
  6
CONTINUOUS
 10
4.204640
 20
1.242120
  0
VERTEX
  8
0
  6
CONTINUOUS
 10
4.228400
 20
1.237280
  0
VERTEX
  8
0
  6
CONTINUOUS
 10
4.250400
 20
1.228040
  0
VERTEX
  8
0
  6
CONTINUOUS
 10
4.270200
 20
1.214840
  0
VERTEX
  8
0
  6
CONTINUOUS
 10
4.286480
 20
1.198120
  0
VERTEX
  8
0
  6
CONTINUOUS
 10
4.299680
 20
1.178760
  0
VERTEX
  8
0
  6
CONTINUOUS
 10
4.308920
 20
1.156760
  0
VERTEX
  8
0
  6
CONTINUOUS
 10
4.314200
 20
1.133000
  0
VERTEX
  8
0
  6
CONTINUOUS
 10
4.314640
 20
1.120240
  0
VERTEX
  8
0
  6
CONTINUOUS
 10
4.333560
 20
1.120240
  0
VERTEX
  8
0
  6
CONTINUOUS
 10
4.334000
 20
1.133000
  0
VERTEX
  8
0
  6
CONTINUOUS
 10
4.338840
 20
1.156760
  0
VERTEX
  8
0
  6
CONTINUOUS
 10
4.348080
 20
1.178760
  0
VERTEX
  8
0
  6
CONTINUOUS
 10
4.361280
 20
1.198120
  0
VERTEX
  8
0
  6
CONTINUOUS
 10
4.378000
 20
1.214840
  0
VERTEX
  8
0
  6
CONTINUOUS
 10
4.397360
 20
1.228040
  0
VERTEX
  8
0
  6
CONTINUOUS
 10
4.419360
 20
1.237280
  0
VERTEX
  8
0
  6
CONTINUOUS
 10
4.443120
 20
1.242120
  0
VERTEX
  8
0
  6
CONTINUOUS
 10
4.468200
 20
1.242120
  0
VERTEX
  8
0
  6
CONTINUOUS
 10
4.491960
 20
1.237280
  0
VERTEX
  8
0
  6
CONTINUOUS
 10
4.513960
 20
1.228040
  0
VERTEX
  8
0
  6
CONTINUOUS
 10
4.533760
 20
1.214840
  0
VERTEX
  8
0
  6
CONTINUOUS
 10
4.550040
 20
1.198120
  0
VERTEX
  8
0
  6
CONTINUOUS
 10
4.563240
 20
1.178760
  0
VERTEX
  8
0
  6
CONTINUOUS
 10
4.572480
 20
1.156760
  0
VERTEX
  8
0
  6
CONTINUOUS
 10
4.577760
 20
1.133000
  0
VERTEX
  8
0
  6
CONTINUOUS
 10
4.578200
 20
1.120240
  0
VERTEX
  8
0
  6
CONTINUOUS
 10
4.594040
 20
1.120240
  0
VERTEX
  8
0
  6
CONTINUOUS
 10
4.594480
 20
1.133000
  0
VERTEX
  8
0
  6
CONTINUOUS
 10
4.599320
 20
1.156760
  0
VERTEX
  8
0
  6
CONTINUOUS
 10
4.608560
 20
1.178760
  0
VERTEX
  8
0
  6
CONTINUOUS
 10
4.621760
 20
1.198120
  0
VERTEX
  8
0
  6
CONTINUOUS
 10
4.638480
 20
1.214840
  0
VERTEX
  8
0
  6
CONTINUOUS
 10
4.657840
 20
1.228040
  0
VERTEX
  8
0
  6
CONTINUOUS
 10
4.679840
 20
1.237280
  0
VERTEX
  8
0
  6
CONTINUOUS
 10
4.703600
 20
1.242120
  0
VERTEX
  8
0
  6
CONTINUOUS
 10
4.728680
 20
1.242120
  0
VERTEX
  8
0
  6
CONTINUOUS
 10
4.752440
 20
1.237280
  0
VERTEX
  8
0
  6
CONTINUOUS
 10
4.774440
 20
1.228040
  0
VERTEX
  8
0
  6
CONTINUOUS
 10
4.794240
 20
1.214840
  0
VERTEX
  8
0
  6
CONTINUOUS
 10
4.810520
 20
1.198120
  0
VERTEX
  8
0
  6
CONTINUOUS
 10
4.823720
 20
1.178760
  0
VERTEX
  8
0
  6
CONTINUOUS
 10
4.832960
 20
1.156760
  0
VERTEX
  8
0
  6
CONTINUOUS
 10
4.838240
 20
1.133000
  0
VERTEX
  8
0
  6
CONTINUOUS
 10
4.838680
 20
1.120240
  0
VERTEX
  8
0
  6
CONTINUOUS
 10
4.857600
 20
1.120240
  0
VERTEX
  8
0
  6
CONTINUOUS
 10
4.858040
 20
1.133000
  0
VERTEX
  8
0
  6
CONTINUOUS
 10
4.863320
 20
1.156760
  0
VERTEX
  8
0
  6
CONTINUOUS
 10
4.872560
 20
1.178760
  0
VERTEX
  8
0
  6
CONTINUOUS
 10
4.885760
 20
1.198120
  0
VERTEX
  8
0
  6
CONTINUOUS
 10
4.902040
 20
1.214840
  0
VERTEX
  8
0
  6
CONTINUOUS
 10
4.921840
 20
1.228040
  0
VERTEX
  8
0
  6
CONTINUOUS
 10
4.943840
 20
1.237280
  0
VERTEX
  8
0
  6
CONTINUOUS
 10
4.967600
 20
1.242120
  0
VERTEX
  8
0
  6
CONTINUOUS
 10
4.992240
 20
1.242120
  0
VERTEX
  8
0
  6
CONTINUOUS
 10
5.016000
 20
1.237280
  0
VERTEX
  8
0
  6
CONTINUOUS
 10
5.038000
 20
1.228040
  0
VERTEX
  8
0
  6
CONTINUOUS
 10
5.057800
 20
1.214840
  0
VERTEX
  8
0
  6
CONTINUOUS
 10
5.074080
 20
1.198120
  0
VERTEX
  8
0
  6
CONTINUOUS
 10
5.087280
 20
1.178760
  0
VERTEX
  8
0
  6
CONTINUOUS
 10
5.096520
 20
1.156760
  0
VERTEX
  8
0
  6
CONTINUOUS
 10
5.101800
 20
1.133000
  0
VERTEX
  8
0
  6
CONTINUOUS
 10
5.102240
 20
1.120240
  0
VERTEX
  8
0
  6
CONTINUOUS
 10
5.118080
 20
1.120240
  0
VERTEX
  8
0
  6
CONTINUOUS
 10
5.118520
 20
1.133000
  0
VERTEX
  8
0
  6
CONTINUOUS
 10
5.123800
 20
1.156760
  0
VERTEX
  8
0
  6
CONTINUOUS
 10
5.133040
 20
1.178760
  0
VERTEX
  8
0
  6
CONTINUOUS
 10
5.146240
 20
1.198120
  0
VERTEX
  8
0
  6
CONTINUOUS
 10
5.162520
 20
1.214840
  0
VERTEX
  8
0
  6
CONTINUOUS
 10
5.182320
 20
1.228040
  0
VERTEX
  8
0
  6
CONTINUOUS
 10
5.204320
 20
1.237280
  0
VERTEX
  8
0
  6
CONTINUOUS
 10
5.228080
 20
1.242120
  0
VERTEX
  8
0
  6
CONTINUOUS
 10
5.252720
 20
1.242120
  0
VERTEX
  8
0
  6
CONTINUOUS
 10
5.276480
 20
1.237280
  0
VERTEX
  8
0
  6
CONTINUOUS
 10
5.298480
 20
1.228040
  0
VERTEX
  8
0
  6
CONTINUOUS
 10
5.318280
 20
1.214840
  0
VERTEX
  8
0
  6
CONTINUOUS
 10
5.334560
 20
1.198120
  0
VERTEX
  8
0
  6
CONTINUOUS
 10
5.347760
 20
1.178760
  0
VERTEX
  8
0
  6
CONTINUOUS
 10
5.357000
 20
1.156760
  0
VERTEX
  8
0
  6
CONTINUOUS
 10
5.362280
 20
1.133000
  0
VERTEX
  8
0
  6
CONTINUOUS
 10
5.362720
 20
1.120240
  0
VERTEX
  8
0
  6
CONTINUOUS
 10
5.381640
 20
1.120240
  0
VERTEX
  8
0
  6
CONTINUOUS
 10
5.382080
 20
1.133000
  0
VERTEX
  8
0
  6
CONTINUOUS
 10
5.387360
 20
1.156760
  0
VERTEX
  8
0
  6
CONTINUOUS
 10
5.396600
 20
1.178760
  0
VERTEX
  8
0
  6
CONTINUOUS
 10
5.409800
 20
1.198120
  0
VERTEX
  8
0
  6
CONTINUOUS
 10
5.426080
 20
1.214840
  0
VERTEX
  8
0
  6
CONTINUOUS
 10
5.445880
 20
1.228040
  0
VERTEX
  8
0
  6
CONTINUOUS
 10
5.467880
 20
1.237280
  0
VERTEX
  8
0
  6
CONTINUOUS
 10
5.491640
 20
1.242120
  0
VERTEX
  8
0
  6
CONTINUOUS
 10
5.516720
 20
1.242120
  0
VERTEX
  8
0
  6
CONTINUOUS
 10
5.540480
 20
1.237280
  0
VERTEX
  8
0
  6
CONTINUOUS
 10
5.562480
 20
1.228040
  0
VERTEX
  8
0
  6
CONTINUOUS
 10
5.581840
 20
1.214840
  0
VERTEX
  8
0
  6
CONTINUOUS
 10
5.598560
 20
1.198120
  0
VERTEX
  8
0
  6
CONTINUOUS
 10
5.611760
 20
1.178760
  0
VERTEX
  8
0
  6
CONTINUOUS
 10
5.621000
 20
1.156760
  0
VERTEX
  8
0
  6
CONTINUOUS
 10
5.625840
 20
1.133000
  0
VERTEX
  8
0
  6
CONTINUOUS
 10
5.626280
 20
1.120240
  0
VERTEX
  8
0
  6
CONTINUOUS
 10
5.642120
 20
1.120680
  0
VERTEX
  8
0
  6
CONTINUOUS
 10
5.649160
 20
1.271160
  0
VERTEX
  8
0
  6
CONTINUOUS
 10
5.725720
 20
1.270720
  0
VERTEX
  8
0
  6
CONTINUOUS
 10
5.761360
 20
1.271600
  0
VERTEX
  8
0
  6
CONTINUOUS
 10
5.826920
 20
1.277320
  0
VERTEX
  8
0
  6
CONTINUOUS
 10
5.856840
 20
1.281280
  0
VERTEX
  8
0
  6
CONTINUOUS
 10
5.911840
 20
1.292280
  0
VERTEX
  8
0
  6
CONTINUOUS
 10
5.959800
 20
1.306360
  0
VERTEX
  8
0
  6
CONTINUOUS
 10
6.002040
 20
1.323520
  0
VERTEX
  8
0
  6
CONTINUOUS
 10
6.038560
 20
1.343760
  0
VERTEX
  8
0
  6
CONTINUOUS
 10
6.054840
 20
1.354320
  0
VERTEX
  8
0
  6
CONTINUOUS
 10
6.083000
 20
1.378080
  0
VERTEX
  8
0
  6
CONTINUOUS
 10
6.106760
 20
1.404040
  0
VERTEX
  8
0
  6
CONTINUOUS
 10
6.125680
 20
1.431320
  0
VERTEX
  8
0
  6
CONTINUOUS
 10
6.140640
 20
1.460800
  0
VERTEX
  8
0
  6
CONTINUOUS
 10
6.151640
 20
1.491160
  0
VERTEX
  8
0
  6
CONTINUOUS
 10
6.162640
 20
1.539120
  0
VERTEX
  8
0
  6
CONTINUOUS
 10
6.166160
 20
1.572120
  0
VERTEX
  8
0
  6
CONTINUOUS
 10
6.167040
 20
1.605120
  0
VERTEX
  8
0
  6
CONTINUOUS
 10
6.776440
 20
1.605120
  0
VERTEX
  8
0
  6
CONTINUOUS
 10
6.776440
 20
0.783640
  0
VERTEX
  8
0
  6
CONTINUOUS
 10
1.863840
 20
0.783640
  0
SEQEND
  8
0
  0
POLYLINE
  8
0
  6
CONTINUOUS
 66
     1
 40
0.000000
 41
0.000000
  0
VERTEX
  8
0
  6
CONTINUOUS
 10
1.863840
 20
2.265560
  0
VERTEX
  8
0
  6
CONTINUOUS
 10
1.863840
 20
3.087040
  0
VERTEX
  8
0
  6
CONTINUOUS
 10
2.473680
 20
3.087040
  0
VERTEX
  8
0
  6
CONTINUOUS
 10
2.474560
 20
3.053600
  0
VERTEX
  8
0
  6
CONTINUOUS
 10
2.478080
 20
3.021040
  0
VERTEX
  8
0
  6
CONTINUOUS
 10
2.489080
 20
2.973080
  0
VERTEX
  8
0
  6
CONTINUOUS
 10
2.500080
 20
2.942280
  0
VERTEX
  8
0
  6
CONTINUOUS
 10
2.515040
 20
2.913240
  0
VERTEX
  8
0
  6
CONTINUOUS
 10
2.533960
 20
2.885520
  0
VERTEX
  8
0
  6
CONTINUOUS
 10
2.557720
 20
2.860000
  0
VERTEX
  8
0
  6
CONTINUOUS
 10
2.585880
 20
2.836240
  0
VERTEX
  8
0
  6
CONTINUOUS
 10
2.619760
 20
2.815120
  0
VERTEX
  8
0
  6
CONTINUOUS
 10
2.658920
 20
2.796200
  0
VERTEX
  8
0
  6
CONTINUOUS
 10
2.704240
 20
2.780800
  0
VERTEX
  8
0
  6
CONTINUOUS
 10
2.755720
 20
2.768040
  0
VERTEX
  8
0
  6
CONTINUOUS
 10
2.813800
 20
2.758800
  0
VERTEX
  8
0
  6
CONTINUOUS
 10
2.879360
 20
2.753520
  0
VERTEX
  8
0
  6
CONTINUOUS
 10
2.952400
 20
2.751760
  0
VERTEX
  8
0
  6
CONTINUOUS
 10
2.991560
 20
2.752640
  0
VERTEX
  8
0
  6
CONTINUOUS
 10
2.998600
 20
2.602160
  0
VERTEX
  8
0
  6
CONTINUOUS
 10
3.021480
 20
2.602160
  0
VERTEX
  8
0
  6
CONTINUOUS
 10
3.021920
 20
2.614920
  0
VERTEX
  8
0
  6
CONTINUOUS
 10
3.027200
 20
2.638680
  0
VERTEX
  8
0
  6
CONTINUOUS
 10
3.036440
 20
2.660680
  0
VERTEX
  8
0
  6
CONTINUOUS
 10
3.049640
 20
2.680040
  0
VERTEX
  8
0
  6
CONTINUOUS
 10
3.065920
 20
2.696760
  0
VERTEX
  8
0
  6
CONTINUOUS
 10
3.085720
 20
2.709960
  0
VERTEX
  8
0
  6
CONTINUOUS
 10
3.107720
 20
2.719200
  0
VERTEX
  8
0
  6
CONTINUOUS
 10
3.131480
 20
2.724040
  0
VERTEX
  8
0
  6
CONTINUOUS
 10
3.156560
 20
2.724040
  0
VERTEX
  8
0
  6
CONTINUOUS
 10
3.180320
 20
2.719200
  0
VERTEX
  8
0
  6
CONTINUOUS
 10
3.202320
 20
2.709960
  0
VERTEX
  8
0
  6
CONTINUOUS
 10
3.221680
 20
2.696760
  0
VERTEX
  8
0
  6
CONTINUOUS
 10
3.238400
 20
2.680040
  0
VERTEX
  8
0
  6
CONTINUOUS
 10
3.251600
 20
2.660680
  0
VERTEX
  8
0
  6
CONTINUOUS
 10
3.260840
 20
2.638680
  0
VERTEX
  8
0
  6
CONTINUOUS
 10
3.265680
 20
2.614920
  0
VERTEX
  8
0
  6
CONTINUOUS
 10
3.266120
 20
2.602160
  0
VERTEX
  8
0
  6
CONTINUOUS
 10
3.285040
 20
2.602160
  0
VERTEX
  8
0
  6
CONTINUOUS
 10
3.285480
 20
2.614920
  0
VERTEX
  8
0
  6
CONTINUOUS
 10
3.290760
 20
2.638680
  0
VERTEX
  8
0
  6
CONTINUOUS
 10
3.300000
 20
2.660680
  0
VERTEX
  8
0
  6
CONTINUOUS
 10
3.313200
 20
2.680040
  0
VERTEX
  8
0
  6
CONTINUOUS
 10
3.329480
 20
2.696760
  0
VERTEX
  8
0
  6
CONTINUOUS
 10
3.349280
 20
2.709960
  0
VERTEX
  8
0
  6
CONTINUOUS
 10
3.371280
 20
2.719200
  0
VERTEX
  8
0
  6
CONTINUOUS
 10
3.395040
 20
2.724040
  0
VERTEX
  8
0
  6
CONTINUOUS
 10
3.420120
 20
2.724040
  0
VERTEX
  8
0
  6
CONTINUOUS
 10
3.443880
 20
2.719200
  0
VERTEX
  8
0
  6
CONTINUOUS
 10
3.465880
 20
2.709960
  0
VERTEX
  8
0
  6
CONTINUOUS
 10
3.485240
 20
2.696760
  0
VERTEX
  8
0
  6
CONTINUOUS
 10
3.501960
 20
2.680040
  0
VERTEX
  8
0
  6
CONTINUOUS
 10
3.515160
 20
2.660680
  0
VERTEX
  8
0
  6
CONTINUOUS
 10
3.524400
 20
2.638680
  0
VERTEX
  8
0
  6
CONTINUOUS
 10
3.529240
 20
2.614920
  0
VERTEX
  8
0
  6
CONTINUOUS
 10
3.529680
 20
2.602160
  0
VERTEX
  8
0
  6
CONTINUOUS
 10
3.545520
 20
2.602160
  0
VERTEX
  8
0
  6
CONTINUOUS
 10
3.545960
 20
2.614920
  0
VERTEX
  8
0
  6
CONTINUOUS
 10
3.551240
 20
2.638680
  0
VERTEX
  8
0
  6
CONTINUOUS
 10
3.560480
 20
2.660680
  0
VERTEX
  8
0
  6
CONTINUOUS
 10
3.573680
 20
2.680040
  0
VERTEX
  8
0
  6
CONTINUOUS
 10
3.589960
 20
2.696760
  0
VERTEX
  8
0
  6
CONTINUOUS
 10
3.609760
 20
2.709960
  0
VERTEX
  8
0
  6
CONTINUOUS
 10
3.631760
 20
2.719200
  0
VERTEX
  8
0
  6
CONTINUOUS
 10
3.655520
 20
2.724040
  0
VERTEX
  8
0
  6
CONTINUOUS
 10
3.680600
 20
2.724040
  0
VERTEX
  8
0
  6
CONTINUOUS
 10
3.704360
 20
2.719200
  0
VERTEX
  8
0
  6
CONTINUOUS
 10
3.726360
 20
2.709960
  0
VERTEX
  8
0
  6
CONTINUOUS
 10
3.745720
 20
2.696760
  0
VERTEX
  8
0
  6
CONTINUOUS
 10
3.762440
 20
2.680040
  0
VERTEX
  8
0
  6
CONTINUOUS
 10
3.775640
 20
2.660680
  0
VERTEX
  8
0
  6
CONTINUOUS
 10
3.784880
 20
2.638680
  0
VERTEX
  8
0
  6
CONTINUOUS
 10
3.789720
 20
2.614920
  0
VERTEX
  8
0
  6
CONTINUOUS
 10
3.790160
 20
2.602160
  0
VERTEX
  8
0
  6
CONTINUOUS
 10
3.809080
 20
2.602160
  0
VERTEX
  8
0
  6
CONTINUOUS
 10
3.809520
 20
2.614920
  0
VERTEX
  8
0
  6
CONTINUOUS
 10
3.814800
 20
2.638680
  0
VERTEX
  8
0
  6
CONTINUOUS
 10
3.824040
 20
2.660680
  0
VERTEX
  8
0
  6
CONTINUOUS
 10
3.837240
 20
2.680040
  0
VERTEX
  8
0
  6
CONTINUOUS
 10
3.853520
 20
2.696760
  0
VERTEX
  8
0
  6
CONTINUOUS
 10
3.873320
 20
2.709960
  0
VERTEX
  8
0
  6
CONTINUOUS
 10
3.895320
 20
2.719200
  0
VERTEX
  8
0
  6
CONTINUOUS
 10
3.919080
 20
2.724040
  0
VERTEX
  8
0
  6
CONTINUOUS
 10
3.944160
 20
2.724040
  0
VERTEX
  8
0
  6
CONTINUOUS
 10
3.967920
 20
2.719200
  0
VERTEX
  8
0
  6
CONTINUOUS
 10
3.989920
 20
2.709960
  0
VERTEX
  8
0
  6
CONTINUOUS
 10
4.009280
 20
2.696760
  0
VERTEX
  8
0
  6
CONTINUOUS
 10
4.026000
 20
2.680040
  0
VERTEX
  8
0
  6
CONTINUOUS
 10
4.039200
 20
2.660680
  0
VERTEX
  8
0
  6
CONTINUOUS
 10
4.048440
 20
2.638680
  0
VERTEX
  8
0
  6
CONTINUOUS
 10
4.053280
 20
2.614920
  0
VERTEX
  8
0
  6
CONTINUOUS
 10
4.053720
 20
2.602160
  0
VERTEX
  8
0
  6
CONTINUOUS
 10
4.070000
 20
2.602160
  0
VERTEX
  8
0
  6
CONTINUOUS
 10
4.070440
 20
2.614920
  0
VERTEX
  8
0
  6
CONTINUOUS
 10
4.075280
 20
2.638680
  0
VERTEX
  8
0
  6
CONTINUOUS
 10
4.084520
 20
2.660680
  0
VERTEX
  8
0
  6
CONTINUOUS
 10
4.097720
 20
2.680040
  0
VERTEX
  8
0
  6
CONTINUOUS
 10
4.114440
 20
2.696760
  0
VERTEX
  8
0
  6
CONTINUOUS
 10
4.133800
 20
2.709960
  0
VERTEX
  8
0
  6
CONTINUOUS
 10
4.155800
 20
2.719200
  0
VERTEX
  8
0
  6
CONTINUOUS
 10
4.179560
 20
2.724040
  0
VERTEX
  8
0
  6
CONTINUOUS
 10
4.204640
 20
2.724040
  0
VERTEX
  8
0
  6
CONTINUOUS
 10
4.228400
 20
2.719200
  0
VERTEX
  8
0
  6
CONTINUOUS
 10
4.250400
 20
2.709960
  0
VERTEX
  8
0
  6
CONTINUOUS
 10
4.270200
 20
2.696760
  0
VERTEX
  8
0
  6
CONTINUOUS
 10
4.286480
 20
2.680040
  0
VERTEX
  8
0
  6
CONTINUOUS
 10
4.299680
 20
2.660680
  0
VERTEX
  8
0
  6
CONTINUOUS
 10
4.308920
 20
2.638680
  0
VERTEX
  8
0
  6
CONTINUOUS
 10
4.314200
 20
2.614920
  0
VERTEX
  8
0
  6
CONTINUOUS
 10
4.314640
 20
2.602160
  0
VERTEX
  8
0
  6
CONTINUOUS
 10
4.333560
 20
2.602160
  0
VERTEX
  8
0
  6
CONTINUOUS
 10
4.334000
 20
2.614920
  0
VERTEX
  8
0
  6
CONTINUOUS
 10
4.338840
 20
2.638680
  0
VERTEX
  8
0
  6
CONTINUOUS
 10
4.348080
 20
2.660680
  0
VERTEX
  8
0
  6
CONTINUOUS
 10
4.361280
 20
2.680040
  0
VERTEX
  8
0
  6
CONTINUOUS
 10
4.378000
 20
2.696760
  0
VERTEX
  8
0
  6
CONTINUOUS
 10
4.397360
 20
2.709960
  0
VERTEX
  8
0
  6
CONTINUOUS
 10
4.419360
 20
2.719200
  0
VERTEX
  8
0
  6
CONTINUOUS
 10
4.443120
 20
2.724040
  0
VERTEX
  8
0
  6
CONTINUOUS
 10
4.468200
 20
2.724040
  0
VERTEX
  8
0
  6
CONTINUOUS
 10
4.491960
 20
2.719200
  0
VERTEX
  8
0
  6
CONTINUOUS
 10
4.513960
 20
2.709960
  0
VERTEX
  8
0
  6
CONTINUOUS
 10
4.533760
 20
2.696760
  0
VERTEX
  8
0
  6
CONTINUOUS
 10
4.550040
 20
2.680040
  0
VERTEX
  8
0
  6
CONTINUOUS
 10
4.563240
 20
2.660680
  0
VERTEX
  8
0
  6
CONTINUOUS
 10
4.572480
 20
2.638680
  0
VERTEX
  8
0
  6
CONTINUOUS
 10
4.577760
 20
2.614920
  0
VERTEX
  8
0
  6
CONTINUOUS
 10
4.578200
 20
2.602160
  0
VERTEX
  8
0
  6
CONTINUOUS
 10
4.594040
 20
2.602160
  0
VERTEX
  8
0
  6
CONTINUOUS
 10
4.594480
 20
2.614920
  0
VERTEX
  8
0
  6
CONTINUOUS
 10
4.599320
 20
2.638680
  0
VERTEX
  8
0
  6
CONTINUOUS
 10
4.608560
 20
2.660680
  0
VERTEX
  8
0
  6
CONTINUOUS
 10
4.621760
 20
2.680040
  0
VERTEX
  8
0
  6
CONTINUOUS
 10
4.638480
 20
2.696760
  0
VERTEX
  8
0
  6
CONTINUOUS
 10
4.657840
 20
2.709960
  0
VERTEX
  8
0
  6
CONTINUOUS
 10
4.679840
 20
2.719200
  0
VERTEX
  8
0
  6
CONTINUOUS
 10
4.703600
 20
2.724040
  0
VERTEX
  8
0
  6
CONTINUOUS
 10
4.728680
 20
2.724040
  0
VERTEX
  8
0
  6
CONTINUOUS
 10
4.752440
 20
2.719200
  0
VERTEX
  8
0
  6
CONTINUOUS
 10
4.774440
 20
2.709960
  0
VERTEX
  8
0
  6
CONTINUOUS
 10
4.794240
 20
2.696760
  0
VERTEX
  8
0
  6
CONTINUOUS
 10
4.810520
 20
2.680040
  0
VERTEX
  8
0
  6
CONTINUOUS
 10
4.823720
 20
2.660680
  0
VERTEX
  8
0
  6
CONTINUOUS
 10
4.832960
 20
2.638680
  0
VERTEX
  8
0
  6
CONTINUOUS
 10
4.838240
 20
2.614920
  0
VERTEX
  8
0
  6
CONTINUOUS
 10
4.838680
 20
2.602160
  0
VERTEX
  8
0
  6
CONTINUOUS
 10
4.857600
 20
2.602160
  0
VERTEX
  8
0
  6
CONTINUOUS
 10
4.858040
 20
2.614920
  0
VERTEX
  8
0
  6
CONTINUOUS
 10
4.863320
 20
2.638680
  0
VERTEX
  8
0
  6
CONTINUOUS
 10
4.872560
 20
2.660680
  0
VERTEX
  8
0
  6
CONTINUOUS
 10
4.885760
 20
2.680040
  0
VERTEX
  8
0
  6
CONTINUOUS
 10
4.902040
 20
2.696760
  0
VERTEX
  8
0
  6
CONTINUOUS
 10
4.921840
 20
2.709960
  0
VERTEX
  8
0
  6
CONTINUOUS
 10
4.943840
 20
2.719200
  0
VERTEX
  8
0
  6
CONTINUOUS
 10
4.967600
 20
2.724040
  0
VERTEX
  8
0
  6
CONTINUOUS
 10
4.992240
 20
2.724040
  0
VERTEX
  8
0
  6
CONTINUOUS
 10
5.016000
 20
2.719200
  0
VERTEX
  8
0
  6
CONTINUOUS
 10
5.038000
 20
2.709960
  0
VERTEX
  8
0
  6
CONTINUOUS
 10
5.057800
 20
2.696760
  0
VERTEX
  8
0
  6
CONTINUOUS
 10
5.074080
 20
2.680040
  0
VERTEX
  8
0
  6
CONTINUOUS
 10
5.087280
 20
2.660680
  0
VERTEX
  8
0
  6
CONTINUOUS
 10
5.096520
 20
2.638680
  0
VERTEX
  8
0
  6
CONTINUOUS
 10
5.101800
 20
2.614920
  0
VERTEX
  8
0
  6
CONTINUOUS
 10
5.102240
 20
2.602160
  0
VERTEX
  8
0
  6
CONTINUOUS
 10
5.118080
 20
2.602160
  0
VERTEX
  8
0
  6
CONTINUOUS
 10
5.118520
 20
2.614920
  0
VERTEX
  8
0
  6
CONTINUOUS
 10
5.123800
 20
2.638680
  0
VERTEX
  8
0
  6
CONTINUOUS
 10
5.133040
 20
2.660680
  0
VERTEX
  8
0
  6
CONTINUOUS
 10
5.146240
 20
2.680040
  0
VERTEX
  8
0
  6
CONTINUOUS
 10
5.162520
 20
2.696760
  0
VERTEX
  8
0
  6
CONTINUOUS
 10
5.182320
 20
2.709960
  0
VERTEX
  8
0
  6
CONTINUOUS
 10
5.204320
 20
2.719200
  0
VERTEX
  8
0
  6
CONTINUOUS
 10
5.228080
 20
2.724040
  0
VERTEX
  8
0
  6
CONTINUOUS
 10
5.252720
 20
2.724040
  0
VERTEX
  8
0
  6
CONTINUOUS
 10
5.276480
 20
2.719200
  0
VERTEX
  8
0
  6
CONTINUOUS
 10
5.298480
 20
2.709960
  0
VERTEX
  8
0
  6
CONTINUOUS
 10
5.318280
 20
2.696760
  0
VERTEX
  8
0
  6
CONTINUOUS
 10
5.334560
 20
2.680040
  0
VERTEX
  8
0
  6
CONTINUOUS
 10
5.347760
 20
2.660680
  0
VERTEX
  8
0
  6
CONTINUOUS
 10
5.357000
 20
2.638680
  0
VERTEX
  8
0
  6
CONTINUOUS
 10
5.362280
 20
2.614920
  0
VERTEX
  8
0
  6
CONTINUOUS
 10
5.362720
 20
2.602160
  0
VERTEX
  8
0
  6
CONTINUOUS
 10
5.381640
 20
2.602160
  0
VERTEX
  8
0
  6
CONTINUOUS
 10
5.382080
 20
2.614920
  0
VERTEX
  8
0
  6
CONTINUOUS
 10
5.387360
 20
2.638680
  0
VERTEX
  8
0
  6
CONTINUOUS
 10
5.396600
 20
2.660680
  0
VERTEX
  8
0
  6
CONTINUOUS
 10
5.409800
 20
2.680040
  0
VERTEX
  8
0
  6
CONTINUOUS
 10
5.426080
 20
2.696760
  0
VERTEX
  8
0
  6
CONTINUOUS
 10
5.445880
 20
2.709960
  0
VERTEX
  8
0
  6
CONTINUOUS
 10
5.467880
 20
2.719200
  0
VERTEX
  8
0
  6
CONTINUOUS
 10
5.491640
 20
2.724040
  0
VERTEX
  8
0
  6
CONTINUOUS
 10
5.516720
 20
2.724040
  0
VERTEX
  8
0
  6
CONTINUOUS
 10
5.540480
 20
2.719200
  0
VERTEX
  8
0
  6
CONTINUOUS
 10
5.562480
 20
2.709960
  0
VERTEX
  8
0
  6
CONTINUOUS
 10
5.581840
 20
2.696760
  0
VERTEX
  8
0
  6
CONTINUOUS
 10
5.598560
 20
2.680040
  0
VERTEX
  8
0
  6
CONTINUOUS
 10
5.611760
 20
2.660680
  0
VERTEX
  8
0
  6
CONTINUOUS
 10
5.621000
 20
2.638680
  0
VERTEX
  8
0
  6
CONTINUOUS
 10
5.625840
 20
2.614920
  0
VERTEX
  8
0
  6
CONTINUOUS
 10
5.626280
 20
2.602160
  0
VERTEX
  8
0
  6
CONTINUOUS
 10
5.642120
 20
2.602160
  0
VERTEX
  8
0
  6
CONTINUOUS
 10
5.649160
 20
2.753080
  0
VERTEX
  8
0
  6
CONTINUOUS
 10
5.725720
 20
2.752640
  0
VERTEX
  8
0
  6
CONTINUOUS
 10
5.761360
 20
2.753520
  0
VERTEX
  8
0
  6
CONTINUOUS
 10
5.826920
 20
2.759240
  0
VERTEX
  8
0
  6
CONTINUOUS
 10
5.856840
 20
2.763200
  0
VERTEX
  8
0
  6
CONTINUOUS
 10
5.911840
 20
2.774200
  0
VERTEX
  8
0
  6
CONTINUOUS
 10
5.959800
 20
2.788280
  0
VERTEX
  8
0
  6
CONTINUOUS
 10
6.002040
 20
2.805440
  0
VERTEX
  8
0
  6
CONTINUOUS
 10
6.038560
 20
2.825680
  0
VERTEX
  8
0
  6
CONTINUOUS
 10
6.054840
 20
2.836240
  0
VERTEX
  8
0
  6
CONTINUOUS
 10
6.083000
 20
2.860000
  0
VERTEX
  8
0
  6
CONTINUOUS
 10
6.106760
 20
2.885960
  0
VERTEX
  8
0
  6
CONTINUOUS
 10
6.125680
 20
2.913240
  0
VERTEX
  8
0
  6
CONTINUOUS
 10
6.140640
 20
2.942720
  0
VERTEX
  8
0
  6
CONTINUOUS
 10
6.151640
 20
2.973080
  0
VERTEX
  8
0
  6
CONTINUOUS
 10
6.162640
 20
3.021040
  0
VERTEX
  8
0
  6
CONTINUOUS
 10
6.166160
 20
3.054040
  0
VERTEX
  8
0
  6
CONTINUOUS
 10
6.167040
 20
3.087040
  0
VERTEX
  8
0
  6
CONTINUOUS
 10
6.776440
 20
3.087040
  0
VERTEX
  8
0
  6
CONTINUOUS
 10
6.776440
 20
2.265560
  0
VERTEX
  8
0
  6
CONTINUOUS
 10
1.863840
 20
2.265560
  0
SEQEND
  8
0
  0
SOLID
  8
0
 62
    15
 10
4.315960
 20
4.649040
 11
4.313320
 21
5.379000
 12
4.334880
 22
4.649040
 13
4.332240
 23
5.379000
  0
POLYLINE
  8
0
  6
CONTINUOUS
 66
     1
 40
0.000000
 41
0.000000
  0
VERTEX
  8
0
  6
CONTINUOUS
 10
4.315960
 20
4.649040
  0
VERTEX
  8
0
  6
CONTINUOUS
 10
4.313320
 20
5.379000
  0
VERTEX
  8
0
  6
CONTINUOUS
 10
4.332240
 20
5.379000
  0
VERTEX
  8
0
  6
CONTINUOUS
 10
4.334880
 20
4.649040
  0
VERTEX
  8
0
  6
CONTINUOUS
 10
4.315960
 20
4.649040
  0
SEQEND
  8
0
  0
SOLID
  8
0
 62
    15
 10
1.865160
 20
4.312000
 11
1.862520
 21
5.041960
 12
1.865160
 22
5.133920
 13
1.862520
 23
5.863440
  0
POLYLINE
  8
0
  6
CONTINUOUS
 66
     1
 40
0.000000
 41
0.000000
  0
VERTEX
  8
0
  6
CONTINUOUS
 10
1.865160
 20
4.312000
  0
VERTEX
  8
0
  6
CONTINUOUS
 10
1.862520
 20
5.041960
  0
VERTEX
  8
0
  6
CONTINUOUS
 10
1.862520
 20
5.863440
  0
VERTEX
  8
0
  6
CONTINUOUS
 10
1.865160
 20
5.133920
  0
VERTEX
  8
0
  6
CONTINUOUS
 10
1.865160
 20
4.312000
  0
SEQEND
  8
0
  0
SOLID
  8
0
 62
    15
 10
2.475000
 20
5.133920
 11
2.472360
 21
5.863440
 12
2.479400
 22
5.067920
 13
2.476760
 23
5.797440
  0
POLYLINE
  8
0
  6
CONTINUOUS
 66
     1
 40
0.000000
 41
0.000000
  0
VERTEX
  8
0
  6
CONTINUOUS
 10
2.475000
 20
5.133920
  0
VERTEX
  8
0
  6
CONTINUOUS
 10
2.472360
 20
5.863440
  0
VERTEX
  8
0
  6
CONTINUOUS
 10
2.476760
 20
5.797440
  0
VERTEX
  8
0
  6
CONTINUOUS
 10
2.479400
 20
5.067920
  0
VERTEX
  8
0
  6
CONTINUOUS
 10
2.475000
 20
5.133920
  0
SEQEND
  8
0
  0
SOLID
  8
0
 62
    15
 10
2.479400
 20
5.067920
 11
2.476760
 21
5.797440
 12
2.495240
 22
5.004560
 13
2.492600
 23
5.734520
  0
POLYLINE
  8
0
  6
CONTINUOUS
 66
     1
 40
0.000000
 41
0.000000
  0
VERTEX
  8
0
  6
CONTINUOUS
 10
2.479400
 20
5.067920
  0
VERTEX
  8
0
  6
CONTINUOUS
 10
2.476760
 20
5.797440
  0
VERTEX
  8
0
  6
CONTINUOUS
 10
2.492600
 20
5.734520
  0
VERTEX
  8
0
  6
CONTINUOUS
 10
2.495240
 20
5.004560
  0
VERTEX
  8
0
  6
CONTINUOUS
 10
2.479400
 20
5.067920
  0
SEQEND
  8
0
  0
SOLID
  8
0
 62
    15
 10
2.495240
 20
5.004560
 11
2.492600
 21
5.734520
 12
2.508440
 22
4.974640
 13
2.505800
 23
5.704600
  0
POLYLINE
  8
0
  6
CONTINUOUS
 66
     1
 40
0.000000
 41
0.000000
  0
VERTEX
  8
0
  6
CONTINUOUS
 10
2.495240
 20
5.004560
  0
VERTEX
  8
0
  6
CONTINUOUS
 10
2.492600
 20
5.734520
  0
VERTEX
  8
0
  6
CONTINUOUS
 10
2.505800
 20
5.704600
  0
VERTEX
  8
0
  6
CONTINUOUS
 10
2.508440
 20
4.974640
  0
VERTEX
  8
0
  6
CONTINUOUS
 10
2.495240
 20
5.004560
  0
SEQEND
  8
0
  0
SOLID
  8
0
 62
    15
 10
2.508440
 20
4.974640
 11
2.505800
 21
5.704600
 12
2.525160
 22
4.946040
 13
2.522520
 23
5.676000
  0
POLYLINE
  8
0
  6
CONTINUOUS
 66
     1
 40
0.000000
 41
0.000000
  0
VERTEX
  8
0
  6
CONTINUOUS
 10
2.508440
 20
4.974640
  0
VERTEX
  8
0
  6
CONTINUOUS
 10
2.505800
 20
5.704600
  0
VERTEX
  8
0
  6
CONTINUOUS
 10
2.522520
 20
5.676000
  0
VERTEX
  8
0
  6
CONTINUOUS
 10
2.525160
 20
4.946040
  0
VERTEX
  8
0
  6
CONTINUOUS
 10
2.508440
 20
4.974640
  0
SEQEND
  8
0
  0
SOLID
  8
0
 62
    15
 10
2.525160
 20
4.946040
 11
2.522520
 21
5.676000
 12
2.546720
 22
4.919200
 13
2.543640
 23
5.649160
  0
POLYLINE
  8
0
  6
CONTINUOUS
 66
     1
 40
0.000000
 41
0.000000
  0
VERTEX
  8
0
  6
CONTINUOUS
 10
2.525160
 20
4.946040
  0
VERTEX
  8
0
  6
CONTINUOUS
 10
2.522520
 20
5.676000
  0
VERTEX
  8
0
  6
CONTINUOUS
 10
2.543640
 20
5.649160
  0
VERTEX
  8
0
  6
CONTINUOUS
 10
2.546720
 20
4.919200
  0
VERTEX
  8
0
  6
CONTINUOUS
 10
2.525160
 20
4.946040
  0
SEQEND
  8
0
  0
SOLID
  8
0
 62
    15
 10
2.546720
 20
4.919200
 11
2.543640
 21
5.649160
 12
2.572680
 22
4.894560
 13
2.570040
 23
5.624520
  0
POLYLINE
  8
0
  6
CONTINUOUS
 66
     1
 40
0.000000
 41
0.000000
  0
VERTEX
  8
0
  6
CONTINUOUS
 10
2.546720
 20
4.919200
  0
VERTEX
  8
0
  6
CONTINUOUS
 10
2.543640
 20
5.649160
  0
VERTEX
  8
0
  6
CONTINUOUS
 10
2.570040
 20
5.624520
  0
VERTEX
  8
0
  6
CONTINUOUS
 10
2.572680
 20
4.894560
  0
VERTEX
  8
0
  6
CONTINUOUS
 10
2.546720
 20
4.919200
  0
SEQEND
  8
0
  0
SOLID
  8
0
 62
    15
 10
2.572680
 20
4.894560
 11
2.570040
 21
5.624520
 12
2.603480
 22
4.872120
 13
2.600840
 23
5.602080
  0
POLYLINE
  8
0
  6
CONTINUOUS
 66
     1
 40
0.000000
 41
0.000000
  0
VERTEX
  8
0
  6
CONTINUOUS
 10
2.572680
 20
4.894560
  0
VERTEX
  8
0
  6
CONTINUOUS
 10
2.570040
 20
5.624520
  0
VERTEX
  8
0
  6
CONTINUOUS
 10
2.600840
 20
5.602080
  0
VERTEX
  8
0
  6
CONTINUOUS
 10
2.603480
 20
4.872120
  0
VERTEX
  8
0
  6
CONTINUOUS
 10
2.572680
 20
4.894560
  0
SEQEND
  8
0
  0
SOLID
  8
0
 62
    15
 10
2.603480
 20
4.872120
 11
2.600840
 21
5.602080
 12
2.640000
 22
4.851880
 13
2.637360
 23
5.581840
  0
POLYLINE
  8
0
  6
CONTINUOUS
 66
     1
 40
0.000000
 41
0.000000
  0
VERTEX
  8
0
  6
CONTINUOUS
 10
2.603480
 20
4.872120
  0
VERTEX
  8
0
  6
CONTINUOUS
 10
2.600840
 20
5.602080
  0
VERTEX
  8
0
  6
CONTINUOUS
 10
2.637360
 20
5.581840
  0
VERTEX
  8
0
  6
CONTINUOUS
 10
2.640000
 20
4.851880
  0
VERTEX
  8
0
  6
CONTINUOUS
 10
2.603480
 20
4.872120
  0
SEQEND
  8
0
  0
SOLID
  8
0
 62
    15
 10
2.640000
 20
4.851880
 11
2.637360
 21
5.581840
 12
2.681800
 22
4.834720
 13
2.679160
 23
5.564680
  0
POLYLINE
  8
0
  6
CONTINUOUS
 66
     1
 40
0.000000
 41
0.000000
  0
VERTEX
  8
0
  6
CONTINUOUS
 10
2.640000
 20
4.851880
  0
VERTEX
  8
0
  6
CONTINUOUS
 10
2.637360
 20
5.581840
  0
VERTEX
  8
0
  6
CONTINUOUS
 10
2.679160
 20
5.564680
  0
VERTEX
  8
0
  6
CONTINUOUS
 10
2.681800
 20
4.834720
  0
VERTEX
  8
0
  6
CONTINUOUS
 10
2.640000
 20
4.851880
  0
SEQEND
  8
0
  0
SOLID
  8
0
 62
    15
 10
2.681800
 20
4.834720
 11
2.679160
 21
5.564680
 12
2.730200
 22
4.820640
 13
2.727560
 23
5.550600
  0
POLYLINE
  8
0
  6
CONTINUOUS
 66
     1
 40
0.000000
 41
0.000000
  0
VERTEX
  8
0
  6
CONTINUOUS
 10
2.681800
 20
4.834720
  0
VERTEX
  8
0
  6
CONTINUOUS
 10
2.679160
 20
5.564680
  0
VERTEX
  8
0
  6
CONTINUOUS
 10
2.727560
 20
5.550600
  0
VERTEX
  8
0
  6
CONTINUOUS
 10
2.730200
 20
4.820640
  0
VERTEX
  8
0
  6
CONTINUOUS
 10
2.681800
 20
4.834720
  0
SEQEND
  8
0
  0
SOLID
  8
0
 62
    15
 10
2.730200
 20
4.820640
 11
2.727560
 21
5.550600
 12
2.785200
 22
4.810080
 13
2.782560
 23
5.539600
  0
POLYLINE
  8
0
  6
CONTINUOUS
 66
     1
 40
0.000000
 41
0.000000
  0
VERTEX
  8
0
  6
CONTINUOUS
 10
2.730200
 20
4.820640
  0
VERTEX
  8
0
  6
CONTINUOUS
 10
2.727560
 20
5.550600
  0
VERTEX
  8
0
  6
CONTINUOUS
 10
2.782560
 20
5.539600
  0
VERTEX
  8
0
  6
CONTINUOUS
 10
2.785200
 20
4.810080
  0
VERTEX
  8
0
  6
CONTINUOUS
 10
2.730200
 20
4.820640
  0
SEQEND
  8
0
  0
SOLID
  8
0
 62
    15
 10
2.785200
 20
4.810080
 11
2.782560
 21
5.539600
 12
2.846800
 22
4.802600
 13
2.844160
 23
5.532560
  0
POLYLINE
  8
0
  6
CONTINUOUS
 66
     1
 40
0.000000
 41
0.000000
  0
VERTEX
  8
0
  6
CONTINUOUS
 10
2.785200
 20
4.810080
  0
VERTEX
  8
0
  6
CONTINUOUS
 10
2.782560
 20
5.539600
  0
VERTEX
  8
0
  6
CONTINUOUS
 10
2.844160
 20
5.532560
  0
VERTEX
  8
0
  6
CONTINUOUS
 10
2.846800
 20
4.802600
  0
VERTEX
  8
0
  6
CONTINUOUS
 10
2.785200
 20
4.810080
  0
SEQEND
  8
0
  0
SOLID
  8
0
 62
    15
 10
2.846800
 20
4.802600
 11
2.844160
 21
5.532560
 12
2.915880
 22
4.799080
 13
2.913240
 23
5.529040
  0
POLYLINE
  8
0
  6
CONTINUOUS
 66
     1
 40
0.000000
 41
0.000000
  0
VERTEX
  8
0
  6
CONTINUOUS
 10
2.846800
 20
4.802600
  0
VERTEX
  8
0
  6
CONTINUOUS
 10
2.844160
 20
5.532560
  0
VERTEX
  8
0
  6
CONTINUOUS
 10
2.913240
 20
5.529040
  0
VERTEX
  8
0
  6
CONTINUOUS
 10
2.915880
 20
4.799080
  0
VERTEX
  8
0
  6
CONTINUOUS
 10
2.846800
 20
4.802600
  0
SEQEND
  8
0
  0
SOLID
  8
0
 62
    15
 10
2.915880
 20
4.799080
 11
2.913240
 21
5.529040
 12
2.992880
 22
4.799520
 13
2.990240
 23
5.529480
  0
POLYLINE
  8
0
  6
CONTINUOUS
 66
     1
 40
0.000000
 41
0.000000
  0
VERTEX
  8
0
  6
CONTINUOUS
 10
2.915880
 20
4.799080
  0
VERTEX
  8
0
  6
CONTINUOUS
 10
2.913240
 20
5.529040
  0
VERTEX
  8
0
  6
CONTINUOUS
 10
2.990240
 20
5.529480
  0
VERTEX
  8
0
  6
CONTINUOUS
 10
2.992880
 20
4.799520
  0
VERTEX
  8
0
  6
CONTINUOUS
 10
2.915880
 20
4.799080
  0
SEQEND
  8
0
  0
SOLID
  8
0
 62
    15
 10
2.992880
 20
4.799520
 11
2.990240
 21
5.529480
 12
2.999920
 22
4.649040
 13
2.996840
 23
5.379000
  0
POLYLINE
  8
0
  6
CONTINUOUS
 66
     1
 40
0.000000
 41
0.000000
  0
VERTEX
  8
0
  6
CONTINUOUS
 10
2.992880
 20
4.799520
  0
VERTEX
  8
0
  6
CONTINUOUS
 10
2.990240
 20
5.529480
  0
VERTEX
  8
0
  6
CONTINUOUS
 10
2.996840
 20
5.379000
  0
VERTEX
  8
0
  6
CONTINUOUS
 10
2.999920
 20
4.649040
  0
VERTEX
  8
0
  6
CONTINUOUS
 10
2.992880
 20
4.799520
  0
SEQEND
  8
0
  0
SOLID
  8
0
 62
    15
 10
2.999920
 20
4.649040
 11
2.996840
 21
5.379000
 12
3.022800
 22
4.649040
 13
3.020160
 23
5.379000
  0
POLYLINE
  8
0
  6
CONTINUOUS
 66
     1
 40
0.000000
 41
0.000000
  0
VERTEX
  8
0
  6
CONTINUOUS
 10
2.999920
 20
4.649040
  0
VERTEX
  8
0
  6
CONTINUOUS
 10
2.996840
 20
5.379000
  0
VERTEX
  8
0
  6
CONTINUOUS
 10
3.020160
 20
5.379000
  0
VERTEX
  8
0
  6
CONTINUOUS
 10
3.022800
 20
4.649040
  0
VERTEX
  8
0
  6
CONTINUOUS
 10
2.999920
 20
4.649040
  0
SEQEND
  8
0
  0
SOLID
  8
0
 62
    15
 10
3.022800
 20
4.649040
 11
3.020160
 21
5.379000
 12
3.025440
 22
4.673680
 13
3.022800
 23
5.403640
  0
POLYLINE
  8
0
  6
CONTINUOUS
 66
     1
 40
0.000000
 41
0.000000
  0
VERTEX
  8
0
  6
CONTINUOUS
 10
3.022800
 20
4.649040
  0
VERTEX
  8
0
  6
CONTINUOUS
 10
3.020160
 20
5.379000
  0
VERTEX
  8
0
  6
CONTINUOUS
 10
3.022800
 20
5.403640
  0
VERTEX
  8
0
  6
CONTINUOUS
 10
3.025440
 20
4.673680
  0
VERTEX
  8
0
  6
CONTINUOUS
 10
3.022800
 20
4.649040
  0
SEQEND
  8
0
  0
SOLID
  8
0
 62
    15
 10
3.025440
 20
4.673680
 11
3.022800
 21
5.403640
 12
3.032480
 22
4.696560
 13
3.029840
 23
5.426520
  0
POLYLINE
  8
0
  6
CONTINUOUS
 66
     1
 40
0.000000
 41
0.000000
  0
VERTEX
  8
0
  6
CONTINUOUS
 10
3.025440
 20
4.673680
  0
VERTEX
  8
0
  6
CONTINUOUS
 10
3.022800
 20
5.403640
  0
VERTEX
  8
0
  6
CONTINUOUS
 10
3.029840
 20
5.426520
  0
VERTEX
  8
0
  6
CONTINUOUS
 10
3.032480
 20
4.696560
  0
VERTEX
  8
0
  6
CONTINUOUS
 10
3.025440
 20
4.673680
  0
SEQEND
  8
0
  0
SOLID
  8
0
 62
    15
 10
3.032480
 20
4.696560
 11
3.029840
 21
5.426520
 12
3.043920
 22
4.717240
 13
3.040840
 23
5.447200
  0
POLYLINE
  8
0
  6
CONTINUOUS
 66
     1
 40
0.000000
 41
0.000000
  0
VERTEX
  8
0
  6
CONTINUOUS
 10
3.032480
 20
4.696560
  0
VERTEX
  8
0
  6
CONTINUOUS
 10
3.029840
 20
5.426520
  0
VERTEX
  8
0
  6
CONTINUOUS
 10
3.040840
 20
5.447200
  0
VERTEX
  8
0
  6
CONTINUOUS
 10
3.043920
 20
4.717240
  0
VERTEX
  8
0
  6
CONTINUOUS
 10
3.032480
 20
4.696560
  0
SEQEND
  8
0
  0
SOLID
  8
0
 62
    15
 10
3.043920
 20
4.717240
 11
3.040840
 21
5.447200
 12
3.058880
 22
4.735280
 13
3.055800
 23
5.465240
  0
POLYLINE
  8
0
  6
CONTINUOUS
 66
     1
 40
0.000000
 41
0.000000
  0
VERTEX
  8
0
  6
CONTINUOUS
 10
3.043920
 20
4.717240
  0
VERTEX
  8
0
  6
CONTINUOUS
 10
3.040840
 20
5.447200
  0
VERTEX
  8
0
  6
CONTINUOUS
 10
3.055800
 20
5.465240
  0
VERTEX
  8
0
  6
CONTINUOUS
 10
3.058880
 20
4.735280
  0
VERTEX
  8
0
  6
CONTINUOUS
 10
3.043920
 20
4.717240
  0
SEQEND
  8
0
  0
SOLID
  8
0
 62
    15
 10
3.058880
 20
4.735280
 11
3.055800
 21
5.465240
 12
3.076920
 22
4.750240
 13
3.073840
 23
5.480200
  0
POLYLINE
  8
0
  6
CONTINUOUS
 66
     1
 40
0.000000
 41
0.000000
  0
VERTEX
  8
0
  6
CONTINUOUS
 10
3.058880
 20
4.735280
  0
VERTEX
  8
0
  6
CONTINUOUS
 10
3.055800
 20
5.465240
  0
VERTEX
  8
0
  6
CONTINUOUS
 10
3.073840
 20
5.480200
  0
VERTEX
  8
0
  6
CONTINUOUS
 10
3.076920
 20
4.750240
  0
VERTEX
  8
0
  6
CONTINUOUS
 10
3.058880
 20
4.735280
  0
SEQEND
  8
0
  0
SOLID
  8
0
 62
    15
 10
3.076920
 20
4.750240
 11
3.073840
 21
5.480200
 12
3.097600
 22
4.761680
 13
3.094960
 23
5.491640
  0
POLYLINE
  8
0
  6
CONTINUOUS
 66
     1
 40
0.000000
 41
0.000000
  0
VERTEX
  8
0
  6
CONTINUOUS
 10
3.076920
 20
4.750240
  0
VERTEX
  8
0
  6
CONTINUOUS
 10
3.073840
 20
5.480200
  0
VERTEX
  8
0
  6
CONTINUOUS
 10
3.094960
 20
5.491640
  0
VERTEX
  8
0
  6
CONTINUOUS
 10
3.097600
 20
4.761680
  0
VERTEX
  8
0
  6
CONTINUOUS
 10
3.076920
 20
4.750240
  0
SEQEND
  8
0
  0
SOLID
  8
0
 62
    15
 10
3.097600
 20
4.761680
 11
3.094960
 21
5.491640
 12
3.120480
 22
4.768720
 13
3.117840
 23
5.498680
  0
POLYLINE
  8
0
  6
CONTINUOUS
 66
     1
 40
0.000000
 41
0.000000
  0
VERTEX
  8
0
  6
CONTINUOUS
 10
3.097600
 20
4.761680
  0
VERTEX
  8
0
  6
CONTINUOUS
 10
3.094960
 20
5.491640
  0
VERTEX
  8
0
  6
CONTINUOUS
 10
3.117840
 20
5.498680
  0
VERTEX
  8
0
  6
CONTINUOUS
 10
3.120480
 20
4.768720
  0
VERTEX
  8
0
  6
CONTINUOUS
 10
3.097600
 20
4.761680
  0
SEQEND
  8
0
  0
SOLID
  8
0
 62
    15
 10
3.120480
 20
4.768720
 11
3.117840
 21
5.498680
 12
3.145120
 22
4.771360
 13
3.142480
 23
5.501320
  0
POLYLINE
  8
0
  6
CONTINUOUS
 66
     1
 40
0.000000
 41
0.000000
  0
VERTEX
  8
0
  6
CONTINUOUS
 10
3.120480
 20
4.768720
  0
VERTEX
  8
0
  6
CONTINUOUS
 10
3.117840
 20
5.498680
  0
VERTEX
  8
0
  6
CONTINUOUS
 10
3.142480
 20
5.501320
  0
VERTEX
  8
0
  6
CONTINUOUS
 10
3.145120
 20
4.771360
  0
VERTEX
  8
0
  6
CONTINUOUS
 10
3.120480
 20
4.768720
  0
SEQEND
  8
0
  0
SOLID
  8
0
 62
    15
 10
3.145120
 20
4.771360
 11
3.142480
 21
5.501320
 12
3.169760
 22
4.768720
 13
3.167120
 23
5.498680
  0
POLYLINE
  8
0
  6
CONTINUOUS
 66
     1
 40
0.000000
 41
0.000000
  0
VERTEX
  8
0
  6
CONTINUOUS
 10
3.145120
 20
4.771360
  0
VERTEX
  8
0
  6
CONTINUOUS
 10
3.142480
 20
5.501320
  0
VERTEX
  8
0
  6
CONTINUOUS
 10
3.167120
 20
5.498680
  0
VERTEX
  8
0
  6
CONTINUOUS
 10
3.169760
 20
4.768720
  0
VERTEX
  8
0
  6
CONTINUOUS
 10
3.145120
 20
4.771360
  0
SEQEND
  8
0
  0
SOLID
  8
0
 62
    15
 10
3.169760
 20
4.768720
 11
3.167120
 21
5.498680
 12
3.192640
 22
4.761680
 13
3.190000
 23
5.491640
  0
POLYLINE
  8
0
  6
CONTINUOUS
 66
     1
 40
0.000000
 41
0.000000
  0
VERTEX
  8
0
  6
CONTINUOUS
 10
3.169760
 20
4.768720
  0
VERTEX
  8
0
  6
CONTINUOUS
 10
3.167120
 20
5.498680
  0
VERTEX
  8
0
  6
CONTINUOUS
 10
3.190000
 20
5.491640
  0
VERTEX
  8
0
  6
CONTINUOUS
 10
3.192640
 20
4.761680
  0
VERTEX
  8
0
  6
CONTINUOUS
 10
3.169760
 20
4.768720
  0
SEQEND
  8
0
  0
SOLID
  8
0
 62
    15
 10
3.192640
 20
4.761680
 11
3.190000
 21
5.491640
 12
3.213760
 22
4.750240
 13
3.210680
 23
5.480200
  0
POLYLINE
  8
0
  6
CONTINUOUS
 66
     1
 40
0.000000
 41
0.000000
  0
VERTEX
  8
0
  6
CONTINUOUS
 10
3.192640
 20
4.761680
  0
VERTEX
  8
0
  6
CONTINUOUS
 10
3.190000
 20
5.491640
  0
VERTEX
  8
0
  6
CONTINUOUS
 10
3.210680
 20
5.480200
  0
VERTEX
  8
0
  6
CONTINUOUS
 10
3.213760
 20
4.750240
  0
VERTEX
  8
0
  6
CONTINUOUS
 10
3.192640
 20
4.761680
  0
SEQEND
  8
0
  0
SOLID
  8
0
 62
    15
 10
3.213760
 20
4.750240
 11
3.210680
 21
5.480200
 12
3.231800
 22
4.735280
 13
3.229160
 23
5.465240
  0
POLYLINE
  8
0
  6
CONTINUOUS
 66
     1
 40
0.000000
 41
0.000000
  0
VERTEX
  8
0
  6
CONTINUOUS
 10
3.213760
 20
4.750240
  0
VERTEX
  8
0
  6
CONTINUOUS
 10
3.210680
 20
5.480200
  0
VERTEX
  8
0
  6
CONTINUOUS
 10
3.229160
 20
5.465240
  0
VERTEX
  8
0
  6
CONTINUOUS
 10
3.231800
 20
4.735280
  0
VERTEX
  8
0
  6
CONTINUOUS
 10
3.213760
 20
4.750240
  0
SEQEND
  8
0
  0
SOLID
  8
0
 62
    15
 10
3.231800
 20
4.735280
 11
3.229160
 21
5.465240
 12
3.246760
 22
4.717240
 13
3.243680
 23
5.447200
  0
POLYLINE
  8
0
  6
CONTINUOUS
 66
     1
 40
0.000000
 41
0.000000
  0
VERTEX
  8
0
  6
CONTINUOUS
 10
3.231800
 20
4.735280
  0
VERTEX
  8
0
  6
CONTINUOUS
 10
3.229160
 20
5.465240
  0
VERTEX
  8
0
  6
CONTINUOUS
 10
3.243680
 20
5.447200
  0
VERTEX
  8
0
  6
CONTINUOUS
 10
3.246760
 20
4.717240
  0
VERTEX
  8
0
  6
CONTINUOUS
 10
3.231800
 20
4.735280
  0
SEQEND
  8
0
  0
SOLID
  8
0
 62
    15
 10
3.246760
 20
4.717240
 11
3.243680
 21
5.447200
 12
3.257760
 22
4.696560
 13
3.255120
 23
5.426520
  0
POLYLINE
  8
0
  6
CONTINUOUS
 66
     1
 40
0.000000
 41
0.000000
  0
VERTEX
  8
0
  6
CONTINUOUS
 10
3.246760
 20
4.717240
  0
VERTEX
  8
0
  6
CONTINUOUS
 10
3.243680
 20
5.447200
  0
VERTEX
  8
0
  6
CONTINUOUS
 10
3.255120
 20
5.426520
  0
VERTEX
  8
0
  6
CONTINUOUS
 10
3.257760
 20
4.696560
  0
VERTEX
  8
0
  6
CONTINUOUS
 10
3.246760
 20
4.717240
  0
SEQEND
  8
0
  0
SOLID
  8
0
 62
    15
 10
3.257760
 20
4.696560
 11
3.255120
 21
5.426520
 12
3.264800
 22
4.673680
 13
3.262160
 23
5.403640
  0
POLYLINE
  8
0
  6
CONTINUOUS
 66
     1
 40
0.000000
 41
0.000000
  0
VERTEX
  8
0
  6
CONTINUOUS
 10
3.257760
 20
4.696560
  0
VERTEX
  8
0
  6
CONTINUOUS
 10
3.255120
 20
5.426520
  0
VERTEX
  8
0
  6
CONTINUOUS
 10
3.262160
 20
5.403640
  0
VERTEX
  8
0
  6
CONTINUOUS
 10
3.264800
 20
4.673680
  0
VERTEX
  8
0
  6
CONTINUOUS
 10
3.257760
 20
4.696560
  0
SEQEND
  8
0
  0
SOLID
  8
0
 62
    15
 10
3.264800
 20
4.673680
 11
3.262160
 21
5.403640
 12
3.267440
 22
4.649040
 13
3.264800
 23
5.379000
  0
POLYLINE
  8
0
  6
CONTINUOUS
 66
     1
 40
0.000000
 41
0.000000
  0
VERTEX
  8
0
  6
CONTINUOUS
 10
3.264800
 20
4.673680
  0
VERTEX
  8
0
  6
CONTINUOUS
 10
3.262160
 20
5.403640
  0
VERTEX
  8
0
  6
CONTINUOUS
 10
3.264800
 20
5.379000
  0
VERTEX
  8
0
  6
CONTINUOUS
 10
3.267440
 20
4.649040
  0
VERTEX
  8
0
  6
CONTINUOUS
 10
3.264800
 20
4.673680
  0
SEQEND
  8
0
  0
SOLID
  8
0
 62
    15
 10
3.267440
 20
4.649040
 11
3.264800
 21
5.379000
 12
3.286360
 22
4.649040
 13
3.283720
 23
5.379000
  0
POLYLINE
  8
0
  6
CONTINUOUS
 66
     1
 40
0.000000
 41
0.000000
  0
VERTEX
  8
0
  6
CONTINUOUS
 10
3.267440
 20
4.649040
  0
VERTEX
  8
0
  6
CONTINUOUS
 10
3.264800
 20
5.379000
  0
VERTEX
  8
0
  6
CONTINUOUS
 10
3.283720
 20
5.379000
  0
VERTEX
  8
0
  6
CONTINUOUS
 10
3.286360
 20
4.649040
  0
VERTEX
  8
0
  6
CONTINUOUS
 10
3.267440
 20
4.649040
  0
SEQEND
  8
0
  0
SOLID
  8
0
 62
    15
 10
3.286360
 20
4.649040
 11
3.283720
 21
5.379000
 12
3.289000
 22
4.673680
 13
3.286360
 23
5.403640
  0
POLYLINE
  8
0
  6
CONTINUOUS
 66
     1
 40
0.000000
 41
0.000000
  0
VERTEX
  8
0
  6
CONTINUOUS
 10
3.286360
 20
4.649040
  0
VERTEX
  8
0
  6
CONTINUOUS
 10
3.283720
 20
5.379000
  0
VERTEX
  8
0
  6
CONTINUOUS
 10
3.286360
 20
5.403640
  0
VERTEX
  8
0
  6
CONTINUOUS
 10
3.289000
 20
4.673680
  0
VERTEX
  8
0
  6
CONTINUOUS
 10
3.286360
 20
4.649040
  0
SEQEND
  8
0
  0
SOLID
  8
0
 62
    15
 10
3.289000
 20
4.673680
 11
3.286360
 21
5.403640
 12
3.296040
 22
4.696560
 13
3.293400
 23
5.426520
  0
POLYLINE
  8
0
  6
CONTINUOUS
 66
     1
 40
0.000000
 41
0.000000
  0
VERTEX
  8
0
  6
CONTINUOUS
 10
3.289000
 20
4.673680
  0
VERTEX
  8
0
  6
CONTINUOUS
 10
3.286360
 20
5.403640
  0
VERTEX
  8
0
  6
CONTINUOUS
 10
3.293400
 20
5.426520
  0
VERTEX
  8
0
  6
CONTINUOUS
 10
3.296040
 20
4.696560
  0
VERTEX
  8
0
  6
CONTINUOUS
 10
3.289000
 20
4.673680
  0
SEQEND
  8
0
  0
SOLID
  8
0
 62
    15
 10
3.296040
 20
4.696560
 11
3.293400
 21
5.426520
 12
3.307480
 22
4.717240
 13
3.304840
 23
5.447200
  0
POLYLINE
  8
0
  6
CONTINUOUS
 66
     1
 40
0.000000
 41
0.000000
  0
VERTEX
  8
0
  6
CONTINUOUS
 10
3.296040
 20
4.696560
  0
VERTEX
  8
0
  6
CONTINUOUS
 10
3.293400
 20
5.426520
  0
VERTEX
  8
0
  6
CONTINUOUS
 10
3.304840
 20
5.447200
  0
VERTEX
  8
0
  6
CONTINUOUS
 10
3.307480
 20
4.717240
  0
VERTEX
  8
0
  6
CONTINUOUS
 10
3.296040
 20
4.696560
  0
SEQEND
  8
0
  0
SOLID
  8
0
 62
    15
 10
3.307480
 20
4.717240
 11
3.304840
 21
5.447200
 12
3.322440
 22
4.735280
 13
3.319800
 23
5.465240
  0
POLYLINE
  8
0
  6
CONTINUOUS
 66
     1
 40
0.000000
 41
0.000000
  0
VERTEX
  8
0
  6
CONTINUOUS
 10
3.307480
 20
4.717240
  0
VERTEX
  8
0
  6
CONTINUOUS
 10
3.304840
 20
5.447200
  0
VERTEX
  8
0
  6
CONTINUOUS
 10
3.319800
 20
5.465240
  0
VERTEX
  8
0
  6
CONTINUOUS
 10
3.322440
 20
4.735280
  0
VERTEX
  8
0
  6
CONTINUOUS
 10
3.307480
 20
4.717240
  0
SEQEND
  8
0
  0
SOLID
  8
0
 62
    15
 10
3.322440
 20
4.735280
 11
3.319800
 21
5.465240
 12
3.340480
 22
4.750240
 13
3.337840
 23
5.480200
  0
POLYLINE
  8
0
  6
CONTINUOUS
 66
     1
 40
0.000000
 41
0.000000
  0
VERTEX
  8
0
  6
CONTINUOUS
 10
3.322440
 20
4.735280
  0
VERTEX
  8
0
  6
CONTINUOUS
 10
3.319800
 20
5.465240
  0
VERTEX
  8
0
  6
CONTINUOUS
 10
3.337840
 20
5.480200
  0
VERTEX
  8
0
  6
CONTINUOUS
 10
3.340480
 20
4.750240
  0
VERTEX
  8
0
  6
CONTINUOUS
 10
3.322440
 20
4.735280
  0
SEQEND
  8
0
  0
SOLID
  8
0
 62
    15
 10
3.340480
 20
4.750240
 11
3.337840
 21
5.480200
 12
3.361160
 22
4.761680
 13
3.358520
 23
5.491640
  0
POLYLINE
  8
0
  6
CONTINUOUS
 66
     1
 40
0.000000
 41
0.000000
  0
VERTEX
  8
0
  6
CONTINUOUS
 10
3.340480
 20
4.750240
  0
VERTEX
  8
0
  6
CONTINUOUS
 10
3.337840
 20
5.480200
  0
VERTEX
  8
0
  6
CONTINUOUS
 10
3.358520
 20
5.491640
  0
VERTEX
  8
0
  6
CONTINUOUS
 10
3.361160
 20
4.761680
  0
VERTEX
  8
0
  6
CONTINUOUS
 10
3.340480
 20
4.750240
  0
SEQEND
  8
0
  0
SOLID
  8
0
 62
    15
 10
3.361160
 20
4.761680
 11
3.358520
 21
5.491640
 12
3.384040
 22
4.768720
 13
3.381400
 23
5.498680
  0
POLYLINE
  8
0
  6
CONTINUOUS
 66
     1
 40
0.000000
 41
0.000000
  0
VERTEX
  8
0
  6
CONTINUOUS
 10
3.361160
 20
4.761680
  0
VERTEX
  8
0
  6
CONTINUOUS
 10
3.358520
 20
5.491640
  0
VERTEX
  8
0
  6
CONTINUOUS
 10
3.381400
 20
5.498680
  0
VERTEX
  8
0
  6
CONTINUOUS
 10
3.384040
 20
4.768720
  0
VERTEX
  8
0
  6
CONTINUOUS
 10
3.361160
 20
4.761680
  0
SEQEND
  8
0
  0
SOLID
  8
0
 62
    15
 10
3.384040
 20
4.768720
 11
3.381400
 21
5.498680
 12
3.408680
 22
4.771360
 13
3.406040
 23
5.501320
  0
POLYLINE
  8
0
  6
CONTINUOUS
 66
     1
 40
0.000000
 41
0.000000
  0
VERTEX
  8
0
  6
CONTINUOUS
 10
3.384040
 20
4.768720
  0
VERTEX
  8
0
  6
CONTINUOUS
 10
3.381400
 20
5.498680
  0
VERTEX
  8
0
  6
CONTINUOUS
 10
3.406040
 20
5.501320
  0
VERTEX
  8
0
  6
CONTINUOUS
 10
3.408680
 20
4.771360
  0
VERTEX
  8
0
  6
CONTINUOUS
 10
3.384040
 20
4.768720
  0
SEQEND
  8
0
  0
SOLID
  8
0
 62
    15
 10
3.408680
 20
4.771360
 11
3.406040
 21
5.501320
 12
3.433320
 22
4.768720
 13
3.430680
 23
5.498680
  0
POLYLINE
  8
0
  6
CONTINUOUS
 66
     1
 40
0.000000
 41
0.000000
  0
VERTEX
  8
0
  6
CONTINUOUS
 10
3.408680
 20
4.771360
  0
VERTEX
  8
0
  6
CONTINUOUS
 10
3.406040
 20
5.501320
  0
VERTEX
  8
0
  6
CONTINUOUS
 10
3.430680
 20
5.498680
  0
VERTEX
  8
0
  6
CONTINUOUS
 10
3.433320
 20
4.768720
  0
VERTEX
  8
0
  6
CONTINUOUS
 10
3.408680
 20
4.771360
  0
SEQEND
  8
0
  0
SOLID
  8
0
 62
    15
 10
3.433320
 20
4.768720
 11
3.430680
 21
5.498680
 12
3.456200
 22
4.761680
 13
3.453560
 23
5.491640
  0
POLYLINE
  8
0
  6
CONTINUOUS
 66
     1
 40
0.000000
 41
0.000000
  0
VERTEX
  8
0
  6
CONTINUOUS
 10
3.433320
 20
4.768720
  0
VERTEX
  8
0
  6
CONTINUOUS
 10
3.430680
 20
5.498680
  0
VERTEX
  8
0
  6
CONTINUOUS
 10
3.453560
 20
5.491640
  0
VERTEX
  8
0
  6
CONTINUOUS
 10
3.456200
 20
4.761680
  0
VERTEX
  8
0
  6
CONTINUOUS
 10
3.433320
 20
4.768720
  0
SEQEND
  8
0
  0
SOLID
  8
0
 62
    15
 10
3.456200
 20
4.761680
 11
3.453560
 21
5.491640
 12
3.477320
 22
4.750240
 13
3.474240
 23
5.480200
  0
POLYLINE
  8
0
  6
CONTINUOUS
 66
     1
 40
0.000000
 41
0.000000
  0
VERTEX
  8
0
  6
CONTINUOUS
 10
3.456200
 20
4.761680
  0
VERTEX
  8
0
  6
CONTINUOUS
 10
3.453560
 20
5.491640
  0
VERTEX
  8
0
  6
CONTINUOUS
 10
3.474240
 20
5.480200
  0
VERTEX
  8
0
  6
CONTINUOUS
 10
3.477320
 20
4.750240
  0
VERTEX
  8
0
  6
CONTINUOUS
 10
3.456200
 20
4.761680
  0
SEQEND
  8
0
  0
SOLID
  8
0
 62
    15
 10
3.477320
 20
4.750240
 11
3.474240
 21
5.480200
 12
3.495360
 22
4.735280
 13
3.492720
 23
5.465240
  0
POLYLINE
  8
0
  6
CONTINUOUS
 66
     1
 40
0.000000
 41
0.000000
  0
VERTEX
  8
0
  6
CONTINUOUS
 10
3.477320
 20
4.750240
  0
VERTEX
  8
0
  6
CONTINUOUS
 10
3.474240
 20
5.480200
  0
VERTEX
  8
0
  6
CONTINUOUS
 10
3.492720
 20
5.465240
  0
VERTEX
  8
0
  6
CONTINUOUS
 10
3.495360
 20
4.735280
  0
VERTEX
  8
0
  6
CONTINUOUS
 10
3.477320
 20
4.750240
  0
SEQEND
  8
0
  0
SOLID
  8
0
 62
    15
 10
3.495360
 20
4.735280
 11
3.492720
 21
5.465240
 12
3.510320
 22
4.717240
 13
3.507680
 23
5.447200
  0
POLYLINE
  8
0
  6
CONTINUOUS
 66
     1
 40
0.000000
 41
0.000000
  0
VERTEX
  8
0
  6
CONTINUOUS
 10
3.495360
 20
4.735280
  0
VERTEX
  8
0
  6
CONTINUOUS
 10
3.492720
 20
5.465240
  0
VERTEX
  8
0
  6
CONTINUOUS
 10
3.507680
 20
5.447200
  0
VERTEX
  8
0
  6
CONTINUOUS
 10
3.510320
 20
4.717240
  0
VERTEX
  8
0
  6
CONTINUOUS
 10
3.495360
 20
4.735280
  0
SEQEND
  8
0
  0
SOLID
  8
0
 62
    15
 10
3.510320
 20
4.717240
 11
3.507680
 21
5.447200
 12
3.521320
 22
4.696560
 13
3.518680
 23
5.426520
  0
POLYLINE
  8
0
  6
CONTINUOUS
 66
     1
 40
0.000000
 41
0.000000
  0
VERTEX
  8
0
  6
CONTINUOUS
 10
3.510320
 20
4.717240
  0
VERTEX
  8
0
  6
CONTINUOUS
 10
3.507680
 20
5.447200
  0
VERTEX
  8
0
  6
CONTINUOUS
 10
3.518680
 20
5.426520
  0
VERTEX
  8
0
  6
CONTINUOUS
 10
3.521320
 20
4.696560
  0
VERTEX
  8
0
  6
CONTINUOUS
 10
3.510320
 20
4.717240
  0
SEQEND
  8
0
  0
SOLID
  8
0
 62
    15
 10
3.521320
 20
4.696560
 11
3.518680
 21
5.426520
 12
3.528800
 22
4.673680
 13
3.525720
 23
5.403640
  0
POLYLINE
  8
0
  6
CONTINUOUS
 66
     1
 40
0.000000
 41
0.000000
  0
VERTEX
  8
0
  6
CONTINUOUS
 10
3.521320
 20
4.696560
  0
VERTEX
  8
0
  6
CONTINUOUS
 10
3.518680
 20
5.426520
  0
VERTEX
  8
0
  6
CONTINUOUS
 10
3.525720
 20
5.403640
  0
VERTEX
  8
0
  6
CONTINUOUS
 10
3.528800
 20
4.673680
  0
VERTEX
  8
0
  6
CONTINUOUS
 10
3.521320
 20
4.696560
  0
SEQEND
  8
0
  0
SOLID
  8
0
 62
    15
 10
3.528800
 20
4.673680
 11
3.525720
 21
5.403640
 12
3.531000
 22
4.649040
 13
3.528360
 23
5.379000
  0
POLYLINE
  8
0
  6
CONTINUOUS
 66
     1
 40
0.000000
 41
0.000000
  0
VERTEX
  8
0
  6
CONTINUOUS
 10
3.528800
 20
4.673680
  0
VERTEX
  8
0
  6
CONTINUOUS
 10
3.525720
 20
5.403640
  0
VERTEX
  8
0
  6
CONTINUOUS
 10
3.528360
 20
5.379000
  0
VERTEX
  8
0
  6
CONTINUOUS
 10
3.531000
 20
4.649040
  0
VERTEX
  8
0
  6
CONTINUOUS
 10
3.528800
 20
4.673680
  0
SEQEND
  8
0
  0
SOLID
  8
0
 62
    15
 10
3.531000
 20
4.649040
 11
3.528360
 21
5.379000
 12
3.546840
 22
4.649040
 13
3.544200
 23
5.379000
  0
POLYLINE
  8
0
  6
CONTINUOUS
 66
     1
 40
0.000000
 41
0.000000
  0
VERTEX
  8
0
  6
CONTINUOUS
 10
3.531000
 20
4.649040
  0
VERTEX
  8
0
  6
CONTINUOUS
 10
3.528360
 20
5.379000
  0
VERTEX
  8
0
  6
CONTINUOUS
 10
3.544200
 20
5.379000
  0
VERTEX
  8
0
  6
CONTINUOUS
 10
3.546840
 20
4.649040
  0
VERTEX
  8
0
  6
CONTINUOUS
 10
3.531000
 20
4.649040
  0
SEQEND
  8
0
  0
SOLID
  8
0
 62
    15
 10
3.546840
 20
4.649040
 11
3.544200
 21
5.379000
 12
3.549480
 22
4.673680
 13
3.546840
 23
5.403640
  0
POLYLINE
  8
0
  6
CONTINUOUS
 66
     1
 40
0.000000
 41
0.000000
  0
VERTEX
  8
0
  6
CONTINUOUS
 10
3.546840
 20
4.649040
  0
VERTEX
  8
0
  6
CONTINUOUS
 10
3.544200
 20
5.379000
  0
VERTEX
  8
0
  6
CONTINUOUS
 10
3.546840
 20
5.403640
  0
VERTEX
  8
0
  6
CONTINUOUS
 10
3.549480
 20
4.673680
  0
VERTEX
  8
0
  6
CONTINUOUS
 10
3.546840
 20
4.649040
  0
SEQEND
  8
0
  0
SOLID
  8
0
 62
    15
 10
3.549480
 20
4.673680
 11
3.546840
 21
5.403640
 12
3.556520
 22
4.696560
 13
3.553880
 23
5.426520
  0
POLYLINE
  8
0
  6
CONTINUOUS
 66
     1
 40
0.000000
 41
0.000000
  0
VERTEX
  8
0
  6
CONTINUOUS
 10
3.549480
 20
4.673680
  0
VERTEX
  8
0
  6
CONTINUOUS
 10
3.546840
 20
5.403640
  0
VERTEX
  8
0
  6
CONTINUOUS
 10
3.553880
 20
5.426520
  0
VERTEX
  8
0
  6
CONTINUOUS
 10
3.556520
 20
4.696560
  0
VERTEX
  8
0
  6
CONTINUOUS
 10
3.549480
 20
4.673680
  0
SEQEND
  8
0
  0
SOLID
  8
0
 62
    15
 10
3.556520
 20
4.696560
 11
3.553880
 21
5.426520
 12
3.567960
 22
4.717240
 13
3.565320
 23
5.447200
  0
POLYLINE
  8
0
  6
CONTINUOUS
 66
     1
 40
0.000000
 41
0.000000
  0
VERTEX
  8
0
  6
CONTINUOUS
 10
3.556520
 20
4.696560
  0
VERTEX
  8
0
  6
CONTINUOUS
 10
3.553880
 20
5.426520
  0
VERTEX
  8
0
  6
CONTINUOUS
 10
3.565320
 20
5.447200
  0
VERTEX
  8
0
  6
CONTINUOUS
 10
3.567960
 20
4.717240
  0
VERTEX
  8
0
  6
CONTINUOUS
 10
3.556520
 20
4.696560
  0
SEQEND
  8
0
  0
SOLID
  8
0
 62
    15
 10
3.567960
 20
4.717240
 11
3.565320
 21
5.447200
 12
3.582920
 22
4.735280
 13
3.580280
 23
5.465240
  0
POLYLINE
  8
0
  6
CONTINUOUS
 66
     1
 40
0.000000
 41
0.000000
  0
VERTEX
  8
0
  6
CONTINUOUS
 10
3.567960
 20
4.717240
  0
VERTEX
  8
0
  6
CONTINUOUS
 10
3.565320
 20
5.447200
  0
VERTEX
  8
0
  6
CONTINUOUS
 10
3.580280
 20
5.465240
  0
VERTEX
  8
0
  6
CONTINUOUS
 10
3.582920
 20
4.735280
  0
VERTEX
  8
0
  6
CONTINUOUS
 10
3.567960
 20
4.717240
  0
SEQEND
  8
0
  0
SOLID
  8
0
 62
    15
 10
3.582920
 20
4.735280
 11
3.580280
 21
5.465240
 12
3.600960
 22
4.750240
 13
3.598320
 23
5.480200
  0
POLYLINE
  8
0
  6
CONTINUOUS
 66
     1
 40
0.000000
 41
0.000000
  0
VERTEX
  8
0
  6
CONTINUOUS
 10
3.582920
 20
4.735280
  0
VERTEX
  8
0
  6
CONTINUOUS
 10
3.580280
 20
5.465240
  0
VERTEX
  8
0
  6
CONTINUOUS
 10
3.598320
 20
5.480200
  0
VERTEX
  8
0
  6
CONTINUOUS
 10
3.600960
 20
4.750240
  0
VERTEX
  8
0
  6
CONTINUOUS
 10
3.582920
 20
4.735280
  0
SEQEND
  8
0
  0
SOLID
  8
0
 62
    15
 10
3.600960
 20
4.750240
 11
3.598320
 21
5.480200
 12
3.621640
 22
4.761680
 13
3.619000
 23
5.491640
  0
POLYLINE
  8
0
  6
CONTINUOUS
 66
     1
 40
0.000000
 41
0.000000
  0
VERTEX
  8
0
  6
CONTINUOUS
 10
3.600960
 20
4.750240
  0
VERTEX
  8
0
  6
CONTINUOUS
 10
3.598320
 20
5.480200
  0
VERTEX
  8
0
  6
CONTINUOUS
 10
3.619000
 20
5.491640
  0
VERTEX
  8
0
  6
CONTINUOUS
 10
3.621640
 20
4.761680
  0
VERTEX
  8
0
  6
CONTINUOUS
 10
3.600960
 20
4.750240
  0
SEQEND
  8
0
  0
SOLID
  8
0
 62
    15
 10
3.621640
 20
4.761680
 11
3.619000
 21
5.491640
 12
3.644520
 22
4.768720
 13
3.641880
 23
5.498680
  0
POLYLINE
  8
0
  6
CONTINUOUS
 66
     1
 40
0.000000
 41
0.000000
  0
VERTEX
  8
0
  6
CONTINUOUS
 10
3.621640
 20
4.761680
  0
VERTEX
  8
0
  6
CONTINUOUS
 10
3.619000
 20
5.491640
  0
VERTEX
  8
0
  6
CONTINUOUS
 10
3.641880
 20
5.498680
  0
VERTEX
  8
0
  6
CONTINUOUS
 10
3.644520
 20
4.768720
  0
VERTEX
  8
0
  6
CONTINUOUS
 10
3.621640
 20
4.761680
  0
SEQEND
  8
0
  0
SOLID
  8
0
 62
    15
 10
3.644520
 20
4.768720
 11
3.641880
 21
5.498680
 12
3.669160
 22
4.771360
 13
3.666520
 23
5.501320
  0
POLYLINE
  8
0
  6
CONTINUOUS
 66
     1
 40
0.000000
 41
0.000000
  0
VERTEX
  8
0
  6
CONTINUOUS
 10
3.644520
 20
4.768720
  0
VERTEX
  8
0
  6
CONTINUOUS
 10
3.641880
 20
5.498680
  0
VERTEX
  8
0
  6
CONTINUOUS
 10
3.666520
 20
5.501320
  0
VERTEX
  8
0
  6
CONTINUOUS
 10
3.669160
 20
4.771360
  0
VERTEX
  8
0
  6
CONTINUOUS
 10
3.644520
 20
4.768720
  0
SEQEND
  8
0
  0
SOLID
  8
0
 62
    15
 10
3.669160
 20
4.771360
 11
3.666520
 21
5.501320
 12
3.693800
 22
4.768720
 13
3.691160
 23
5.498680
  0
POLYLINE
  8
0
  6
CONTINUOUS
 66
     1
 40
0.000000
 41
0.000000
  0
VERTEX
  8
0
  6
CONTINUOUS
 10
3.669160
 20
4.771360
  0
VERTEX
  8
0
  6
CONTINUOUS
 10
3.666520
 20
5.501320
  0
VERTEX
  8
0
  6
CONTINUOUS
 10
3.691160
 20
5.498680
  0
VERTEX
  8
0
  6
CONTINUOUS
 10
3.693800
 20
4.768720
  0
VERTEX
  8
0
  6
CONTINUOUS
 10
3.669160
 20
4.771360
  0
SEQEND
  8
0
  0
SOLID
  8
0
 62
    15
 10
3.693800
 20
4.768720
 11
3.691160
 21
5.498680
 12
3.717120
 22
4.761680
 13
3.714040
 23
5.491640
  0
POLYLINE
  8
0
  6
CONTINUOUS
 66
     1
 40
0.000000
 41
0.000000
  0
VERTEX
  8
0
  6
CONTINUOUS
 10
3.693800
 20
4.768720
  0
VERTEX
  8
0
  6
CONTINUOUS
 10
3.691160
 20
5.498680
  0
VERTEX
  8
0
  6
CONTINUOUS
 10
3.714040
 20
5.491640
  0
VERTEX
  8
0
  6
CONTINUOUS
 10
3.717120
 20
4.761680
  0
VERTEX
  8
0
  6
CONTINUOUS
 10
3.693800
 20
4.768720
  0
SEQEND
  8
0
  0
SOLID
  8
0
 62
    15
 10
3.717120
 20
4.761680
 11
3.714040
 21
5.491640
 12
3.737800
 22
4.750240
 13
3.735160
 23
5.480200
  0
POLYLINE
  8
0
  6
CONTINUOUS
 66
     1
 40
0.000000
 41
0.000000
  0
VERTEX
  8
0
  6
CONTINUOUS
 10
3.717120
 20
4.761680
  0
VERTEX
  8
0
  6
CONTINUOUS
 10
3.714040
 20
5.491640
  0
VERTEX
  8
0
  6
CONTINUOUS
 10
3.735160
 20
5.480200
  0
VERTEX
  8
0
  6
CONTINUOUS
 10
3.737800
 20
4.750240
  0
VERTEX
  8
0
  6
CONTINUOUS
 10
3.717120
 20
4.761680
  0
SEQEND
  8
0
  0
SOLID
  8
0
 62
    15
 10
3.737800
 20
4.750240
 11
3.735160
 21
5.480200
 12
3.755840
 22
4.735280
 13
3.753200
 23
5.465240
  0
POLYLINE
  8
0
  6
CONTINUOUS
 66
     1
 40
0.000000
 41
0.000000
  0
VERTEX
  8
0
  6
CONTINUOUS
 10
3.737800
 20
4.750240
  0
VERTEX
  8
0
  6
CONTINUOUS
 10
3.735160
 20
5.480200
  0
VERTEX
  8
0
  6
CONTINUOUS
 10
3.753200
 20
5.465240
  0
VERTEX
  8
0
  6
CONTINUOUS
 10
3.755840
 20
4.735280
  0
VERTEX
  8
0
  6
CONTINUOUS
 10
3.737800
 20
4.750240
  0
SEQEND
  8
0
  0
SOLID
  8
0
 62
    15
 10
3.755840
 20
4.735280
 11
3.753200
 21
5.465240
 12
3.770800
 22
4.717240
 13
3.768160
 23
5.447200
  0
POLYLINE
  8
0
  6
CONTINUOUS
 66
     1
 40
0.000000
 41
0.000000
  0
VERTEX
  8
0
  6
CONTINUOUS
 10
3.755840
 20
4.735280
  0
VERTEX
  8
0
  6
CONTINUOUS
 10
3.753200
 20
5.465240
  0
VERTEX
  8
0
  6
CONTINUOUS
 10
3.768160
 20
5.447200
  0
VERTEX
  8
0
  6
CONTINUOUS
 10
3.770800
 20
4.717240
  0
VERTEX
  8
0
  6
CONTINUOUS
 10
3.755840
 20
4.735280
  0
SEQEND
  8
0
  0
SOLID
  8
0
 62
    15
 10
3.770800
 20
4.717240
 11
3.768160
 21
5.447200
 12
3.781800
 22
4.696560
 13
3.779160
 23
5.426520
  0
POLYLINE
  8
0
  6
CONTINUOUS
 66
     1
 40
0.000000
 41
0.000000
  0
VERTEX
  8
0
  6
CONTINUOUS
 10
3.770800
 20
4.717240
  0
VERTEX
  8
0
  6
CONTINUOUS
 10
3.768160
 20
5.447200
  0
VERTEX
  8
0
  6
CONTINUOUS
 10
3.779160
 20
5.426520
  0
VERTEX
  8
0
  6
CONTINUOUS
 10
3.781800
 20
4.696560
  0
VERTEX
  8
0
  6
CONTINUOUS
 10
3.770800
 20
4.717240
  0
SEQEND
  8
0
  0
SOLID
  8
0
 62
    15
 10
3.781800
 20
4.696560
 11
3.779160
 21
5.426520
 12
3.789280
 22
4.673680
 13
3.786640
 23
5.403640
  0
POLYLINE
  8
0
  6
CONTINUOUS
 66
     1
 40
0.000000
 41
0.000000
  0
VERTEX
  8
0
  6
CONTINUOUS
 10
3.781800
 20
4.696560
  0
VERTEX
  8
0
  6
CONTINUOUS
 10
3.779160
 20
5.426520
  0
VERTEX
  8
0
  6
CONTINUOUS
 10
3.786640
 20
5.403640
  0
VERTEX
  8
0
  6
CONTINUOUS
 10
3.789280
 20
4.673680
  0
VERTEX
  8
0
  6
CONTINUOUS
 10
3.781800
 20
4.696560
  0
SEQEND
  8
0
  0
SOLID
  8
0
 62
    15
 10
3.789280
 20
4.673680
 11
3.786640
 21
5.403640
 12
3.791480
 22
4.649040
 13
3.788840
 23
5.379000
  0
POLYLINE
  8
0
  6
CONTINUOUS
 66
     1
 40
0.000000
 41
0.000000
  0
VERTEX
  8
0
  6
CONTINUOUS
 10
3.789280
 20
4.673680
  0
VERTEX
  8
0
  6
CONTINUOUS
 10
3.786640
 20
5.403640
  0
VERTEX
  8
0
  6
CONTINUOUS
 10
3.788840
 20
5.379000
  0
VERTEX
  8
0
  6
CONTINUOUS
 10
3.791480
 20
4.649040
  0
VERTEX
  8
0
  6
CONTINUOUS
 10
3.789280
 20
4.673680
  0
SEQEND
  8
0
  0
SOLID
  8
0
 62
    15
 10
3.791480
 20
4.649040
 11
3.788840
 21
5.379000
 12
3.810400
 22
4.649040
 13
3.807760
 23
5.379000
  0
POLYLINE
  8
0
  6
CONTINUOUS
 66
     1
 40
0.000000
 41
0.000000
  0
VERTEX
  8
0
  6
CONTINUOUS
 10
3.791480
 20
4.649040
  0
VERTEX
  8
0
  6
CONTINUOUS
 10
3.788840
 20
5.379000
  0
VERTEX
  8
0
  6
CONTINUOUS
 10
3.807760
 20
5.379000
  0
VERTEX
  8
0
  6
CONTINUOUS
 10
3.810400
 20
4.649040
  0
VERTEX
  8
0
  6
CONTINUOUS
 10
3.791480
 20
4.649040
  0
SEQEND
  8
0
  0
SOLID
  8
0
 62
    15
 10
3.810400
 20
4.649040
 11
3.807760
 21
5.379000
 12
3.813040
 22
4.673680
 13
3.810400
 23
5.403640
  0
POLYLINE
  8
0
  6
CONTINUOUS
 66
     1
 40
0.000000
 41
0.000000
  0
VERTEX
  8
0
  6
CONTINUOUS
 10
3.810400
 20
4.649040
  0
VERTEX
  8
0
  6
CONTINUOUS
 10
3.807760
 20
5.379000
  0
VERTEX
  8
0
  6
CONTINUOUS
 10
3.810400
 20
5.403640
  0
VERTEX
  8
0
  6
CONTINUOUS
 10
3.813040
 20
4.673680
  0
VERTEX
  8
0
  6
CONTINUOUS
 10
3.810400
 20
4.649040
  0
SEQEND
  8
0
  0
SOLID
  8
0
 62
    15
 10
3.813040
 20
4.673680
 11
3.810400
 21
5.403640
 12
3.820080
 22
4.696560
 13
3.817440
 23
5.426520
  0
POLYLINE
  8
0
  6
CONTINUOUS
 66
     1
 40
0.000000
 41
0.000000
  0
VERTEX
  8
0
  6
CONTINUOUS
 10
3.813040
 20
4.673680
  0
VERTEX
  8
0
  6
CONTINUOUS
 10
3.810400
 20
5.403640
  0
VERTEX
  8
0
  6
CONTINUOUS
 10
3.817440
 20
5.426520
  0
VERTEX
  8
0
  6
CONTINUOUS
 10
3.820080
 20
4.696560
  0
VERTEX
  8
0
  6
CONTINUOUS
 10
3.813040
 20
4.673680
  0
SEQEND
  8
0
  0
SOLID
  8
0
 62
    15
 10
3.820080
 20
4.696560
 11
3.817440
 21
5.426520
 12
3.831520
 22
4.717240
 13
3.828880
 23
5.447200
  0
POLYLINE
  8
0
  6
CONTINUOUS
 66
     1
 40
0.000000
 41
0.000000
  0
VERTEX
  8
0
  6
CONTINUOUS
 10
3.820080
 20
4.696560
  0
VERTEX
  8
0
  6
CONTINUOUS
 10
3.817440
 20
5.426520
  0
VERTEX
  8
0
  6
CONTINUOUS
 10
3.828880
 20
5.447200
  0
VERTEX
  8
0
  6
CONTINUOUS
 10
3.831520
 20
4.717240
  0
VERTEX
  8
0
  6
CONTINUOUS
 10
3.820080
 20
4.696560
  0
SEQEND
  8
0
  0
SOLID
  8
0
 62
    15
 10
3.831520
 20
4.717240
 11
3.828880
 21
5.447200
 12
3.846480
 22
4.735280
 13
3.843840
 23
5.465240
  0
POLYLINE
  8
0
  6
CONTINUOUS
 66
     1
 40
0.000000
 41
0.000000
  0
VERTEX
  8
0
  6
CONTINUOUS
 10
3.831520
 20
4.717240
  0
VERTEX
  8
0
  6
CONTINUOUS
 10
3.828880
 20
5.447200
  0
VERTEX
  8
0
  6
CONTINUOUS
 10
3.843840
 20
5.465240
  0
VERTEX
  8
0
  6
CONTINUOUS
 10
3.846480
 20
4.735280
  0
VERTEX
  8
0
  6
CONTINUOUS
 10
3.831520
 20
4.717240
  0
SEQEND
  8
0
  0
SOLID
  8
0
 62
    15
 10
3.846480
 20
4.735280
 11
3.843840
 21
5.465240
 12
3.864520
 22
4.750240
 13
3.861880
 23
5.480200
  0
POLYLINE
  8
0
  6
CONTINUOUS
 66
     1
 40
0.000000
 41
0.000000
  0
VERTEX
  8
0
  6
CONTINUOUS
 10
3.846480
 20
4.735280
  0
VERTEX
  8
0
  6
CONTINUOUS
 10
3.843840
 20
5.465240
  0
VERTEX
  8
0
  6
CONTINUOUS
 10
3.861880
 20
5.480200
  0
VERTEX
  8
0
  6
CONTINUOUS
 10
3.864520
 20
4.750240
  0
VERTEX
  8
0
  6
CONTINUOUS
 10
3.846480
 20
4.735280
  0
SEQEND
  8
0
  0
SOLID
  8
0
 62
    15
 10
3.864520
 20
4.750240
 11
3.861880
 21
5.480200
 12
3.885200
 22
4.761680
 13
3.882560
 23
5.491640
  0
POLYLINE
  8
0
  6
CONTINUOUS
 66
     1
 40
0.000000
 41
0.000000
  0
VERTEX
  8
0
  6
CONTINUOUS
 10
3.864520
 20
4.750240
  0
VERTEX
  8
0
  6
CONTINUOUS
 10
3.861880
 20
5.480200
  0
VERTEX
  8
0
  6
CONTINUOUS
 10
3.882560
 20
5.491640
  0
VERTEX
  8
0
  6
CONTINUOUS
 10
3.885200
 20
4.761680
  0
VERTEX
  8
0
  6
CONTINUOUS
 10
3.864520
 20
4.750240
  0
SEQEND
  8
0
  0
SOLID
  8
0
 62
    15
 10
3.885200
 20
4.761680
 11
3.882560
 21
5.491640
 12
3.908080
 22
4.768720
 13
3.905440
 23
5.498680
  0
POLYLINE
  8
0
  6
CONTINUOUS
 66
     1
 40
0.000000
 41
0.000000
  0
VERTEX
  8
0
  6
CONTINUOUS
 10
3.885200
 20
4.761680
  0
VERTEX
  8
0
  6
CONTINUOUS
 10
3.882560
 20
5.491640
  0
VERTEX
  8
0
  6
CONTINUOUS
 10
3.905440
 20
5.498680
  0
VERTEX
  8
0
  6
CONTINUOUS
 10
3.908080
 20
4.768720
  0
VERTEX
  8
0
  6
CONTINUOUS
 10
3.885200
 20
4.761680
  0
SEQEND
  8
0
  0
SOLID
  8
0
 62
    15
 10
3.908080
 20
4.768720
 11
3.905440
 21
5.498680
 12
3.932720
 22
4.771360
 13
3.930080
 23
5.501320
  0
POLYLINE
  8
0
  6
CONTINUOUS
 66
     1
 40
0.000000
 41
0.000000
  0
VERTEX
  8
0
  6
CONTINUOUS
 10
3.908080
 20
4.768720
  0
VERTEX
  8
0
  6
CONTINUOUS
 10
3.905440
 20
5.498680
  0
VERTEX
  8
0
  6
CONTINUOUS
 10
3.930080
 20
5.501320
  0
VERTEX
  8
0
  6
CONTINUOUS
 10
3.932720
 20
4.771360
  0
VERTEX
  8
0
  6
CONTINUOUS
 10
3.908080
 20
4.768720
  0
SEQEND
  8
0
  0
SOLID
  8
0
 62
    15
 10
3.932720
 20
4.771360
 11
3.930080
 21
5.501320
 12
3.957360
 22
4.768720
 13
3.954720
 23
5.498680
  0
POLYLINE
  8
0
  6
CONTINUOUS
 66
     1
 40
0.000000
 41
0.000000
  0
VERTEX
  8
0
  6
CONTINUOUS
 10
3.932720
 20
4.771360
  0
VERTEX
  8
0
  6
CONTINUOUS
 10
3.930080
 20
5.501320
  0
VERTEX
  8
0
  6
CONTINUOUS
 10
3.954720
 20
5.498680
  0
VERTEX
  8
0
  6
CONTINUOUS
 10
3.957360
 20
4.768720
  0
VERTEX
  8
0
  6
CONTINUOUS
 10
3.932720
 20
4.771360
  0
SEQEND
  8
0
  0
SOLID
  8
0
 62
    15
 10
3.957360
 20
4.768720
 11
3.954720
 21
5.498680
 12
3.980680
 22
4.761680
 13
3.978040
 23
5.491640
  0
POLYLINE
  8
0
  6
CONTINUOUS
 66
     1
 40
0.000000
 41
0.000000
  0
VERTEX
  8
0
  6
CONTINUOUS
 10
3.957360
 20
4.768720
  0
VERTEX
  8
0
  6
CONTINUOUS
 10
3.954720
 20
5.498680
  0
VERTEX
  8
0
  6
CONTINUOUS
 10
3.978040
 20
5.491640
  0
VERTEX
  8
0
  6
CONTINUOUS
 10
3.980680
 20
4.761680
  0
VERTEX
  8
0
  6
CONTINUOUS
 10
3.957360
 20
4.768720
  0
SEQEND
  8
0
  0
SOLID
  8
0
 62
    15
 10
3.980680
 20
4.761680
 11
3.978040
 21
5.491640
 12
4.001360
 22
4.750240
 13
3.998720
 23
5.480200
  0
POLYLINE
  8
0
  6
CONTINUOUS
 66
     1
 40
0.000000
 41
0.000000
  0
VERTEX
  8
0
  6
CONTINUOUS
 10
3.980680
 20
4.761680
  0
VERTEX
  8
0
  6
CONTINUOUS
 10
3.978040
 20
5.491640
  0
VERTEX
  8
0
  6
CONTINUOUS
 10
3.998720
 20
5.480200
  0
VERTEX
  8
0
  6
CONTINUOUS
 10
4.001360
 20
4.750240
  0
VERTEX
  8
0
  6
CONTINUOUS
 10
3.980680
 20
4.761680
  0
SEQEND
  8
0
  0
SOLID
  8
0
 62
    15
 10
4.001360
 20
4.750240
 11
3.998720
 21
5.480200
 12
4.019400
 22
4.735280
 13
4.016760
 23
5.465240
  0
POLYLINE
  8
0
  6
CONTINUOUS
 66
     1
 40
0.000000
 41
0.000000
  0
VERTEX
  8
0
  6
CONTINUOUS
 10
4.001360
 20
4.750240
  0
VERTEX
  8
0
  6
CONTINUOUS
 10
3.998720
 20
5.480200
  0
VERTEX
  8
0
  6
CONTINUOUS
 10
4.016760
 20
5.465240
  0
VERTEX
  8
0
  6
CONTINUOUS
 10
4.019400
 20
4.735280
  0
VERTEX
  8
0
  6
CONTINUOUS
 10
4.001360
 20
4.750240
  0
SEQEND
  8
0
  0
SOLID
  8
0
 62
    15
 10
4.019400
 20
4.735280
 11
4.016760
 21
5.465240
 12
4.034360
 22
4.717240
 13
4.031720
 23
5.447200
  0
POLYLINE
  8
0
  6
CONTINUOUS
 66
     1
 40
0.000000
 41
0.000000
  0
VERTEX
  8
0
  6
CONTINUOUS
 10
4.019400
 20
4.735280
  0
VERTEX
  8
0
  6
CONTINUOUS
 10
4.016760
 20
5.465240
  0
VERTEX
  8
0
  6
CONTINUOUS
 10
4.031720
 20
5.447200
  0
VERTEX
  8
0
  6
CONTINUOUS
 10
4.034360
 20
4.717240
  0
VERTEX
  8
0
  6
CONTINUOUS
 10
4.019400
 20
4.735280
  0
SEQEND
  8
0
  0
SOLID
  8
0
 62
    15
 10
4.034360
 20
4.717240
 11
4.031720
 21
5.447200
 12
4.045800
 22
4.696560
 13
4.042720
 23
5.426520
  0
POLYLINE
  8
0
  6
CONTINUOUS
 66
     1
 40
0.000000
 41
0.000000
  0
VERTEX
  8
0
  6
CONTINUOUS
 10
4.034360
 20
4.717240
  0
VERTEX
  8
0
  6
CONTINUOUS
 10
4.031720
 20
5.447200
  0
VERTEX
  8
0
  6
CONTINUOUS
 10
4.042720
 20
5.426520
  0
VERTEX
  8
0
  6
CONTINUOUS
 10
4.045800
 20
4.696560
  0
VERTEX
  8
0
  6
CONTINUOUS
 10
4.034360
 20
4.717240
  0
SEQEND
  8
0
  0
SOLID
  8
0
 62
    15
 10
4.045800
 20
4.696560
 11
4.042720
 21
5.426520
 12
4.052840
 22
4.673680
 13
4.050200
 23
5.403640
  0
POLYLINE
  8
0
  6
CONTINUOUS
 66
     1
 40
0.000000
 41
0.000000
  0
VERTEX
  8
0
  6
CONTINUOUS
 10
4.045800
 20
4.696560
  0
VERTEX
  8
0
  6
CONTINUOUS
 10
4.042720
 20
5.426520
  0
VERTEX
  8
0
  6
CONTINUOUS
 10
4.050200
 20
5.403640
  0
VERTEX
  8
0
  6
CONTINUOUS
 10
4.052840
 20
4.673680
  0
VERTEX
  8
0
  6
CONTINUOUS
 10
4.045800
 20
4.696560
  0
SEQEND
  8
0
  0
SOLID
  8
0
 62
    15
 10
4.052840
 20
4.673680
 11
4.050200
 21
5.403640
 12
4.055040
 22
4.649040
 13
4.052400
 23
5.379000
  0
POLYLINE
  8
0
  6
CONTINUOUS
 66
     1
 40
0.000000
 41
0.000000
  0
VERTEX
  8
0
  6
CONTINUOUS
 10
4.052840
 20
4.673680
  0
VERTEX
  8
0
  6
CONTINUOUS
 10
4.050200
 20
5.403640
  0
VERTEX
  8
0
  6
CONTINUOUS
 10
4.052400
 20
5.379000
  0
VERTEX
  8
0
  6
CONTINUOUS
 10
4.055040
 20
4.649040
  0
VERTEX
  8
0
  6
CONTINUOUS
 10
4.052840
 20
4.673680
  0
SEQEND
  8
0
  0
SOLID
  8
0
 62
    15
 10
4.055040
 20
4.649040
 11
4.052400
 21
5.379000
 12
4.071320
 22
4.649040
 13
4.068680
 23
5.379000
  0
POLYLINE
  8
0
  6
CONTINUOUS
 66
     1
 40
0.000000
 41
0.000000
  0
VERTEX
  8
0
  6
CONTINUOUS
 10
4.055040
 20
4.649040
  0
VERTEX
  8
0
  6
CONTINUOUS
 10
4.052400
 20
5.379000
  0
VERTEX
  8
0
  6
CONTINUOUS
 10
4.068680
 20
5.379000
  0
VERTEX
  8
0
  6
CONTINUOUS
 10
4.071320
 20
4.649040
  0
VERTEX
  8
0
  6
CONTINUOUS
 10
4.055040
 20
4.649040
  0
SEQEND
  8
0
  0
SOLID
  8
0
 62
    15
 10
4.071320
 20
4.649040
 11
4.068680
 21
5.379000
 12
4.073520
 22
4.673680
 13
4.070880
 23
5.403640
  0
POLYLINE
  8
0
  6
CONTINUOUS
 66
     1
 40
0.000000
 41
0.000000
  0
VERTEX
  8
0
  6
CONTINUOUS
 10
4.071320
 20
4.649040
  0
VERTEX
  8
0
  6
CONTINUOUS
 10
4.068680
 20
5.379000
  0
VERTEX
  8
0
  6
CONTINUOUS
 10
4.070880
 20
5.403640
  0
VERTEX
  8
0
  6
CONTINUOUS
 10
4.073520
 20
4.673680
  0
VERTEX
  8
0
  6
CONTINUOUS
 10
4.071320
 20
4.649040
  0
SEQEND
  8
0
  0
SOLID
  8
0
 62
    15
 10
4.073520
 20
4.673680
 11
4.070880
 21
5.403640
 12
4.081000
 22
4.696560
 13
4.078360
 23
5.426520
  0
POLYLINE
  8
0
  6
CONTINUOUS
 66
     1
 40
0.000000
 41
0.000000
  0
VERTEX
  8
0
  6
CONTINUOUS
 10
4.073520
 20
4.673680
  0
VERTEX
  8
0
  6
CONTINUOUS
 10
4.070880
 20
5.403640
  0
VERTEX
  8
0
  6
CONTINUOUS
 10
4.078360
 20
5.426520
  0
VERTEX
  8
0
  6
CONTINUOUS
 10
4.081000
 20
4.696560
  0
VERTEX
  8
0
  6
CONTINUOUS
 10
4.073520
 20
4.673680
  0
SEQEND
  8
0
  0
SOLID
  8
0
 62
    15
 10
4.081000
 20
4.696560
 11
4.078360
 21
5.426520
 12
4.092000
 22
4.717240
 13
4.089360
 23
5.447200
  0
POLYLINE
  8
0
  6
CONTINUOUS
 66
     1
 40
0.000000
 41
0.000000
  0
VERTEX
  8
0
  6
CONTINUOUS
 10
4.081000
 20
4.696560
  0
VERTEX
  8
0
  6
CONTINUOUS
 10
4.078360
 20
5.426520
  0
VERTEX
  8
0
  6
CONTINUOUS
 10
4.089360
 20
5.447200
  0
VERTEX
  8
0
  6
CONTINUOUS
 10
4.092000
 20
4.717240
  0
VERTEX
  8
0
  6
CONTINUOUS
 10
4.081000
 20
4.696560
  0
SEQEND
  8
0
  0
SOLID
  8
0
 62
    15
 10
4.092000
 20
4.717240
 11
4.089360
 21
5.447200
 12
4.106960
 22
4.735280
 13
4.104320
 23
5.465240
  0
POLYLINE
  8
0
  6
CONTINUOUS
 66
     1
 40
0.000000
 41
0.000000
  0
VERTEX
  8
0
  6
CONTINUOUS
 10
4.092000
 20
4.717240
  0
VERTEX
  8
0
  6
CONTINUOUS
 10
4.089360
 20
5.447200
  0
VERTEX
  8
0
  6
CONTINUOUS
 10
4.104320
 20
5.465240
  0
VERTEX
  8
0
  6
CONTINUOUS
 10
4.106960
 20
4.735280
  0
VERTEX
  8
0
  6
CONTINUOUS
 10
4.092000
 20
4.717240
  0
SEQEND
  8
0
  0
SOLID
  8
0
 62
    15
 10
4.106960
 20
4.735280
 11
4.104320
 21
5.465240
 12
4.125000
 22
4.750240
 13
4.122360
 23
5.480200
  0
POLYLINE
  8
0
  6
CONTINUOUS
 66
     1
 40
0.000000
 41
0.000000
  0
VERTEX
  8
0
  6
CONTINUOUS
 10
4.106960
 20
4.735280
  0
VERTEX
  8
0
  6
CONTINUOUS
 10
4.104320
 20
5.465240
  0
VERTEX
  8
0
  6
CONTINUOUS
 10
4.122360
 20
5.480200
  0
VERTEX
  8
0
  6
CONTINUOUS
 10
4.125000
 20
4.750240
  0
VERTEX
  8
0
  6
CONTINUOUS
 10
4.106960
 20
4.735280
  0
SEQEND
  8
0
  0
SOLID
  8
0
 62
    15
 10
4.125000
 20
4.750240
 11
4.122360
 21
5.480200
 12
4.146120
 22
4.761680
 13
4.143480
 23
5.491640
  0
POLYLINE
  8
0
  6
CONTINUOUS
 66
     1
 40
0.000000
 41
0.000000
  0
VERTEX
  8
0
  6
CONTINUOUS
 10
4.125000
 20
4.750240
  0
VERTEX
  8
0
  6
CONTINUOUS
 10
4.122360
 20
5.480200
  0
VERTEX
  8
0
  6
CONTINUOUS
 10
4.143480
 20
5.491640
  0
VERTEX
  8
0
  6
CONTINUOUS
 10
4.146120
 20
4.761680
  0
VERTEX
  8
0
  6
CONTINUOUS
 10
4.125000
 20
4.750240
  0
SEQEND
  8
0
  0
SOLID
  8
0
 62
    15
 10
4.146120
 20
4.761680
 11
4.143480
 21
5.491640
 12
4.169000
 22
4.768720
 13
4.166360
 23
5.498680
  0
POLYLINE
  8
0
  6
CONTINUOUS
 66
     1
 40
0.000000
 41
0.000000
  0
VERTEX
  8
0
  6
CONTINUOUS
 10
4.146120
 20
4.761680
  0
VERTEX
  8
0
  6
CONTINUOUS
 10
4.143480
 20
5.491640
  0
VERTEX
  8
0
  6
CONTINUOUS
 10
4.166360
 20
5.498680
  0
VERTEX
  8
0
  6
CONTINUOUS
 10
4.169000
 20
4.768720
  0
VERTEX
  8
0
  6
CONTINUOUS
 10
4.146120
 20
4.761680
  0
SEQEND
  8
0
  0
SOLID
  8
0
 62
    15
 10
4.169000
 20
4.768720
 11
4.166360
 21
5.498680
 12
4.193640
 22
4.771360
 13
4.191000
 23
5.501320
  0
POLYLINE
  8
0
  6
CONTINUOUS
 66
     1
 40
0.000000
 41
0.000000
  0
VERTEX
  8
0
  6
CONTINUOUS
 10
4.169000
 20
4.768720
  0
VERTEX
  8
0
  6
CONTINUOUS
 10
4.166360
 20
5.498680
  0
VERTEX
  8
0
  6
CONTINUOUS
 10
4.191000
 20
5.501320
  0
VERTEX
  8
0
  6
CONTINUOUS
 10
4.193640
 20
4.771360
  0
VERTEX
  8
0
  6
CONTINUOUS
 10
4.169000
 20
4.768720
  0
SEQEND
  8
0
  0
SOLID
  8
0
 62
    15
 10
4.193640
 20
4.771360
 11
4.191000
 21
5.501320
 12
4.218280
 22
4.768720
 13
4.215640
 23
5.498680
  0
POLYLINE
  8
0
  6
CONTINUOUS
 66
     1
 40
0.000000
 41
0.000000
  0
VERTEX
  8
0
  6
CONTINUOUS
 10
4.193640
 20
4.771360
  0
VERTEX
  8
0
  6
CONTINUOUS
 10
4.191000
 20
5.501320
  0
VERTEX
  8
0
  6
CONTINUOUS
 10
4.215640
 20
5.498680
  0
VERTEX
  8
0
  6
CONTINUOUS
 10
4.218280
 20
4.768720
  0
VERTEX
  8
0
  6
CONTINUOUS
 10
4.193640
 20
4.771360
  0
SEQEND
  8
0
  0
SOLID
  8
0
 62
    15
 10
4.218280
 20
4.768720
 11
4.215640
 21
5.498680
 12
4.241160
 22
4.761680
 13
4.238520
 23
5.491640
  0
POLYLINE
  8
0
  6
CONTINUOUS
 66
     1
 40
0.000000
 41
0.000000
  0
VERTEX
  8
0
  6
CONTINUOUS
 10
4.218280
 20
4.768720
  0
VERTEX
  8
0
  6
CONTINUOUS
 10
4.215640
 20
5.498680
  0
VERTEX
  8
0
  6
CONTINUOUS
 10
4.238520
 20
5.491640
  0
VERTEX
  8
0
  6
CONTINUOUS
 10
4.241160
 20
4.761680
  0
VERTEX
  8
0
  6
CONTINUOUS
 10
4.218280
 20
4.768720
  0
SEQEND
  8
0
  0
SOLID
  8
0
 62
    15
 10
4.241160
 20
4.761680
 11
4.238520
 21
5.491640
 12
4.261840
 22
4.750240
 13
4.259200
 23
5.480200
  0
POLYLINE
  8
0
  6
CONTINUOUS
 66
     1
 40
0.000000
 41
0.000000
  0
VERTEX
  8
0
  6
CONTINUOUS
 10
4.241160
 20
4.761680
  0
VERTEX
  8
0
  6
CONTINUOUS
 10
4.238520
 20
5.491640
  0
VERTEX
  8
0
  6
CONTINUOUS
 10
4.259200
 20
5.480200
  0
VERTEX
  8
0
  6
CONTINUOUS
 10
4.261840
 20
4.750240
  0
VERTEX
  8
0
  6
CONTINUOUS
 10
4.241160
 20
4.761680
  0
SEQEND
  8
0
  0
SOLID
  8
0
 62
    15
 10
4.261840
 20
4.750240
 11
4.259200
 21
5.480200
 12
4.279880
 22
4.735280
 13
4.277240
 23
5.465240
  0
POLYLINE
  8
0
  6
CONTINUOUS
 66
     1
 40
0.000000
 41
0.000000
  0
VERTEX
  8
0
  6
CONTINUOUS
 10
4.261840
 20
4.750240
  0
VERTEX
  8
0
  6
CONTINUOUS
 10
4.259200
 20
5.480200
  0
VERTEX
  8
0
  6
CONTINUOUS
 10
4.277240
 20
5.465240
  0
VERTEX
  8
0
  6
CONTINUOUS
 10
4.279880
 20
4.735280
  0
VERTEX
  8
0
  6
CONTINUOUS
 10
4.261840
 20
4.750240
  0
SEQEND
  8
0
  0
SOLID
  8
0
 62
    15
 10
4.279880
 20
4.735280
 11
4.277240
 21
5.465240
 12
4.294840
 22
4.717240
 13
4.292200
 23
5.447200
  0
POLYLINE
  8
0
  6
CONTINUOUS
 66
     1
 40
0.000000
 41
0.000000
  0
VERTEX
  8
0
  6
CONTINUOUS
 10
4.279880
 20
4.735280
  0
VERTEX
  8
0
  6
CONTINUOUS
 10
4.277240
 20
5.465240
  0
VERTEX
  8
0
  6
CONTINUOUS
 10
4.292200
 20
5.447200
  0
VERTEX
  8
0
  6
CONTINUOUS
 10
4.294840
 20
4.717240
  0
VERTEX
  8
0
  6
CONTINUOUS
 10
4.279880
 20
4.735280
  0
SEQEND
  8
0
  0
SOLID
  8
0
 62
    15
 10
4.294840
 20
4.717240
 11
4.292200
 21
5.447200
 12
4.306280
 22
4.696560
 13
4.303640
 23
5.426520
  0
POLYLINE
  8
0
  6
CONTINUOUS
 66
     1
 40
0.000000
 41
0.000000
  0
VERTEX
  8
0
  6
CONTINUOUS
 10
4.294840
 20
4.717240
  0
VERTEX
  8
0
  6
CONTINUOUS
 10
4.292200
 20
5.447200
  0
VERTEX
  8
0
  6
CONTINUOUS
 10
4.303640
 20
5.426520
  0
VERTEX
  8
0
  6
CONTINUOUS
 10
4.306280
 20
4.696560
  0
VERTEX
  8
0
  6
CONTINUOUS
 10
4.294840
 20
4.717240
  0
SEQEND
  8
0
  0
SOLID
  8
0
 62
    15
 10
4.306280
 20
4.696560
 11
4.303640
 21
5.426520
 12
4.313320
 22
4.673680
 13
4.310680
 23
5.403640
  0
POLYLINE
  8
0
  6
CONTINUOUS
 66
     1
 40
0.000000
 41
0.000000
  0
VERTEX
  8
0
  6
CONTINUOUS
 10
4.306280
 20
4.696560
  0
VERTEX
  8
0
  6
CONTINUOUS
 10
4.303640
 20
5.426520
  0
VERTEX
  8
0
  6
CONTINUOUS
 10
4.310680
 20
5.403640
  0
VERTEX
  8
0
  6
CONTINUOUS
 10
4.313320
 20
4.673680
  0
VERTEX
  8
0
  6
CONTINUOUS
 10
4.306280
 20
4.696560
  0
SEQEND
  8
0
  0
SOLID
  8
0
 62
    15
 10
4.313320
 20
4.673680
 11
4.310680
 21
5.403640
 12
4.315960
 22
4.649040
 13
4.313320
 23
5.379000
  0
POLYLINE
  8
0
  6
CONTINUOUS
 66
     1
 40
0.000000
 41
0.000000
  0
VERTEX
  8
0
  6
CONTINUOUS
 10
4.313320
 20
4.673680
  0
VERTEX
  8
0
  6
CONTINUOUS
 10
4.310680
 20
5.403640
  0
VERTEX
  8
0
  6
CONTINUOUS
 10
4.313320
 20
5.379000
  0
VERTEX
  8
0
  6
CONTINUOUS
 10
4.315960
 20
4.649040
  0
VERTEX
  8
0
  6
CONTINUOUS
 10
4.313320
 20
4.673680
  0
SEQEND
  8
0
  0
SOLID
  8
0
 62
    15
 10
1.865160
 20
5.133920
 11
1.862520
 21
5.863440
 12
2.475000
 22
5.133920
 13
2.472360
 23
5.863440
  0
POLYLINE
  8
0
  6
CONTINUOUS
 66
     1
 40
0.000000
 41
0.000000
  0
VERTEX
  8
0
  6
CONTINUOUS
 10
1.865160
 20
5.133920
  0
VERTEX
  8
0
  6
CONTINUOUS
 10
1.862520
 20
5.863440
  0
VERTEX
  8
0
  6
CONTINUOUS
 10
2.472360
 20
5.863440
  0
VERTEX
  8
0
  6
CONTINUOUS
 10
2.475000
 20
5.133920
  0
VERTEX
  8
0
  6
CONTINUOUS
 10
1.865160
 20
5.133920
  0
SEQEND
  8
0
  0
SOLID
  8
0
 62
    15
 10
4.334880
 20
4.649040
 11
4.332240
 21
5.379000
 12
4.337520
 22
4.673680
 13
4.334440
 23
5.403640
  0
POLYLINE
  8
0
  6
CONTINUOUS
 66
     1
 40
0.000000
 41
0.000000
  0
VERTEX
  8
0
  6
CONTINUOUS
 10
4.334880
 20
4.649040
  0
VERTEX
  8
0
  6
CONTINUOUS
 10
4.332240
 20
5.379000
  0
VERTEX
  8
0
  6
CONTINUOUS
 10
4.334440
 20
5.403640
  0
VERTEX
  8
0
  6
CONTINUOUS
 10
4.337520
 20
4.673680
  0
VERTEX
  8
0
  6
CONTINUOUS
 10
4.334880
 20
4.649040
  0
SEQEND
  8
0
  0
SOLID
  8
0
 62
    15
 10
4.337520
 20
4.673680
 11
4.334440
 21
5.403640
 12
4.344560
 22
4.696560
 13
4.341920
 23
5.426520
  0
POLYLINE
  8
0
  6
CONTINUOUS
 66
     1
 40
0.000000
 41
0.000000
  0
VERTEX
  8
0
  6
CONTINUOUS
 10
4.337520
 20
4.673680
  0
VERTEX
  8
0
  6
CONTINUOUS
 10
4.334440
 20
5.403640
  0
VERTEX
  8
0
  6
CONTINUOUS
 10
4.341920
 20
5.426520
  0
VERTEX
  8
0
  6
CONTINUOUS
 10
4.344560
 20
4.696560
  0
VERTEX
  8
0
  6
CONTINUOUS
 10
4.337520
 20
4.673680
  0
SEQEND
  8
0
  0
SOLID
  8
0
 62
    15
 10
4.344560
 20
4.696560
 11
4.341920
 21
5.426520
 12
4.355560
 22
4.717240
 13
4.352920
 23
5.447200
  0
POLYLINE
  8
0
  6
CONTINUOUS
 66
     1
 40
0.000000
 41
0.000000
  0
VERTEX
  8
0
  6
CONTINUOUS
 10
4.344560
 20
4.696560
  0
VERTEX
  8
0
  6
CONTINUOUS
 10
4.341920
 20
5.426520
  0
VERTEX
  8
0
  6
CONTINUOUS
 10
4.352920
 20
5.447200
  0
VERTEX
  8
0
  6
CONTINUOUS
 10
4.355560
 20
4.717240
  0
VERTEX
  8
0
  6
CONTINUOUS
 10
4.344560
 20
4.696560
  0
SEQEND
  8
0
  0
SOLID
  8
0
 62
    15
 10
4.355560
 20
4.717240
 11
4.352920
 21
5.447200
 12
4.370520
 22
4.735280
 13
4.367880
 23
5.465240
  0
POLYLINE
  8
0
  6
CONTINUOUS
 66
     1
 40
0.000000
 41
0.000000
  0
VERTEX
  8
0
  6
CONTINUOUS
 10
4.355560
 20
4.717240
  0
VERTEX
  8
0
  6
CONTINUOUS
 10
4.352920
 20
5.447200
  0
VERTEX
  8
0
  6
CONTINUOUS
 10
4.367880
 20
5.465240
  0
VERTEX
  8
0
  6
CONTINUOUS
 10
4.370520
 20
4.735280
  0
VERTEX
  8
0
  6
CONTINUOUS
 10
4.355560
 20
4.717240
  0
SEQEND
  8
0
  0
SOLID
  8
0
 62
    15
 10
4.370520
 20
4.735280
 11
4.367880
 21
5.465240
 12
4.388560
 22
4.750240
 13
4.385920
 23
5.480200
  0
POLYLINE
  8
0
  6
CONTINUOUS
 66
     1
 40
0.000000
 41
0.000000
  0
VERTEX
  8
0
  6
CONTINUOUS
 10
4.370520
 20
4.735280
  0
VERTEX
  8
0
  6
CONTINUOUS
 10
4.367880
 20
5.465240
  0
VERTEX
  8
0
  6
CONTINUOUS
 10
4.385920
 20
5.480200
  0
VERTEX
  8
0
  6
CONTINUOUS
 10
4.388560
 20
4.750240
  0
VERTEX
  8
0
  6
CONTINUOUS
 10
4.370520
 20
4.735280
  0
SEQEND
  8
0
  0
SOLID
  8
0
 62
    15
 10
4.388560
 20
4.750240
 11
4.385920
 21
5.480200
 12
4.409680
 22
4.761680
 13
4.407040
 23
5.491640
  0
POLYLINE
  8
0
  6
CONTINUOUS
 66
     1
 40
0.000000
 41
0.000000
  0
VERTEX
  8
0
  6
CONTINUOUS
 10
4.388560
 20
4.750240
  0
VERTEX
  8
0
  6
CONTINUOUS
 10
4.385920
 20
5.480200
  0
VERTEX
  8
0
  6
CONTINUOUS
 10
4.407040
 20
5.491640
  0
VERTEX
  8
0
  6
CONTINUOUS
 10
4.409680
 20
4.761680
  0
VERTEX
  8
0
  6
CONTINUOUS
 10
4.388560
 20
4.750240
  0
SEQEND
  8
0
  0
SOLID
  8
0
 62
    15
 10
4.409680
 20
4.761680
 11
4.407040
 21
5.491640
 12
4.432560
 22
4.768720
 13
4.429920
 23
5.498680
  0
POLYLINE
  8
0
  6
CONTINUOUS
 66
     1
 40
0.000000
 41
0.000000
  0
VERTEX
  8
0
  6
CONTINUOUS
 10
4.409680
 20
4.761680
  0
VERTEX
  8
0
  6
CONTINUOUS
 10
4.407040
 20
5.491640
  0
VERTEX
  8
0
  6
CONTINUOUS
 10
4.429920
 20
5.498680
  0
VERTEX
  8
0
  6
CONTINUOUS
 10
4.432560
 20
4.768720
  0
VERTEX
  8
0
  6
CONTINUOUS
 10
4.409680
 20
4.761680
  0
SEQEND
  8
0
  0
SOLID
  8
0
 62
    15
 10
4.432560
 20
4.768720
 11
4.429920
 21
5.498680
 12
4.457200
 22
4.771360
 13
4.454560
 23
5.501320
  0
POLYLINE
  8
0
  6
CONTINUOUS
 66
     1
 40
0.000000
 41
0.000000
  0
VERTEX
  8
0
  6
CONTINUOUS
 10
4.432560
 20
4.768720
  0
VERTEX
  8
0
  6
CONTINUOUS
 10
4.429920
 20
5.498680
  0
VERTEX
  8
0
  6
CONTINUOUS
 10
4.454560
 20
5.501320
  0
VERTEX
  8
0
  6
CONTINUOUS
 10
4.457200
 20
4.771360
  0
VERTEX
  8
0
  6
CONTINUOUS
 10
4.432560
 20
4.768720
  0
SEQEND
  8
0
  0
SOLID
  8
0
 62
    15
 10
4.457200
 20
4.771360
 11
4.454560
 21
5.501320
 12
4.481840
 22
4.768720
 13
4.479200
 23
5.498680
  0
POLYLINE
  8
0
  6
CONTINUOUS
 66
     1
 40
0.000000
 41
0.000000
  0
VERTEX
  8
0
  6
CONTINUOUS
 10
4.457200
 20
4.771360
  0
VERTEX
  8
0
  6
CONTINUOUS
 10
4.454560
 20
5.501320
  0
VERTEX
  8
0
  6
CONTINUOUS
 10
4.479200
 20
5.498680
  0
VERTEX
  8
0
  6
CONTINUOUS
 10
4.481840
 20
4.768720
  0
VERTEX
  8
0
  6
CONTINUOUS
 10
4.457200
 20
4.771360
  0
SEQEND
  8
0
  0
SOLID
  8
0
 62
    15
 10
4.481840
 20
4.768720
 11
4.479200
 21
5.498680
 12
4.504720
 22
4.761680
 13
4.502080
 23
5.491640
  0
POLYLINE
  8
0
  6
CONTINUOUS
 66
     1
 40
0.000000
 41
0.000000
  0
VERTEX
  8
0
  6
CONTINUOUS
 10
4.481840
 20
4.768720
  0
VERTEX
  8
0
  6
CONTINUOUS
 10
4.479200
 20
5.498680
  0
VERTEX
  8
0
  6
CONTINUOUS
 10
4.502080
 20
5.491640
  0
VERTEX
  8
0
  6
CONTINUOUS
 10
4.504720
 20
4.761680
  0
VERTEX
  8
0
  6
CONTINUOUS
 10
4.481840
 20
4.768720
  0
SEQEND
  8
0
  0
SOLID
  8
0
 62
    15
 10
4.504720
 20
4.761680
 11
4.502080
 21
5.491640
 12
4.525400
 22
4.750240
 13
4.522760
 23
5.480200
  0
POLYLINE
  8
0
  6
CONTINUOUS
 66
     1
 40
0.000000
 41
0.000000
  0
VERTEX
  8
0
  6
CONTINUOUS
 10
4.504720
 20
4.761680
  0
VERTEX
  8
0
  6
CONTINUOUS
 10
4.502080
 20
5.491640
  0
VERTEX
  8
0
  6
CONTINUOUS
 10
4.522760
 20
5.480200
  0
VERTEX
  8
0
  6
CONTINUOUS
 10
4.525400
 20
4.750240
  0
VERTEX
  8
0
  6
CONTINUOUS
 10
4.504720
 20
4.761680
  0
SEQEND
  8
0
  0
SOLID
  8
0
 62
    15
 10
4.525400
 20
4.750240
 11
4.522760
 21
5.480200
 12
4.543440
 22
4.735280
 13
4.540800
 23
5.465240
  0
POLYLINE
  8
0
  6
CONTINUOUS
 66
     1
 40
0.000000
 41
0.000000
  0
VERTEX
  8
0
  6
CONTINUOUS
 10
4.525400
 20
4.750240
  0
VERTEX
  8
0
  6
CONTINUOUS
 10
4.522760
 20
5.480200
  0
VERTEX
  8
0
  6
CONTINUOUS
 10
4.540800
 20
5.465240
  0
VERTEX
  8
0
  6
CONTINUOUS
 10
4.543440
 20
4.735280
  0
VERTEX
  8
0
  6
CONTINUOUS
 10
4.525400
 20
4.750240
  0
SEQEND
  8
0
  0
SOLID
  8
0
 62
    15
 10
4.543440
 20
4.735280
 11
4.540800
 21
5.465240
 12
4.558400
 22
4.717240
 13
4.555760
 23
5.447200
  0
POLYLINE
  8
0
  6
CONTINUOUS
 66
     1
 40
0.000000
 41
0.000000
  0
VERTEX
  8
0
  6
CONTINUOUS
 10
4.543440
 20
4.735280
  0
VERTEX
  8
0
  6
CONTINUOUS
 10
4.540800
 20
5.465240
  0
VERTEX
  8
0
  6
CONTINUOUS
 10
4.555760
 20
5.447200
  0
VERTEX
  8
0
  6
CONTINUOUS
 10
4.558400
 20
4.717240
  0
VERTEX
  8
0
  6
CONTINUOUS
 10
4.543440
 20
4.735280
  0
SEQEND
  8
0
  0
SOLID
  8
0
 62
    15
 10
4.558400
 20
4.717240
 11
4.555760
 21
5.447200
 12
4.569840
 22
4.696560
 13
4.567200
 23
5.426520
  0
POLYLINE
  8
0
  6
CONTINUOUS
 66
     1
 40
0.000000
 41
0.000000
  0
VERTEX
  8
0
  6
CONTINUOUS
 10
4.558400
 20
4.717240
  0
VERTEX
  8
0
  6
CONTINUOUS
 10
4.555760
 20
5.447200
  0
VERTEX
  8
0
  6
CONTINUOUS
 10
4.567200
 20
5.426520
  0
VERTEX
  8
0
  6
CONTINUOUS
 10
4.569840
 20
4.696560
  0
VERTEX
  8
0
  6
CONTINUOUS
 10
4.558400
 20
4.717240
  0
SEQEND
  8
0
  0
SOLID
  8
0
 62
    15
 10
4.569840
 20
4.696560
 11
4.567200
 21
5.426520
 12
4.576880
 22
4.673680
 13
4.574240
 23
5.403640
  0
POLYLINE
  8
0
  6
CONTINUOUS
 66
     1
 40
0.000000
 41
0.000000
  0
VERTEX
  8
0
  6
CONTINUOUS
 10
4.569840
 20
4.696560
  0
VERTEX
  8
0
  6
CONTINUOUS
 10
4.567200
 20
5.426520
  0
VERTEX
  8
0
  6
CONTINUOUS
 10
4.574240
 20
5.403640
  0
VERTEX
  8
0
  6
CONTINUOUS
 10
4.576880
 20
4.673680
  0
VERTEX
  8
0
  6
CONTINUOUS
 10
4.569840
 20
4.696560
  0
SEQEND
  8
0
  0
SOLID
  8
0
 62
    15
 10
4.576880
 20
4.673680
 11
4.574240
 21
5.403640
 12
4.579520
 22
4.649040
 13
4.576880
 23
5.379000
  0
POLYLINE
  8
0
  6
CONTINUOUS
 66
     1
 40
0.000000
 41
0.000000
  0
VERTEX
  8
0
  6
CONTINUOUS
 10
4.576880
 20
4.673680
  0
VERTEX
  8
0
  6
CONTINUOUS
 10
4.574240
 20
5.403640
  0
VERTEX
  8
0
  6
CONTINUOUS
 10
4.576880
 20
5.379000
  0
VERTEX
  8
0
  6
CONTINUOUS
 10
4.579520
 20
4.649040
  0
VERTEX
  8
0
  6
CONTINUOUS
 10
4.576880
 20
4.673680
  0
SEQEND
  8
0
  0
SOLID
  8
0
 62
    15
 10
4.579520
 20
4.649040
 11
4.576880
 21
5.379000
 12
4.595360
 22
4.649040
 13
4.592720
 23
5.379000
  0
POLYLINE
  8
0
  6
CONTINUOUS
 66
     1
 40
0.000000
 41
0.000000
  0
VERTEX
  8
0
  6
CONTINUOUS
 10
4.579520
 20
4.649040
  0
VERTEX
  8
0
  6
CONTINUOUS
 10
4.576880
 20
5.379000
  0
VERTEX
  8
0
  6
CONTINUOUS
 10
4.592720
 20
5.379000
  0
VERTEX
  8
0
  6
CONTINUOUS
 10
4.595360
 20
4.649040
  0
VERTEX
  8
0
  6
CONTINUOUS
 10
4.579520
 20
4.649040
  0
SEQEND
  8
0
  0
SOLID
  8
0
 62
    15
 10
4.595360
 20
4.649040
 11
4.592720
 21
5.379000
 12
4.598000
 22
4.673680
 13
4.595360
 23
5.403640
  0
POLYLINE
  8
0
  6
CONTINUOUS
 66
     1
 40
0.000000
 41
0.000000
  0
VERTEX
  8
0
  6
CONTINUOUS
 10
4.595360
 20
4.649040
  0
VERTEX
  8
0
  6
CONTINUOUS
 10
4.592720
 20
5.379000
  0
VERTEX
  8
0
  6
CONTINUOUS
 10
4.595360
 20
5.403640
  0
VERTEX
  8
0
  6
CONTINUOUS
 10
4.598000
 20
4.673680
  0
VERTEX
  8
0
  6
CONTINUOUS
 10
4.595360
 20
4.649040
  0
SEQEND
  8
0
  0
SOLID
  8
0
 62
    15
 10
4.598000
 20
4.673680
 11
4.595360
 21
5.403640
 12
4.605040
 22
4.696560
 13
4.602400
 23
5.426520
  0
POLYLINE
  8
0
  6
CONTINUOUS
 66
     1
 40
0.000000
 41
0.000000
  0
VERTEX
  8
0
  6
CONTINUOUS
 10
4.598000
 20
4.673680
  0
VERTEX
  8
0
  6
CONTINUOUS
 10
4.595360
 20
5.403640
  0
VERTEX
  8
0
  6
CONTINUOUS
 10
4.602400
 20
5.426520
  0
VERTEX
  8
0
  6
CONTINUOUS
 10
4.605040
 20
4.696560
  0
VERTEX
  8
0
  6
CONTINUOUS
 10
4.598000
 20
4.673680
  0
SEQEND
  8
0
  0
SOLID
  8
0
 62
    15
 10
4.605040
 20
4.696560
 11
4.602400
 21
5.426520
 12
4.616480
 22
4.717240
 13
4.613840
 23
5.447200
  0
POLYLINE
  8
0
  6
CONTINUOUS
 66
     1
 40
0.000000
 41
0.000000
  0
VERTEX
  8
0
  6
CONTINUOUS
 10
4.605040
 20
4.696560
  0
VERTEX
  8
0
  6
CONTINUOUS
 10
4.602400
 20
5.426520
  0
VERTEX
  8
0
  6
CONTINUOUS
 10
4.613840
 20
5.447200
  0
VERTEX
  8
0
  6
CONTINUOUS
 10
4.616480
 20
4.717240
  0
VERTEX
  8
0
  6
CONTINUOUS
 10
4.605040
 20
4.696560
  0
SEQEND
  8
0
  0
SOLID
  8
0
 62
    15
 10
4.616480
 20
4.717240
 11
4.613840
 21
5.447200
 12
4.631440
 22
4.735280
 13
4.628360
 23
5.465240
  0
POLYLINE
  8
0
  6
CONTINUOUS
 66
     1
 40
0.000000
 41
0.000000
  0
VERTEX
  8
0
  6
CONTINUOUS
 10
4.616480
 20
4.717240
  0
VERTEX
  8
0
  6
CONTINUOUS
 10
4.613840
 20
5.447200
  0
VERTEX
  8
0
  6
CONTINUOUS
 10
4.628360
 20
5.465240
  0
VERTEX
  8
0
  6
CONTINUOUS
 10
4.631440
 20
4.735280
  0
VERTEX
  8
0
  6
CONTINUOUS
 10
4.616480
 20
4.717240
  0
SEQEND
  8
0
  0
SOLID
  8
0
 62
    15
 10
4.631440
 20
4.735280
 11
4.628360
 21
5.465240
 12
4.649480
 22
4.750240
 13
4.646840
 23
5.480200
  0
POLYLINE
  8
0
  6
CONTINUOUS
 66
     1
 40
0.000000
 41
0.000000
  0
VERTEX
  8
0
  6
CONTINUOUS
 10
4.631440
 20
4.735280
  0
VERTEX
  8
0
  6
CONTINUOUS
 10
4.628360
 20
5.465240
  0
VERTEX
  8
0
  6
CONTINUOUS
 10
4.646840
 20
5.480200
  0
VERTEX
  8
0
  6
CONTINUOUS
 10
4.649480
 20
4.750240
  0
VERTEX
  8
0
  6
CONTINUOUS
 10
4.631440
 20
4.735280
  0
SEQEND
  8
0
  0
SOLID
  8
0
 62
    15
 10
4.649480
 20
4.750240
 11
4.646840
 21
5.480200
 12
4.670160
 22
4.761680
 13
4.667520
 23
5.491640
  0
POLYLINE
  8
0
  6
CONTINUOUS
 66
     1
 40
0.000000
 41
0.000000
  0
VERTEX
  8
0
  6
CONTINUOUS
 10
4.649480
 20
4.750240
  0
VERTEX
  8
0
  6
CONTINUOUS
 10
4.646840
 20
5.480200
  0
VERTEX
  8
0
  6
CONTINUOUS
 10
4.667520
 20
5.491640
  0
VERTEX
  8
0
  6
CONTINUOUS
 10
4.670160
 20
4.761680
  0
VERTEX
  8
0
  6
CONTINUOUS
 10
4.649480
 20
4.750240
  0
SEQEND
  8
0
  0
SOLID
  8
0
 62
    15
 10
4.670160
 20
4.761680
 11
4.667520
 21
5.491640
 12
4.693040
 22
4.768720
 13
4.690400
 23
5.498680
  0
POLYLINE
  8
0
  6
CONTINUOUS
 66
     1
 40
0.000000
 41
0.000000
  0
VERTEX
  8
0
  6
CONTINUOUS
 10
4.670160
 20
4.761680
  0
VERTEX
  8
0
  6
CONTINUOUS
 10
4.667520
 20
5.491640
  0
VERTEX
  8
0
  6
CONTINUOUS
 10
4.690400
 20
5.498680
  0
VERTEX
  8
0
  6
CONTINUOUS
 10
4.693040
 20
4.768720
  0
VERTEX
  8
0
  6
CONTINUOUS
 10
4.670160
 20
4.761680
  0
SEQEND
  8
0
  0
SOLID
  8
0
 62
    15
 10
4.693040
 20
4.768720
 11
4.690400
 21
5.498680
 12
4.717680
 22
4.771360
 13
4.715040
 23
5.501320
  0
POLYLINE
  8
0
  6
CONTINUOUS
 66
     1
 40
0.000000
 41
0.000000
  0
VERTEX
  8
0
  6
CONTINUOUS
 10
4.693040
 20
4.768720
  0
VERTEX
  8
0
  6
CONTINUOUS
 10
4.690400
 20
5.498680
  0
VERTEX
  8
0
  6
CONTINUOUS
 10
4.715040
 20
5.501320
  0
VERTEX
  8
0
  6
CONTINUOUS
 10
4.717680
 20
4.771360
  0
VERTEX
  8
0
  6
CONTINUOUS
 10
4.693040
 20
4.768720
  0
SEQEND
  8
0
  0
SOLID
  8
0
 62
    15
 10
4.717680
 20
4.771360
 11
4.715040
 21
5.501320
 12
4.742320
 22
4.768720
 13
4.739680
 23
5.498680
  0
POLYLINE
  8
0
  6
CONTINUOUS
 66
     1
 40
0.000000
 41
0.000000
  0
VERTEX
  8
0
  6
CONTINUOUS
 10
4.717680
 20
4.771360
  0
VERTEX
  8
0
  6
CONTINUOUS
 10
4.715040
 20
5.501320
  0
VERTEX
  8
0
  6
CONTINUOUS
 10
4.739680
 20
5.498680
  0
VERTEX
  8
0
  6
CONTINUOUS
 10
4.742320
 20
4.768720
  0
VERTEX
  8
0
  6
CONTINUOUS
 10
4.717680
 20
4.771360
  0
SEQEND
  8
0
  0
SOLID
  8
0
 62
    15
 10
4.742320
 20
4.768720
 11
4.739680
 21
5.498680
 12
4.765200
 22
4.761680
 13
4.762560
 23
5.491640
  0
POLYLINE
  8
0
  6
CONTINUOUS
 66
     1
 40
0.000000
 41
0.000000
  0
VERTEX
  8
0
  6
CONTINUOUS
 10
4.742320
 20
4.768720
  0
VERTEX
  8
0
  6
CONTINUOUS
 10
4.739680
 20
5.498680
  0
VERTEX
  8
0
  6
CONTINUOUS
 10
4.762560
 20
5.491640
  0
VERTEX
  8
0
  6
CONTINUOUS
 10
4.765200
 20
4.761680
  0
VERTEX
  8
0
  6
CONTINUOUS
 10
4.742320
 20
4.768720
  0
SEQEND
  8
0
  0
SOLID
  8
0
 62
    15
 10
4.765200
 20
4.761680
 11
4.762560
 21
5.491640
 12
4.785880
 22
4.750240
 13
4.783240
 23
5.480200
  0
POLYLINE
  8
0
  6
CONTINUOUS
 66
     1
 40
0.000000
 41
0.000000
  0
VERTEX
  8
0
  6
CONTINUOUS
 10
4.765200
 20
4.761680
  0
VERTEX
  8
0
  6
CONTINUOUS
 10
4.762560
 20
5.491640
  0
VERTEX
  8
0
  6
CONTINUOUS
 10
4.783240
 20
5.480200
  0
VERTEX
  8
0
  6
CONTINUOUS
 10
4.785880
 20
4.750240
  0
VERTEX
  8
0
  6
CONTINUOUS
 10
4.765200
 20
4.761680
  0
SEQEND
  8
0
  0
SOLID
  8
0
 62
    15
 10
4.785880
 20
4.750240
 11
4.783240
 21
5.480200
 12
4.804360
 22
4.735280
 13
4.801280
 23
5.465240
  0
POLYLINE
  8
0
  6
CONTINUOUS
 66
     1
 40
0.000000
 41
0.000000
  0
VERTEX
  8
0
  6
CONTINUOUS
 10
4.785880
 20
4.750240
  0
VERTEX
  8
0
  6
CONTINUOUS
 10
4.783240
 20
5.480200
  0
VERTEX
  8
0
  6
CONTINUOUS
 10
4.801280
 20
5.465240
  0
VERTEX
  8
0
  6
CONTINUOUS
 10
4.804360
 20
4.735280
  0
VERTEX
  8
0
  6
CONTINUOUS
 10
4.785880
 20
4.750240
  0
SEQEND
  8
0
  0
SOLID
  8
0
 62
    15
 10
4.804360
 20
4.735280
 11
4.801280
 21
5.465240
 12
4.818880
 22
4.717240
 13
4.816240
 23
5.447200
  0
POLYLINE
  8
0
  6
CONTINUOUS
 66
     1
 40
0.000000
 41
0.000000
  0
VERTEX
  8
0
  6
CONTINUOUS
 10
4.804360
 20
4.735280
  0
VERTEX
  8
0
  6
CONTINUOUS
 10
4.801280
 20
5.465240
  0
VERTEX
  8
0
  6
CONTINUOUS
 10
4.816240
 20
5.447200
  0
VERTEX
  8
0
  6
CONTINUOUS
 10
4.818880
 20
4.717240
  0
VERTEX
  8
0
  6
CONTINUOUS
 10
4.804360
 20
4.735280
  0
SEQEND
  8
0
  0
SOLID
  8
0
 62
    15
 10
4.818880
 20
4.717240
 11
4.816240
 21
5.447200
 12
4.830320
 22
4.696560
 13
4.827680
 23
5.426520
  0
POLYLINE
  8
0
  6
CONTINUOUS
 66
     1
 40
0.000000
 41
0.000000
  0
VERTEX
  8
0
  6
CONTINUOUS
 10
4.818880
 20
4.717240
  0
VERTEX
  8
0
  6
CONTINUOUS
 10
4.816240
 20
5.447200
  0
VERTEX
  8
0
  6
CONTINUOUS
 10
4.827680
 20
5.426520
  0
VERTEX
  8
0
  6
CONTINUOUS
 10
4.830320
 20
4.696560
  0
VERTEX
  8
0
  6
CONTINUOUS
 10
4.818880
 20
4.717240
  0
SEQEND
  8
0
  0
SOLID
  8
0
 62
    15
 10
4.840000
 20
4.649040
 11
4.837360
 21
5.379000
 12
4.858920
 22
4.649040
 13
4.856280
 23
5.379000
  0
POLYLINE
  8
0
  6
CONTINUOUS
 66
     1
 40
0.000000
 41
0.000000
  0
VERTEX
  8
0
  6
CONTINUOUS
 10
4.840000
 20
4.649040
  0
VERTEX
  8
0
  6
CONTINUOUS
 10
4.837360
 20
5.379000
  0
VERTEX
  8
0
  6
CONTINUOUS
 10
4.856280
 20
5.379000
  0
VERTEX
  8
0
  6
CONTINUOUS
 10
4.858920
 20
4.649040
  0
VERTEX
  8
0
  6
CONTINUOUS
 10
4.840000
 20
4.649040
  0
SEQEND
  8
0
  0
SOLID
  8
0
 62
    15
 10
4.837360
 20
4.673680
 11
4.834720
 21
5.403640
 12
4.840000
 22
4.649040
 13
4.837360
 23
5.379000
  0
POLYLINE
  8
0
  6
CONTINUOUS
 66
     1
 40
0.000000
 41
0.000000
  0
VERTEX
  8
0
  6
CONTINUOUS
 10
4.837360
 20
4.673680
  0
VERTEX
  8
0
  6
CONTINUOUS
 10
4.834720
 20
5.403640
  0
VERTEX
  8
0
  6
CONTINUOUS
 10
4.837360
 20
5.379000
  0
VERTEX
  8
0
  6
CONTINUOUS
 10
4.840000
 20
4.649040
  0
VERTEX
  8
0
  6
CONTINUOUS
 10
4.837360
 20
4.673680
  0
SEQEND
  8
0
  0
SOLID
  8
0
 62
    15
 10
4.830320
 20
4.696560
 11
4.827680
 21
5.426520
 12
4.837360
 22
4.673680
 13
4.834720
 23
5.403640
  0
POLYLINE
  8
0
  6
CONTINUOUS
 66
     1
 40
0.000000
 41
0.000000
  0
VERTEX
  8
0
  6
CONTINUOUS
 10
4.830320
 20
4.696560
  0
VERTEX
  8
0
  6
CONTINUOUS
 10
4.827680
 20
5.426520
  0
VERTEX
  8
0
  6
CONTINUOUS
 10
4.834720
 20
5.403640
  0
VERTEX
  8
0
  6
CONTINUOUS
 10
4.837360
 20
4.673680
  0
VERTEX
  8
0
  6
CONTINUOUS
 10
4.830320
 20
4.696560
  0
SEQEND
  8
0
  0
SOLID
  8
0
 62
    15
 10
4.858920
 20
4.649040
 11
4.856280
 21
5.379000
 12
4.861560
 22
4.673680
 13
4.858920
 23
5.403640
  0
POLYLINE
  8
0
  6
CONTINUOUS
 66
     1
 40
0.000000
 41
0.000000
  0
VERTEX
  8
0
  6
CONTINUOUS
 10
4.858920
 20
4.649040
  0
VERTEX
  8
0
  6
CONTINUOUS
 10
4.856280
 20
5.379000
  0
VERTEX
  8
0
  6
CONTINUOUS
 10
4.858920
 20
5.403640
  0
VERTEX
  8
0
  6
CONTINUOUS
 10
4.861560
 20
4.673680
  0
VERTEX
  8
0
  6
CONTINUOUS
 10
4.858920
 20
4.649040
  0
SEQEND
  8
0
  0
SOLID
  8
0
 62
    15
 10
4.861560
 20
4.673680
 11
4.858920
 21
5.403640
 12
4.868600
 22
4.696560
 13
4.865960
 23
5.426520
  0
POLYLINE
  8
0
  6
CONTINUOUS
 66
     1
 40
0.000000
 41
0.000000
  0
VERTEX
  8
0
  6
CONTINUOUS
 10
4.861560
 20
4.673680
  0
VERTEX
  8
0
  6
CONTINUOUS
 10
4.858920
 20
5.403640
  0
VERTEX
  8
0
  6
CONTINUOUS
 10
4.865960
 20
5.426520
  0
VERTEX
  8
0
  6
CONTINUOUS
 10
4.868600
 20
4.696560
  0
VERTEX
  8
0
  6
CONTINUOUS
 10
4.861560
 20
4.673680
  0
SEQEND
  8
0
  0
SOLID
  8
0
 62
    15
 10
4.868600
 20
4.696560
 11
4.865960
 21
5.426520
 12
4.880040
 22
4.717240
 13
4.877400
 23
5.447200
  0
POLYLINE
  8
0
  6
CONTINUOUS
 66
     1
 40
0.000000
 41
0.000000
  0
VERTEX
  8
0
  6
CONTINUOUS
 10
4.868600
 20
4.696560
  0
VERTEX
  8
0
  6
CONTINUOUS
 10
4.865960
 20
5.426520
  0
VERTEX
  8
0
  6
CONTINUOUS
 10
4.877400
 20
5.447200
  0
VERTEX
  8
0
  6
CONTINUOUS
 10
4.880040
 20
4.717240
  0
VERTEX
  8
0
  6
CONTINUOUS
 10
4.868600
 20
4.696560
  0
SEQEND
  8
0
  0
SOLID
  8
0
 62
    15
 10
4.880040
 20
4.717240
 11
4.877400
 21
5.447200
 12
4.895000
 22
4.735280
 13
4.891920
 23
5.465240
  0
POLYLINE
  8
0
  6
CONTINUOUS
 66
     1
 40
0.000000
 41
0.000000
  0
VERTEX
  8
0
  6
CONTINUOUS
 10
4.880040
 20
4.717240
  0
VERTEX
  8
0
  6
CONTINUOUS
 10
4.877400
 20
5.447200
  0
VERTEX
  8
0
  6
CONTINUOUS
 10
4.891920
 20
5.465240
  0
VERTEX
  8
0
  6
CONTINUOUS
 10
4.895000
 20
4.735280
  0
VERTEX
  8
0
  6
CONTINUOUS
 10
4.880040
 20
4.717240
  0
SEQEND
  8
0
  0
SOLID
  8
0
 62
    15
 10
4.895000
 20
4.735280
 11
4.891920
 21
5.465240
 12
4.913040
 22
4.750240
 13
4.910400
 23
5.480200
  0
POLYLINE
  8
0
  6
CONTINUOUS
 66
     1
 40
0.000000
 41
0.000000
  0
VERTEX
  8
0
  6
CONTINUOUS
 10
4.895000
 20
4.735280
  0
VERTEX
  8
0
  6
CONTINUOUS
 10
4.891920
 20
5.465240
  0
VERTEX
  8
0
  6
CONTINUOUS
 10
4.910400
 20
5.480200
  0
VERTEX
  8
0
  6
CONTINUOUS
 10
4.913040
 20
4.750240
  0
VERTEX
  8
0
  6
CONTINUOUS
 10
4.895000
 20
4.735280
  0
SEQEND
  8
0
  0
SOLID
  8
0
 62
    15
 10
4.913040
 20
4.750240
 11
4.910400
 21
5.480200
 12
4.933720
 22
4.761680
 13
4.931080
 23
5.491640
  0
POLYLINE
  8
0
  6
CONTINUOUS
 66
     1
 40
0.000000
 41
0.000000
  0
VERTEX
  8
0
  6
CONTINUOUS
 10
4.913040
 20
4.750240
  0
VERTEX
  8
0
  6
CONTINUOUS
 10
4.910400
 20
5.480200
  0
VERTEX
  8
0
  6
CONTINUOUS
 10
4.931080
 20
5.491640
  0
VERTEX
  8
0
  6
CONTINUOUS
 10
4.933720
 20
4.761680
  0
VERTEX
  8
0
  6
CONTINUOUS
 10
4.913040
 20
4.750240
  0
SEQEND
  8
0
  0
SOLID
  8
0
 62
    15
 10
4.933720
 20
4.761680
 11
4.931080
 21
5.491640
 12
4.956600
 22
4.768720
 13
4.953960
 23
5.498680
  0
POLYLINE
  8
0
  6
CONTINUOUS
 66
     1
 40
0.000000
 41
0.000000
  0
VERTEX
  8
0
  6
CONTINUOUS
 10
4.933720
 20
4.761680
  0
VERTEX
  8
0
  6
CONTINUOUS
 10
4.931080
 20
5.491640
  0
VERTEX
  8
0
  6
CONTINUOUS
 10
4.953960
 20
5.498680
  0
VERTEX
  8
0
  6
CONTINUOUS
 10
4.956600
 20
4.768720
  0
VERTEX
  8
0
  6
CONTINUOUS
 10
4.933720
 20
4.761680
  0
SEQEND
  8
0
  0
SOLID
  8
0
 62
    15
 10
4.956600
 20
4.768720
 11
4.953960
 21
5.498680
 12
4.981240
 22
4.771360
 13
4.978600
 23
5.501320
  0
POLYLINE
  8
0
  6
CONTINUOUS
 66
     1
 40
0.000000
 41
0.000000
  0
VERTEX
  8
0
  6
CONTINUOUS
 10
4.956600
 20
4.768720
  0
VERTEX
  8
0
  6
CONTINUOUS
 10
4.953960
 20
5.498680
  0
VERTEX
  8
0
  6
CONTINUOUS
 10
4.978600
 20
5.501320
  0
VERTEX
  8
0
  6
CONTINUOUS
 10
4.981240
 20
4.771360
  0
VERTEX
  8
0
  6
CONTINUOUS
 10
4.956600
 20
4.768720
  0
SEQEND
  8
0
  0
SOLID
  8
0
 62
    15
 10
4.981240
 20
4.771360
 11
4.978600
 21
5.501320
 12
5.005880
 22
4.768720
 13
5.003240
 23
5.498680
  0
POLYLINE
  8
0
  6
CONTINUOUS
 66
     1
 40
0.000000
 41
0.000000
  0
VERTEX
  8
0
  6
CONTINUOUS
 10
4.981240
 20
4.771360
  0
VERTEX
  8
0
  6
CONTINUOUS
 10
4.978600
 20
5.501320
  0
VERTEX
  8
0
  6
CONTINUOUS
 10
5.003240
 20
5.498680
  0
VERTEX
  8
0
  6
CONTINUOUS
 10
5.005880
 20
4.768720
  0
VERTEX
  8
0
  6
CONTINUOUS
 10
4.981240
 20
4.771360
  0
SEQEND
  8
0
  0
SOLID
  8
0
 62
    15
 10
5.005880
 20
4.768720
 11
5.003240
 21
5.498680
 12
5.028760
 22
4.761680
 13
5.026120
 23
5.491640
  0
POLYLINE
  8
0
  6
CONTINUOUS
 66
     1
 40
0.000000
 41
0.000000
  0
VERTEX
  8
0
  6
CONTINUOUS
 10
5.005880
 20
4.768720
  0
VERTEX
  8
0
  6
CONTINUOUS
 10
5.003240
 20
5.498680
  0
VERTEX
  8
0
  6
CONTINUOUS
 10
5.026120
 20
5.491640
  0
VERTEX
  8
0
  6
CONTINUOUS
 10
5.028760
 20
4.761680
  0
VERTEX
  8
0
  6
CONTINUOUS
 10
5.005880
 20
4.768720
  0
SEQEND
  8
0
  0
SOLID
  8
0
 62
    15
 10
5.028760
 20
4.761680
 11
5.026120
 21
5.491640
 12
5.049440
 22
4.750240
 13
5.046800
 23
5.480200
  0
POLYLINE
  8
0
  6
CONTINUOUS
 66
     1
 40
0.000000
 41
0.000000
  0
VERTEX
  8
0
  6
CONTINUOUS
 10
5.028760
 20
4.761680
  0
VERTEX
  8
0
  6
CONTINUOUS
 10
5.026120
 20
5.491640
  0
VERTEX
  8
0
  6
CONTINUOUS
 10
5.046800
 20
5.480200
  0
VERTEX
  8
0
  6
CONTINUOUS
 10
5.049440
 20
4.750240
  0
VERTEX
  8
0
  6
CONTINUOUS
 10
5.028760
 20
4.761680
  0
SEQEND
  8
0
  0
SOLID
  8
0
 62
    15
 10
5.049440
 20
4.750240
 11
5.046800
 21
5.480200
 12
5.067920
 22
4.735280
 13
5.065280
 23
5.465240
  0
POLYLINE
  8
0
  6
CONTINUOUS
 66
     1
 40
0.000000
 41
0.000000
  0
VERTEX
  8
0
  6
CONTINUOUS
 10
5.049440
 20
4.750240
  0
VERTEX
  8
0
  6
CONTINUOUS
 10
5.046800
 20
5.480200
  0
VERTEX
  8
0
  6
CONTINUOUS
 10
5.065280
 20
5.465240
  0
VERTEX
  8
0
  6
CONTINUOUS
 10
5.067920
 20
4.735280
  0
VERTEX
  8
0
  6
CONTINUOUS
 10
5.049440
 20
4.750240
  0
SEQEND
  8
0
  0
SOLID
  8
0
 62
    15
 10
5.067920
 20
4.735280
 11
5.065280
 21
5.465240
 12
5.082880
 22
4.717240
 13
5.079800
 23
5.447200
  0
POLYLINE
  8
0
  6
CONTINUOUS
 66
     1
 40
0.000000
 41
0.000000
  0
VERTEX
  8
0
  6
CONTINUOUS
 10
5.067920
 20
4.735280
  0
VERTEX
  8
0
  6
CONTINUOUS
 10
5.065280
 20
5.465240
  0
VERTEX
  8
0
  6
CONTINUOUS
 10
5.079800
 20
5.447200
  0
VERTEX
  8
0
  6
CONTINUOUS
 10
5.082880
 20
4.717240
  0
VERTEX
  8
0
  6
CONTINUOUS
 10
5.067920
 20
4.735280
  0
SEQEND
  8
0
  0
SOLID
  8
0
 62
    15
 10
5.082880
 20
4.717240
 11
5.079800
 21
5.447200
 12
5.093880
 22
4.696560
 13
5.091240
 23
5.426520
  0
POLYLINE
  8
0
  6
CONTINUOUS
 66
     1
 40
0.000000
 41
0.000000
  0
VERTEX
  8
0
  6
CONTINUOUS
 10
5.082880
 20
4.717240
  0
VERTEX
  8
0
  6
CONTINUOUS
 10
5.079800
 20
5.447200
  0
VERTEX
  8
0
  6
CONTINUOUS
 10
5.091240
 20
5.426520
  0
VERTEX
  8
0
  6
CONTINUOUS
 10
5.093880
 20
4.696560
  0
VERTEX
  8
0
  6
CONTINUOUS
 10
5.082880
 20
4.717240
  0
SEQEND
  8
0
  0
SOLID
  8
0
 62
    15
 10
5.103560
 20
4.649040
 11
5.100920
 21
5.379000
 12
5.119400
 22
4.649040
 13
5.116760
 23
5.379000
  0
POLYLINE
  8
0
  6
CONTINUOUS
 66
     1
 40
0.000000
 41
0.000000
  0
VERTEX
  8
0
  6
CONTINUOUS
 10
5.103560
 20
4.649040
  0
VERTEX
  8
0
  6
CONTINUOUS
 10
5.100920
 20
5.379000
  0
VERTEX
  8
0
  6
CONTINUOUS
 10
5.116760
 20
5.379000
  0
VERTEX
  8
0
  6
CONTINUOUS
 10
5.119400
 20
4.649040
  0
VERTEX
  8
0
  6
CONTINUOUS
 10
5.103560
 20
4.649040
  0
SEQEND
  8
0
  0
SOLID
  8
0
 62
    15
 10
5.100920
 20
4.673680
 11
5.098280
 21
5.403640
 12
5.103560
 22
4.649040
 13
5.100920
 23
5.379000
  0
POLYLINE
  8
0
  6
CONTINUOUS
 66
     1
 40
0.000000
 41
0.000000
  0
VERTEX
  8
0
  6
CONTINUOUS
 10
5.100920
 20
4.673680
  0
VERTEX
  8
0
  6
CONTINUOUS
 10
5.098280
 20
5.403640
  0
VERTEX
  8
0
  6
CONTINUOUS
 10
5.100920
 20
5.379000
  0
VERTEX
  8
0
  6
CONTINUOUS
 10
5.103560
 20
4.649040
  0
VERTEX
  8
0
  6
CONTINUOUS
 10
5.100920
 20
4.673680
  0
SEQEND
  8
0
  0
SOLID
  8
0
 62
    15
 10
5.093880
 20
4.696560
 11
5.091240
 21
5.426520
 12
5.100920
 22
4.673680
 13
5.098280
 23
5.403640
  0
POLYLINE
  8
0
  6
CONTINUOUS
 66
     1
 40
0.000000
 41
0.000000
  0
VERTEX
  8
0
  6
CONTINUOUS
 10
5.093880
 20
4.696560
  0
VERTEX
  8
0
  6
CONTINUOUS
 10
5.091240
 20
5.426520
  0
VERTEX
  8
0
  6
CONTINUOUS
 10
5.098280
 20
5.403640
  0
VERTEX
  8
0
  6
CONTINUOUS
 10
5.100920
 20
4.673680
  0
VERTEX
  8
0
  6
CONTINUOUS
 10
5.093880
 20
4.696560
  0
SEQEND
  8
0
  0
SOLID
  8
0
 62
    15
 10
5.119400
 20
4.649040
 11
5.116760
 21
5.379000
 12
5.122040
 22
4.673680
 13
5.119400
 23
5.403640
  0
POLYLINE
  8
0
  6
CONTINUOUS
 66
     1
 40
0.000000
 41
0.000000
  0
VERTEX
  8
0
  6
CONTINUOUS
 10
5.119400
 20
4.649040
  0
VERTEX
  8
0
  6
CONTINUOUS
 10
5.116760
 20
5.379000
  0
VERTEX
  8
0
  6
CONTINUOUS
 10
5.119400
 20
5.403640
  0
VERTEX
  8
0
  6
CONTINUOUS
 10
5.122040
 20
4.673680
  0
VERTEX
  8
0
  6
CONTINUOUS
 10
5.119400
 20
4.649040
  0
SEQEND
  8
0
  0
SOLID
  8
0
 62
    15
 10
5.122040
 20
4.673680
 11
5.119400
 21
5.403640
 12
5.129080
 22
4.696560
 13
5.126440
 23
5.426520
  0
POLYLINE
  8
0
  6
CONTINUOUS
 66
     1
 40
0.000000
 41
0.000000
  0
VERTEX
  8
0
  6
CONTINUOUS
 10
5.122040
 20
4.673680
  0
VERTEX
  8
0
  6
CONTINUOUS
 10
5.119400
 20
5.403640
  0
VERTEX
  8
0
  6
CONTINUOUS
 10
5.126440
 20
5.426520
  0
VERTEX
  8
0
  6
CONTINUOUS
 10
5.129080
 20
4.696560
  0
VERTEX
  8
0
  6
CONTINUOUS
 10
5.122040
 20
4.673680
  0
SEQEND
  8
0
  0
SOLID
  8
0
 62
    15
 10
5.129080
 20
4.696560
 11
5.126440
 21
5.426520
 12
5.140520
 22
4.717240
 13
5.137880
 23
5.447200
  0
POLYLINE
  8
0
  6
CONTINUOUS
 66
     1
 40
0.000000
 41
0.000000
  0
VERTEX
  8
0
  6
CONTINUOUS
 10
5.129080
 20
4.696560
  0
VERTEX
  8
0
  6
CONTINUOUS
 10
5.126440
 20
5.426520
  0
VERTEX
  8
0
  6
CONTINUOUS
 10
5.137880
 20
5.447200
  0
VERTEX
  8
0
  6
CONTINUOUS
 10
5.140520
 20
4.717240
  0
VERTEX
  8
0
  6
CONTINUOUS
 10
5.129080
 20
4.696560
  0
SEQEND
  8
0
  0
SOLID
  8
0
 62
    15
 10
5.140520
 20
4.717240
 11
5.137880
 21
5.447200
 12
5.155480
 22
4.735280
 13
5.152400
 23
5.465240
  0
POLYLINE
  8
0
  6
CONTINUOUS
 66
     1
 40
0.000000
 41
0.000000
  0
VERTEX
  8
0
  6
CONTINUOUS
 10
5.140520
 20
4.717240
  0
VERTEX
  8
0
  6
CONTINUOUS
 10
5.137880
 20
5.447200
  0
VERTEX
  8
0
  6
CONTINUOUS
 10
5.152400
 20
5.465240
  0
VERTEX
  8
0
  6
CONTINUOUS
 10
5.155480
 20
4.735280
  0
VERTEX
  8
0
  6
CONTINUOUS
 10
5.140520
 20
4.717240
  0
SEQEND
  8
0
  0
SOLID
  8
0
 62
    15
 10
5.155480
 20
4.735280
 11
5.152400
 21
5.465240
 12
5.173520
 22
4.750240
 13
5.170880
 23
5.480200
  0
POLYLINE
  8
0
  6
CONTINUOUS
 66
     1
 40
0.000000
 41
0.000000
  0
VERTEX
  8
0
  6
CONTINUOUS
 10
5.155480
 20
4.735280
  0
VERTEX
  8
0
  6
CONTINUOUS
 10
5.152400
 20
5.465240
  0
VERTEX
  8
0
  6
CONTINUOUS
 10
5.170880
 20
5.480200
  0
VERTEX
  8
0
  6
CONTINUOUS
 10
5.173520
 20
4.750240
  0
VERTEX
  8
0
  6
CONTINUOUS
 10
5.155480
 20
4.735280
  0
SEQEND
  8
0
  0
SOLID
  8
0
 62
    15
 10
5.173520
 20
4.750240
 11
5.170880
 21
5.480200
 12
5.194200
 22
4.761680
 13
5.191560
 23
5.491640
  0
POLYLINE
  8
0
  6
CONTINUOUS
 66
     1
 40
0.000000
 41
0.000000
  0
VERTEX
  8
0
  6
CONTINUOUS
 10
5.173520
 20
4.750240
  0
VERTEX
  8
0
  6
CONTINUOUS
 10
5.170880
 20
5.480200
  0
VERTEX
  8
0
  6
CONTINUOUS
 10
5.191560
 20
5.491640
  0
VERTEX
  8
0
  6
CONTINUOUS
 10
5.194200
 20
4.761680
  0
VERTEX
  8
0
  6
CONTINUOUS
 10
5.173520
 20
4.750240
  0
SEQEND
  8
0
  0
SOLID
  8
0
 62
    15
 10
5.194200
 20
4.761680
 11
5.191560
 21
5.491640
 12
5.217080
 22
4.768720
 13
5.214440
 23
5.498680
  0
POLYLINE
  8
0
  6
CONTINUOUS
 66
     1
 40
0.000000
 41
0.000000
  0
VERTEX
  8
0
  6
CONTINUOUS
 10
5.194200
 20
4.761680
  0
VERTEX
  8
0
  6
CONTINUOUS
 10
5.191560
 20
5.491640
  0
VERTEX
  8
0
  6
CONTINUOUS
 10
5.214440
 20
5.498680
  0
VERTEX
  8
0
  6
CONTINUOUS
 10
5.217080
 20
4.768720
  0
VERTEX
  8
0
  6
CONTINUOUS
 10
5.194200
 20
4.761680
  0
SEQEND
  8
0
  0
SOLID
  8
0
 62
    15
 10
5.217080
 20
4.768720
 11
5.214440
 21
5.498680
 12
5.241720
 22
4.771360
 13
5.239080
 23
5.501320
  0
POLYLINE
  8
0
  6
CONTINUOUS
 66
     1
 40
0.000000
 41
0.000000
  0
VERTEX
  8
0
  6
CONTINUOUS
 10
5.217080
 20
4.768720
  0
VERTEX
  8
0
  6
CONTINUOUS
 10
5.214440
 20
5.498680
  0
VERTEX
  8
0
  6
CONTINUOUS
 10
5.239080
 20
5.501320
  0
VERTEX
  8
0
  6
CONTINUOUS
 10
5.241720
 20
4.771360
  0
VERTEX
  8
0
  6
CONTINUOUS
 10
5.217080
 20
4.768720
  0
SEQEND
  8
0
  0
SOLID
  8
0
 62
    15
 10
5.241720
 20
4.771360
 11
5.239080
 21
5.501320
 12
5.266360
 22
4.768720
 13
5.263720
 23
5.498680
  0
POLYLINE
  8
0
  6
CONTINUOUS
 66
     1
 40
0.000000
 41
0.000000
  0
VERTEX
  8
0
  6
CONTINUOUS
 10
5.241720
 20
4.771360
  0
VERTEX
  8
0
  6
CONTINUOUS
 10
5.239080
 20
5.501320
  0
VERTEX
  8
0
  6
CONTINUOUS
 10
5.263720
 20
5.498680
  0
VERTEX
  8
0
  6
CONTINUOUS
 10
5.266360
 20
4.768720
  0
VERTEX
  8
0
  6
CONTINUOUS
 10
5.241720
 20
4.771360
  0
SEQEND
  8
0
  0
SOLID
  8
0
 62
    15
 10
5.266360
 20
4.768720
 11
5.263720
 21
5.498680
 12
5.289240
 22
4.761680
 13
5.286600
 23
5.491640
  0
POLYLINE
  8
0
  6
CONTINUOUS
 66
     1
 40
0.000000
 41
0.000000
  0
VERTEX
  8
0
  6
CONTINUOUS
 10
5.266360
 20
4.768720
  0
VERTEX
  8
0
  6
CONTINUOUS
 10
5.263720
 20
5.498680
  0
VERTEX
  8
0
  6
CONTINUOUS
 10
5.286600
 20
5.491640
  0
VERTEX
  8
0
  6
CONTINUOUS
 10
5.289240
 20
4.761680
  0
VERTEX
  8
0
  6
CONTINUOUS
 10
5.266360
 20
4.768720
  0
SEQEND
  8
0
  0
SOLID
  8
0
 62
    15
 10
5.289240
 20
4.761680
 11
5.286600
 21
5.491640
 12
5.309920
 22
4.750240
 13
5.307280
 23
5.480200
  0
POLYLINE
  8
0
  6
CONTINUOUS
 66
     1
 40
0.000000
 41
0.000000
  0
VERTEX
  8
0
  6
CONTINUOUS
 10
5.289240
 20
4.761680
  0
VERTEX
  8
0
  6
CONTINUOUS
 10
5.286600
 20
5.491640
  0
VERTEX
  8
0
  6
CONTINUOUS
 10
5.307280
 20
5.480200
  0
VERTEX
  8
0
  6
CONTINUOUS
 10
5.309920
 20
4.750240
  0
VERTEX
  8
0
  6
CONTINUOUS
 10
5.289240
 20
4.761680
  0
SEQEND
  8
0
  0
SOLID
  8
0
 62
    15
 10
5.309920
 20
4.750240
 11
5.307280
 21
5.480200
 12
5.328400
 22
4.735280
 13
5.325760
 23
5.465240
  0
POLYLINE
  8
0
  6
CONTINUOUS
 66
     1
 40
0.000000
 41
0.000000
  0
VERTEX
  8
0
  6
CONTINUOUS
 10
5.309920
 20
4.750240
  0
VERTEX
  8
0
  6
CONTINUOUS
 10
5.307280
 20
5.480200
  0
VERTEX
  8
0
  6
CONTINUOUS
 10
5.325760
 20
5.465240
  0
VERTEX
  8
0
  6
CONTINUOUS
 10
5.328400
 20
4.735280
  0
VERTEX
  8
0
  6
CONTINUOUS
 10
5.309920
 20
4.750240
  0
SEQEND
  8
0
  0
SOLID
  8
0
 62
    15
 10
5.328400
 20
4.735280
 11
5.325760
 21
5.465240
 12
5.343360
 22
4.717240
 13
5.340280
 23
5.447200
  0
POLYLINE
  8
0
  6
CONTINUOUS
 66
     1
 40
0.000000
 41
0.000000
  0
VERTEX
  8
0
  6
CONTINUOUS
 10
5.328400
 20
4.735280
  0
VERTEX
  8
0
  6
CONTINUOUS
 10
5.325760
 20
5.465240
  0
VERTEX
  8
0
  6
CONTINUOUS
 10
5.340280
 20
5.447200
  0
VERTEX
  8
0
  6
CONTINUOUS
 10
5.343360
 20
4.717240
  0
VERTEX
  8
0
  6
CONTINUOUS
 10
5.328400
 20
4.735280
  0
SEQEND
  8
0
  0
SOLID
  8
0
 62
    15
 10
5.343360
 20
4.717240
 11
5.340280
 21
5.447200
 12
5.354360
 22
4.696560
 13
5.351720
 23
5.426520
  0
POLYLINE
  8
0
  6
CONTINUOUS
 66
     1
 40
0.000000
 41
0.000000
  0
VERTEX
  8
0
  6
CONTINUOUS
 10
5.343360
 20
4.717240
  0
VERTEX
  8
0
  6
CONTINUOUS
 10
5.340280
 20
5.447200
  0
VERTEX
  8
0
  6
CONTINUOUS
 10
5.351720
 20
5.426520
  0
VERTEX
  8
0
  6
CONTINUOUS
 10
5.354360
 20
4.696560
  0
VERTEX
  8
0
  6
CONTINUOUS
 10
5.343360
 20
4.717240
  0
SEQEND
  8
0
  0
SOLID
  8
0
 62
    15
 10
5.364040
 20
4.649040
 11
5.361400
 21
5.379000
 12
5.382960
 22
4.649040
 13
5.380320
 23
5.379000
  0
POLYLINE
  8
0
  6
CONTINUOUS
 66
     1
 40
0.000000
 41
0.000000
  0
VERTEX
  8
0
  6
CONTINUOUS
 10
5.364040
 20
4.649040
  0
VERTEX
  8
0
  6
CONTINUOUS
 10
5.361400
 20
5.379000
  0
VERTEX
  8
0
  6
CONTINUOUS
 10
5.380320
 20
5.379000
  0
VERTEX
  8
0
  6
CONTINUOUS
 10
5.382960
 20
4.649040
  0
VERTEX
  8
0
  6
CONTINUOUS
 10
5.364040
 20
4.649040
  0
SEQEND
  8
0
  0
SOLID
  8
0
 62
    15
 10
5.361400
 20
4.673680
 11
5.358760
 21
5.403640
 12
5.364040
 22
4.649040
 13
5.361400
 23
5.379000
  0
POLYLINE
  8
0
  6
CONTINUOUS
 66
     1
 40
0.000000
 41
0.000000
  0
VERTEX
  8
0
  6
CONTINUOUS
 10
5.361400
 20
4.673680
  0
VERTEX
  8
0
  6
CONTINUOUS
 10
5.358760
 20
5.403640
  0
VERTEX
  8
0
  6
CONTINUOUS
 10
5.361400
 20
5.379000
  0
VERTEX
  8
0
  6
CONTINUOUS
 10
5.364040
 20
4.649040
  0
VERTEX
  8
0
  6
CONTINUOUS
 10
5.361400
 20
4.673680
  0
SEQEND
  8
0
  0
SOLID
  8
0
 62
    15
 10
5.354360
 20
4.696560
 11
5.351720
 21
5.426520
 12
5.361400
 22
4.673680
 13
5.358760
 23
5.403640
  0
POLYLINE
  8
0
  6
CONTINUOUS
 66
     1
 40
0.000000
 41
0.000000
  0
VERTEX
  8
0
  6
CONTINUOUS
 10
5.354360
 20
4.696560
  0
VERTEX
  8
0
  6
CONTINUOUS
 10
5.351720
 20
5.426520
  0
VERTEX
  8
0
  6
CONTINUOUS
 10
5.358760
 20
5.403640
  0
VERTEX
  8
0
  6
CONTINUOUS
 10
5.361400
 20
4.673680
  0
VERTEX
  8
0
  6
CONTINUOUS
 10
5.354360
 20
4.696560
  0
SEQEND
  8
0
  0
SOLID
  8
0
 62
    15
 10
5.382960
 20
4.649040
 11
5.380320
 21
5.379000
 12
5.385600
 22
4.673680
 13
5.382960
 23
5.403640
  0
POLYLINE
  8
0
  6
CONTINUOUS
 66
     1
 40
0.000000
 41
0.000000
  0
VERTEX
  8
0
  6
CONTINUOUS
 10
5.382960
 20
4.649040
  0
VERTEX
  8
0
  6
CONTINUOUS
 10
5.380320
 20
5.379000
  0
VERTEX
  8
0
  6
CONTINUOUS
 10
5.382960
 20
5.403640
  0
VERTEX
  8
0
  6
CONTINUOUS
 10
5.385600
 20
4.673680
  0
VERTEX
  8
0
  6
CONTINUOUS
 10
5.382960
 20
4.649040
  0
SEQEND
  8
0
  0
SOLID
  8
0
 62
    15
 10
5.385600
 20
4.673680
 11
5.382960
 21
5.403640
 12
5.392640
 22
4.696560
 13
5.390000
 23
5.426520
  0
POLYLINE
  8
0
  6
CONTINUOUS
 66
     1
 40
0.000000
 41
0.000000
  0
VERTEX
  8
0
  6
CONTINUOUS
 10
5.385600
 20
4.673680
  0
VERTEX
  8
0
  6
CONTINUOUS
 10
5.382960
 20
5.403640
  0
VERTEX
  8
0
  6
CONTINUOUS
 10
5.390000
 20
5.426520
  0
VERTEX
  8
0
  6
CONTINUOUS
 10
5.392640
 20
4.696560
  0
VERTEX
  8
0
  6
CONTINUOUS
 10
5.385600
 20
4.673680
  0
SEQEND
  8
0
  0
SOLID
  8
0
 62
    15
 10
5.392640
 20
4.696560
 11
5.390000
 21
5.426520
 12
5.404080
 22
4.717240
 13
5.401440
 23
5.447200
  0
POLYLINE
  8
0
  6
CONTINUOUS
 66
     1
 40
0.000000
 41
0.000000
  0
VERTEX
  8
0
  6
CONTINUOUS
 10
5.392640
 20
4.696560
  0
VERTEX
  8
0
  6
CONTINUOUS
 10
5.390000
 20
5.426520
  0
VERTEX
  8
0
  6
CONTINUOUS
 10
5.401440
 20
5.447200
  0
VERTEX
  8
0
  6
CONTINUOUS
 10
5.404080
 20
4.717240
  0
VERTEX
  8
0
  6
CONTINUOUS
 10
5.392640
 20
4.696560
  0
SEQEND
  8
0
  0
SOLID
  8
0
 62
    15
 10
5.404080
 20
4.717240
 11
5.401440
 21
5.447200
 12
5.419040
 22
4.735280
 13
5.416400
 23
5.465240
  0
POLYLINE
  8
0
  6
CONTINUOUS
 66
     1
 40
0.000000
 41
0.000000
  0
VERTEX
  8
0
  6
CONTINUOUS
 10
5.404080
 20
4.717240
  0
VERTEX
  8
0
  6
CONTINUOUS
 10
5.401440
 20
5.447200
  0
VERTEX
  8
0
  6
CONTINUOUS
 10
5.416400
 20
5.465240
  0
VERTEX
  8
0
  6
CONTINUOUS
 10
5.419040
 20
4.735280
  0
VERTEX
  8
0
  6
CONTINUOUS
 10
5.404080
 20
4.717240
  0
SEQEND
  8
0
  0
SOLID
  8
0
 62
    15
 10
5.419040
 20
4.735280
 11
5.416400
 21
5.465240
 12
5.437080
 22
4.750240
 13
5.434440
 23
5.480200
  0
POLYLINE
  8
0
  6
CONTINUOUS
 66
     1
 40
0.000000
 41
0.000000
  0
VERTEX
  8
0
  6
CONTINUOUS
 10
5.419040
 20
4.735280
  0
VERTEX
  8
0
  6
CONTINUOUS
 10
5.416400
 20
5.465240
  0
VERTEX
  8
0
  6
CONTINUOUS
 10
5.434440
 20
5.480200
  0
VERTEX
  8
0
  6
CONTINUOUS
 10
5.437080
 20
4.750240
  0
VERTEX
  8
0
  6
CONTINUOUS
 10
5.419040
 20
4.735280
  0
SEQEND
  8
0
  0
SOLID
  8
0
 62
    15
 10
5.437080
 20
4.750240
 11
5.434440
 21
5.480200
 12
5.457760
 22
4.761680
 13
5.455120
 23
5.491640
  0
POLYLINE
  8
0
  6
CONTINUOUS
 66
     1
 40
0.000000
 41
0.000000
  0
VERTEX
  8
0
  6
CONTINUOUS
 10
5.437080
 20
4.750240
  0
VERTEX
  8
0
  6
CONTINUOUS
 10
5.434440
 20
5.480200
  0
VERTEX
  8
0
  6
CONTINUOUS
 10
5.455120
 20
5.491640
  0
VERTEX
  8
0
  6
CONTINUOUS
 10
5.457760
 20
4.761680
  0
VERTEX
  8
0
  6
CONTINUOUS
 10
5.437080
 20
4.750240
  0
SEQEND
  8
0
  0
SOLID
  8
0
 62
    15
 10
5.457760
 20
4.761680
 11
5.455120
 21
5.491640
 12
5.480640
 22
4.768720
 13
5.478000
 23
5.498680
  0
POLYLINE
  8
0
  6
CONTINUOUS
 66
     1
 40
0.000000
 41
0.000000
  0
VERTEX
  8
0
  6
CONTINUOUS
 10
5.457760
 20
4.761680
  0
VERTEX
  8
0
  6
CONTINUOUS
 10
5.455120
 20
5.491640
  0
VERTEX
  8
0
  6
CONTINUOUS
 10
5.478000
 20
5.498680
  0
VERTEX
  8
0
  6
CONTINUOUS
 10
5.480640
 20
4.768720
  0
VERTEX
  8
0
  6
CONTINUOUS
 10
5.457760
 20
4.761680
  0
SEQEND
  8
0
  0
SOLID
  8
0
 62
    15
 10
5.480640
 20
4.768720
 11
5.478000
 21
5.498680
 12
5.505280
 22
4.771360
 13
5.502640
 23
5.501320
  0
POLYLINE
  8
0
  6
CONTINUOUS
 66
     1
 40
0.000000
 41
0.000000
  0
VERTEX
  8
0
  6
CONTINUOUS
 10
5.480640
 20
4.768720
  0
VERTEX
  8
0
  6
CONTINUOUS
 10
5.478000
 20
5.498680
  0
VERTEX
  8
0
  6
CONTINUOUS
 10
5.502640
 20
5.501320
  0
VERTEX
  8
0
  6
CONTINUOUS
 10
5.505280
 20
4.771360
  0
VERTEX
  8
0
  6
CONTINUOUS
 10
5.480640
 20
4.768720
  0
SEQEND
  8
0
  0
SOLID
  8
0
 62
    15
 10
5.505280
 20
4.771360
 11
5.502640
 21
5.501320
 12
5.529920
 22
4.768720
 13
5.527280
 23
5.498680
  0
POLYLINE
  8
0
  6
CONTINUOUS
 66
     1
 40
0.000000
 41
0.000000
  0
VERTEX
  8
0
  6
CONTINUOUS
 10
5.505280
 20
4.771360
  0
VERTEX
  8
0
  6
CONTINUOUS
 10
5.502640
 20
5.501320
  0
VERTEX
  8
0
  6
CONTINUOUS
 10
5.527280
 20
5.498680
  0
VERTEX
  8
0
  6
CONTINUOUS
 10
5.529920
 20
4.768720
  0
VERTEX
  8
0
  6
CONTINUOUS
 10
5.505280
 20
4.771360
  0
SEQEND
  8
0
  0
SOLID
  8
0
 62
    15
 10
5.529920
 20
4.768720
 11
5.527280
 21
5.498680
 12
5.552800
 22
4.761680
 13
5.550160
 23
5.491640
  0
POLYLINE
  8
0
  6
CONTINUOUS
 66
     1
 40
0.000000
 41
0.000000
  0
VERTEX
  8
0
  6
CONTINUOUS
 10
5.529920
 20
4.768720
  0
VERTEX
  8
0
  6
CONTINUOUS
 10
5.527280
 20
5.498680
  0
VERTEX
  8
0
  6
CONTINUOUS
 10
5.550160
 20
5.491640
  0
VERTEX
  8
0
  6
CONTINUOUS
 10
5.552800
 20
4.761680
  0
VERTEX
  8
0
  6
CONTINUOUS
 10
5.529920
 20
4.768720
  0
SEQEND
  8
0
  0
SOLID
  8
0
 62
    15
 10
5.552800
 20
4.761680
 11
5.550160
 21
5.491640
 12
5.573480
 22
4.750240
 13
5.570840
 23
5.480200
  0
POLYLINE
  8
0
  6
CONTINUOUS
 66
     1
 40
0.000000
 41
0.000000
  0
VERTEX
  8
0
  6
CONTINUOUS
 10
5.552800
 20
4.761680
  0
VERTEX
  8
0
  6
CONTINUOUS
 10
5.550160
 20
5.491640
  0
VERTEX
  8
0
  6
CONTINUOUS
 10
5.570840
 20
5.480200
  0
VERTEX
  8
0
  6
CONTINUOUS
 10
5.573480
 20
4.750240
  0
VERTEX
  8
0
  6
CONTINUOUS
 10
5.552800
 20
4.761680
  0
SEQEND
  8
0
  0
SOLID
  8
0
 62
    15
 10
5.573480
 20
4.750240
 11
5.570840
 21
5.480200
 12
5.591960
 22
4.735280
 13
5.588880
 23
5.465240
  0
POLYLINE
  8
0
  6
CONTINUOUS
 66
     1
 40
0.000000
 41
0.000000
  0
VERTEX
  8
0
  6
CONTINUOUS
 10
5.573480
 20
4.750240
  0
VERTEX
  8
0
  6
CONTINUOUS
 10
5.570840
 20
5.480200
  0
VERTEX
  8
0
  6
CONTINUOUS
 10
5.588880
 20
5.465240
  0
VERTEX
  8
0
  6
CONTINUOUS
 10
5.591960
 20
4.735280
  0
VERTEX
  8
0
  6
CONTINUOUS
 10
5.573480
 20
4.750240
  0
SEQEND
  8
0
  0
SOLID
  8
0
 62
    15
 10
5.591960
 20
4.735280
 11
5.588880
 21
5.465240
 12
5.606480
 22
4.717240
 13
5.603840
 23
5.447200
  0
POLYLINE
  8
0
  6
CONTINUOUS
 66
     1
 40
0.000000
 41
0.000000
  0
VERTEX
  8
0
  6
CONTINUOUS
 10
5.591960
 20
4.735280
  0
VERTEX
  8
0
  6
CONTINUOUS
 10
5.588880
 20
5.465240
  0
VERTEX
  8
0
  6
CONTINUOUS
 10
5.603840
 20
5.447200
  0
VERTEX
  8
0
  6
CONTINUOUS
 10
5.606480
 20
4.717240
  0
VERTEX
  8
0
  6
CONTINUOUS
 10
5.591960
 20
4.735280
  0
SEQEND
  8
0
  0
SOLID
  8
0
 62
    15
 10
5.606480
 20
4.717240
 11
5.603840
 21
5.447200
 12
5.617920
 22
4.696560
 13
5.615280
 23
5.426520
  0
POLYLINE
  8
0
  6
CONTINUOUS
 66
     1
 40
0.000000
 41
0.000000
  0
VERTEX
  8
0
  6
CONTINUOUS
 10
5.606480
 20
4.717240
  0
VERTEX
  8
0
  6
CONTINUOUS
 10
5.603840
 20
5.447200
  0
VERTEX
  8
0
  6
CONTINUOUS
 10
5.615280
 20
5.426520
  0
VERTEX
  8
0
  6
CONTINUOUS
 10
5.617920
 20
4.696560
  0
VERTEX
  8
0
  6
CONTINUOUS
 10
5.606480
 20
4.717240
  0
SEQEND
  8
0
  0
SOLID
  8
0
 62
    15
 10
5.627600
 20
4.649040
 11
5.624960
 21
5.379000
 12
5.643440
 22
4.649040
 13
5.640800
 23
5.379000
  0
POLYLINE
  8
0
  6
CONTINUOUS
 66
     1
 40
0.000000
 41
0.000000
  0
VERTEX
  8
0
  6
CONTINUOUS
 10
5.627600
 20
4.649040
  0
VERTEX
  8
0
  6
CONTINUOUS
 10
5.624960
 20
5.379000
  0
VERTEX
  8
0
  6
CONTINUOUS
 10
5.640800
 20
5.379000
  0
VERTEX
  8
0
  6
CONTINUOUS
 10
5.643440
 20
4.649040
  0
VERTEX
  8
0
  6
CONTINUOUS
 10
5.627600
 20
4.649040
  0
SEQEND
  8
0
  0
SOLID
  8
0
 62
    15
 10
5.624960
 20
4.673680
 11
5.622320
 21
5.403640
 12
5.627600
 22
4.649040
 13
5.624960
 23
5.379000
  0
POLYLINE
  8
0
  6
CONTINUOUS
 66
     1
 40
0.000000
 41
0.000000
  0
VERTEX
  8
0
  6
CONTINUOUS
 10
5.624960
 20
4.673680
  0
VERTEX
  8
0
  6
CONTINUOUS
 10
5.622320
 20
5.403640
  0
VERTEX
  8
0
  6
CONTINUOUS
 10
5.624960
 20
5.379000
  0
VERTEX
  8
0
  6
CONTINUOUS
 10
5.627600
 20
4.649040
  0
VERTEX
  8
0
  6
CONTINUOUS
 10
5.624960
 20
4.673680
  0
SEQEND
  8
0
  0
SOLID
  8
0
 62
    15
 10
5.617920
 20
4.696560
 11
5.615280
 21
5.426520
 12
5.624960
 22
4.673680
 13
5.622320
 23
5.403640
  0
POLYLINE
  8
0
  6
CONTINUOUS
 66
     1
 40
0.000000
 41
0.000000
  0
VERTEX
  8
0
  6
CONTINUOUS
 10
5.617920
 20
4.696560
  0
VERTEX
  8
0
  6
CONTINUOUS
 10
5.615280
 20
5.426520
  0
VERTEX
  8
0
  6
CONTINUOUS
 10
5.622320
 20
5.403640
  0
VERTEX
  8
0
  6
CONTINUOUS
 10
5.624960
 20
4.673680
  0
VERTEX
  8
0
  6
CONTINUOUS
 10
5.617920
 20
4.696560
  0
SEQEND
  8
0
  0
SOLID
  8
0
 62
    15
 10
5.643440
 20
4.649040
 11
5.640800
 21
5.379000
 12
5.650480
 22
4.799520
 13
5.647840
 23
5.529480
  0
POLYLINE
  8
0
  6
CONTINUOUS
 66
     1
 40
0.000000
 41
0.000000
  0
VERTEX
  8
0
  6
CONTINUOUS
 10
5.643440
 20
4.649040
  0
VERTEX
  8
0
  6
CONTINUOUS
 10
5.640800
 20
5.379000
  0
VERTEX
  8
0
  6
CONTINUOUS
 10
5.647840
 20
5.529480
  0
VERTEX
  8
0
  6
CONTINUOUS
 10
5.650480
 20
4.799520
  0
VERTEX
  8
0
  6
CONTINUOUS
 10
5.643440
 20
4.649040
  0
SEQEND
  8
0
  0
SOLID
  8
0
 62
    15
 10
5.650480
 20
4.799520
 11
5.647840
 21
5.529480
 12
5.727040
 22
4.799080
 13
5.724400
 23
5.529040
  0
POLYLINE
  8
0
  6
CONTINUOUS
 66
     1
 40
0.000000
 41
0.000000
  0
VERTEX
  8
0
  6
CONTINUOUS
 10
5.650480
 20
4.799520
  0
VERTEX
  8
0
  6
CONTINUOUS
 10
5.647840
 20
5.529480
  0
VERTEX
  8
0
  6
CONTINUOUS
 10
5.724400
 20
5.529040
  0
VERTEX
  8
0
  6
CONTINUOUS
 10
5.727040
 20
4.799080
  0
VERTEX
  8
0
  6
CONTINUOUS
 10
5.650480
 20
4.799520
  0
SEQEND
  8
0
  0
SOLID
  8
0
 62
    15
 10
5.727040
 20
4.799080
 11
5.724400
 21
5.529040
 12
5.796120
 22
4.802600
 13
5.793480
 23
5.532560
  0
POLYLINE
  8
0
  6
CONTINUOUS
 66
     1
 40
0.000000
 41
0.000000
  0
VERTEX
  8
0
  6
CONTINUOUS
 10
5.727040
 20
4.799080
  0
VERTEX
  8
0
  6
CONTINUOUS
 10
5.724400
 20
5.529040
  0
VERTEX
  8
0
  6
CONTINUOUS
 10
5.793480
 20
5.532560
  0
VERTEX
  8
0
  6
CONTINUOUS
 10
5.796120
 20
4.802600
  0
VERTEX
  8
0
  6
CONTINUOUS
 10
5.727040
 20
4.799080
  0
SEQEND
  8
0
  0
SOLID
  8
0
 62
    15
 10
5.796120
 20
4.802600
 11
5.793480
 21
5.532560
 12
5.858160
 22
4.810080
 13
5.855520
 23
5.540040
  0
POLYLINE
  8
0
  6
CONTINUOUS
 66
     1
 40
0.000000
 41
0.000000
  0
VERTEX
  8
0
  6
CONTINUOUS
 10
5.796120
 20
4.802600
  0
VERTEX
  8
0
  6
CONTINUOUS
 10
5.793480
 20
5.532560
  0
VERTEX
  8
0
  6
CONTINUOUS
 10
5.855520
 20
5.540040
  0
VERTEX
  8
0
  6
CONTINUOUS
 10
5.858160
 20
4.810080
  0
VERTEX
  8
0
  6
CONTINUOUS
 10
5.796120
 20
4.802600
  0
SEQEND
  8
0
  0
SOLID
  8
0
 62
    15
 10
5.858160
 20
4.810080
 11
5.855520
 21
5.540040
 12
5.912720
 22
4.820640
 13
5.910080
 23
5.550600
  0
POLYLINE
  8
0
  6
CONTINUOUS
 66
     1
 40
0.000000
 41
0.000000
  0
VERTEX
  8
0
  6
CONTINUOUS
 10
5.858160
 20
4.810080
  0
VERTEX
  8
0
  6
CONTINUOUS
 10
5.855520
 20
5.540040
  0
VERTEX
  8
0
  6
CONTINUOUS
 10
5.910080
 20
5.550600
  0
VERTEX
  8
0
  6
CONTINUOUS
 10
5.912720
 20
4.820640
  0
VERTEX
  8
0
  6
CONTINUOUS
 10
5.858160
 20
4.810080
  0
SEQEND
  8
0
  0
SOLID
  8
0
 62
    15
 10
5.912720
 20
4.820640
 11
5.910080
 21
5.550600
 12
5.961120
 22
4.835160
 13
5.958480
 23
5.565120
  0
POLYLINE
  8
0
  6
CONTINUOUS
 66
     1
 40
0.000000
 41
0.000000
  0
VERTEX
  8
0
  6
CONTINUOUS
 10
5.912720
 20
4.820640
  0
VERTEX
  8
0
  6
CONTINUOUS
 10
5.910080
 20
5.550600
  0
VERTEX
  8
0
  6
CONTINUOUS
 10
5.958480
 20
5.565120
  0
VERTEX
  8
0
  6
CONTINUOUS
 10
5.961120
 20
4.835160
  0
VERTEX
  8
0
  6
CONTINUOUS
 10
5.912720
 20
4.820640
  0
SEQEND
  8
0
  0
SOLID
  8
0
 62
    15
 10
5.961120
 20
4.835160
 11
5.958480
 21
5.565120
 12
6.003360
 22
4.852320
 13
6.000720
 23
5.582280
  0
POLYLINE
  8
0
  6
CONTINUOUS
 66
     1
 40
0.000000
 41
0.000000
  0
VERTEX
  8
0
  6
CONTINUOUS
 10
5.961120
 20
4.835160
  0
VERTEX
  8
0
  6
CONTINUOUS
 10
5.958480
 20
5.565120
  0
VERTEX
  8
0
  6
CONTINUOUS
 10
6.000720
 20
5.582280
  0
VERTEX
  8
0
  6
CONTINUOUS
 10
6.003360
 20
4.852320
  0
VERTEX
  8
0
  6
CONTINUOUS
 10
5.961120
 20
4.835160
  0
SEQEND
  8
0
  0
SOLID
  8
0
 62
    15
 10
6.003360
 20
4.852320
 11
6.000720
 21
5.582280
 12
6.039880
 22
4.872120
 13
6.037240
 23
5.602080
  0
POLYLINE
  8
0
  6
CONTINUOUS
 66
     1
 40
0.000000
 41
0.000000
  0
VERTEX
  8
0
  6
CONTINUOUS
 10
6.003360
 20
4.852320
  0
VERTEX
  8
0
  6
CONTINUOUS
 10
6.000720
 20
5.582280
  0
VERTEX
  8
0
  6
CONTINUOUS
 10
6.037240
 20
5.602080
  0
VERTEX
  8
0
  6
CONTINUOUS
 10
6.039880
 20
4.872120
  0
VERTEX
  8
0
  6
CONTINUOUS
 10
6.003360
 20
4.852320
  0
SEQEND
  8
0
  0
SOLID
  8
0
 62
    15
 10
6.039880
 20
4.872120
 11
6.037240
 21
5.602080
 12
6.070680
 22
4.894560
 13
6.068040
 23
5.624520
  0
POLYLINE
  8
0
  6
CONTINUOUS
 66
     1
 40
0.000000
 41
0.000000
  0
VERTEX
  8
0
  6
CONTINUOUS
 10
6.039880
 20
4.872120
  0
VERTEX
  8
0
  6
CONTINUOUS
 10
6.037240
 20
5.602080
  0
VERTEX
  8
0
  6
CONTINUOUS
 10
6.068040
 20
5.624520
  0
VERTEX
  8
0
  6
CONTINUOUS
 10
6.070680
 20
4.894560
  0
VERTEX
  8
0
  6
CONTINUOUS
 10
6.039880
 20
4.872120
  0
SEQEND
  8
0
  0
SOLID
  8
0
 62
    15
 10
6.070680
 20
4.894560
 11
6.068040
 21
5.624520
 12
6.096640
 22
4.919640
 13
6.094000
 23
5.649160
  0
POLYLINE
  8
0
  6
CONTINUOUS
 66
     1
 40
0.000000
 41
0.000000
  0
VERTEX
  8
0
  6
CONTINUOUS
 10
6.070680
 20
4.894560
  0
VERTEX
  8
0
  6
CONTINUOUS
 10
6.068040
 20
5.624520
  0
VERTEX
  8
0
  6
CONTINUOUS
 10
6.094000
 20
5.649160
  0
VERTEX
  8
0
  6
CONTINUOUS
 10
6.096640
 20
4.919640
  0
VERTEX
  8
0
  6
CONTINUOUS
 10
6.070680
 20
4.894560
  0
SEQEND
  8
0
  0
SOLID
  8
0
 62
    15
 10
6.096640
 20
4.919640
 11
6.094000
 21
5.649160
 12
6.117760
 22
4.946040
 13
6.115120
 23
5.676000
  0
POLYLINE
  8
0
  6
CONTINUOUS
 66
     1
 40
0.000000
 41
0.000000
  0
VERTEX
  8
0
  6
CONTINUOUS
 10
6.096640
 20
4.919640
  0
VERTEX
  8
0
  6
CONTINUOUS
 10
6.094000
 20
5.649160
  0
VERTEX
  8
0
  6
CONTINUOUS
 10
6.115120
 20
5.676000
  0
VERTEX
  8
0
  6
CONTINUOUS
 10
6.117760
 20
4.946040
  0
VERTEX
  8
0
  6
CONTINUOUS
 10
6.096640
 20
4.919640
  0
SEQEND
  8
0
  0
SOLID
  8
0
 62
    15
 10
6.117760
 20
4.946040
 11
6.115120
 21
5.676000
 12
6.134920
 22
4.974640
 13
6.132280
 23
5.704600
  0
POLYLINE
  8
0
  6
CONTINUOUS
 66
     1
 40
0.000000
 41
0.000000
  0
VERTEX
  8
0
  6
CONTINUOUS
 10
6.117760
 20
4.946040
  0
VERTEX
  8
0
  6
CONTINUOUS
 10
6.115120
 20
5.676000
  0
VERTEX
  8
0
  6
CONTINUOUS
 10
6.132280
 20
5.704600
  0
VERTEX
  8
0
  6
CONTINUOUS
 10
6.134920
 20
4.974640
  0
VERTEX
  8
0
  6
CONTINUOUS
 10
6.117760
 20
4.946040
  0
SEQEND
  8
0
  0
SOLID
  8
0
 62
    15
 10
6.134920
 20
4.974640
 11
6.132280
 21
5.704600
 12
6.148120
 22
5.004560
 13
6.145480
 23
5.734520
  0
POLYLINE
  8
0
  6
CONTINUOUS
 66
     1
 40
0.000000
 41
0.000000
  0
VERTEX
  8
0
  6
CONTINUOUS
 10
6.134920
 20
4.974640
  0
VERTEX
  8
0
  6
CONTINUOUS
 10
6.132280
 20
5.704600
  0
VERTEX
  8
0
  6
CONTINUOUS
 10
6.145480
 20
5.734520
  0
VERTEX
  8
0
  6
CONTINUOUS
 10
6.148120
 20
5.004560
  0
VERTEX
  8
0
  6
CONTINUOUS
 10
6.134920
 20
4.974640
  0
SEQEND
  8
0
  0
SOLID
  8
0
 62
    15
 10
6.148120
 20
5.004560
 11
6.145480
 21
5.734520
 12
6.163960
 22
5.067920
 13
6.161320
 23
5.797880
  0
POLYLINE
  8
0
  6
CONTINUOUS
 66
     1
 40
0.000000
 41
0.000000
  0
VERTEX
  8
0
  6
CONTINUOUS
 10
6.148120
 20
5.004560
  0
VERTEX
  8
0
  6
CONTINUOUS
 10
6.145480
 20
5.734520
  0
VERTEX
  8
0
  6
CONTINUOUS
 10
6.161320
 20
5.797880
  0
VERTEX
  8
0
  6
CONTINUOUS
 10
6.163960
 20
5.067920
  0
VERTEX
  8
0
  6
CONTINUOUS
 10
6.148120
 20
5.004560
  0
SEQEND
  8
0
  0
SOLID
  8
0
 62
    15
 10
6.163960
 20
5.067920
 11
6.161320
 21
5.797880
 12
6.168360
 22
5.133920
 13
6.165720
 23
5.863880
  0
POLYLINE
  8
0
  6
CONTINUOUS
 66
     1
 40
0.000000
 41
0.000000
  0
VERTEX
  8
0
  6
CONTINUOUS
 10
6.163960
 20
5.067920
  0
VERTEX
  8
0
  6
CONTINUOUS
 10
6.161320
 20
5.797880
  0
VERTEX
  8
0
  6
CONTINUOUS
 10
6.165720
 20
5.863880
  0
VERTEX
  8
0
  6
CONTINUOUS
 10
6.168360
 20
5.133920
  0
VERTEX
  8
0
  6
CONTINUOUS
 10
6.163960
 20
5.067920
  0
SEQEND
  8
0
  0
SOLID
  8
0
 62
    15
 10
6.168360
 20
5.133920
 11
6.165720
 21
5.863880
 12
6.778200
 22
5.133920
 13
6.775120
 23
5.863880
  0
POLYLINE
  8
0
  6
CONTINUOUS
 66
     1
 40
0.000000
 41
0.000000
  0
VERTEX
  8
0
  6
CONTINUOUS
 10
6.168360
 20
5.133920
  0
VERTEX
  8
0
  6
CONTINUOUS
 10
6.165720
 20
5.863880
  0
VERTEX
  8
0
  6
CONTINUOUS
 10
6.775120
 20
5.863880
  0
VERTEX
  8
0
  6
CONTINUOUS
 10
6.778200
 20
5.133920
  0
VERTEX
  8
0
  6
CONTINUOUS
 10
6.168360
 20
5.133920
  0
SEQEND
  8
0
  0
POLYLINE
  8
0
  6
CONTINUOUS
 66
     1
 40
0.000000
 41
0.000000
  0
VERTEX
  8
0
  6
CONTINUOUS
 10
1.865160
 20
4.312000
  0
VERTEX
  8
0
  6
CONTINUOUS
 10
1.865160
 20
5.133920
  0
VERTEX
  8
0
  6
CONTINUOUS
 10
2.475000
 20
5.133920
  0
VERTEX
  8
0
  6
CONTINUOUS
 10
2.479400
 20
5.067920
  0
VERTEX
  8
0
  6
CONTINUOUS
 10
2.495240
 20
5.004560
  0
VERTEX
  8
0
  6
CONTINUOUS
 10
2.508440
 20
4.974640
  0
VERTEX
  8
0
  6
CONTINUOUS
 10
2.525160
 20
4.946040
  0
VERTEX
  8
0
  6
CONTINUOUS
 10
2.546720
 20
4.919200
  0
VERTEX
  8
0
  6
CONTINUOUS
 10
2.572680
 20
4.894560
  0
VERTEX
  8
0
  6
CONTINUOUS
 10
2.603480
 20
4.872120
  0
VERTEX
  8
0
  6
CONTINUOUS
 10
2.640000
 20
4.851880
  0
VERTEX
  8
0
  6
CONTINUOUS
 10
2.681800
 20
4.834720
  0
VERTEX
  8
0
  6
CONTINUOUS
 10
2.730200
 20
4.820640
  0
VERTEX
  8
0
  6
CONTINUOUS
 10
2.785200
 20
4.810080
  0
VERTEX
  8
0
  6
CONTINUOUS
 10
2.846800
 20
4.802600
  0
VERTEX
  8
0
  6
CONTINUOUS
 10
2.915880
 20
4.799080
  0
VERTEX
  8
0
  6
CONTINUOUS
 10
2.992880
 20
4.799520
  0
VERTEX
  8
0
  6
CONTINUOUS
 10
2.999920
 20
4.649040
  0
VERTEX
  8
0
  6
CONTINUOUS
 10
3.022800
 20
4.649040
  0
VERTEX
  8
0
  6
CONTINUOUS
 10
3.025440
 20
4.673680
  0
VERTEX
  8
0
  6
CONTINUOUS
 10
3.032480
 20
4.696560
  0
VERTEX
  8
0
  6
CONTINUOUS
 10
3.043920
 20
4.717240
  0
VERTEX
  8
0
  6
CONTINUOUS
 10
3.058880
 20
4.735280
  0
VERTEX
  8
0
  6
CONTINUOUS
 10
3.076920
 20
4.750240
  0
VERTEX
  8
0
  6
CONTINUOUS
 10
3.097600
 20
4.761680
  0
VERTEX
  8
0
  6
CONTINUOUS
 10
3.120480
 20
4.768720
  0
VERTEX
  8
0
  6
CONTINUOUS
 10
3.145120
 20
4.771360
  0
VERTEX
  8
0
  6
CONTINUOUS
 10
3.169760
 20
4.768720
  0
VERTEX
  8
0
  6
CONTINUOUS
 10
3.192640
 20
4.761680
  0
VERTEX
  8
0
  6
CONTINUOUS
 10
3.213760
 20
4.750240
  0
VERTEX
  8
0
  6
CONTINUOUS
 10
3.231800
 20
4.735280
  0
VERTEX
  8
0
  6
CONTINUOUS
 10
3.246760
 20
4.717240
  0
VERTEX
  8
0
  6
CONTINUOUS
 10
3.257760
 20
4.696560
  0
VERTEX
  8
0
  6
CONTINUOUS
 10
3.264800
 20
4.673680
  0
VERTEX
  8
0
  6
CONTINUOUS
 10
3.267440
 20
4.649040
  0
VERTEX
  8
0
  6
CONTINUOUS
 10
3.286360
 20
4.649040
  0
VERTEX
  8
0
  6
CONTINUOUS
 10
3.289000
 20
4.673680
  0
VERTEX
  8
0
  6
CONTINUOUS
 10
3.296040
 20
4.696560
  0
VERTEX
  8
0
  6
CONTINUOUS
 10
3.307480
 20
4.717240
  0
VERTEX
  8
0
  6
CONTINUOUS
 10
3.322440
 20
4.735280
  0
VERTEX
  8
0
  6
CONTINUOUS
 10
3.340480
 20
4.750240
  0
VERTEX
  8
0
  6
CONTINUOUS
 10
3.361160
 20
4.761680
  0
VERTEX
  8
0
  6
CONTINUOUS
 10
3.384040
 20
4.768720
  0
VERTEX
  8
0
  6
CONTINUOUS
 10
3.408680
 20
4.771360
  0
VERTEX
  8
0
  6
CONTINUOUS
 10
3.433320
 20
4.768720
  0
VERTEX
  8
0
  6
CONTINUOUS
 10
3.456200
 20
4.761680
  0
VERTEX
  8
0
  6
CONTINUOUS
 10
3.477320
 20
4.750240
  0
VERTEX
  8
0
  6
CONTINUOUS
 10
3.495360
 20
4.735280
  0
VERTEX
  8
0
  6
CONTINUOUS
 10
3.510320
 20
4.717240
  0
VERTEX
  8
0
  6
CONTINUOUS
 10
3.521320
 20
4.696560
  0
VERTEX
  8
0
  6
CONTINUOUS
 10
3.528800
 20
4.673680
  0
VERTEX
  8
0
  6
CONTINUOUS
 10
3.531000
 20
4.649040
  0
VERTEX
  8
0
  6
CONTINUOUS
 10
3.546840
 20
4.649040
  0
VERTEX
  8
0
  6
CONTINUOUS
 10
3.549480
 20
4.673680
  0
VERTEX
  8
0
  6
CONTINUOUS
 10
3.556520
 20
4.696560
  0
VERTEX
  8
0
  6
CONTINUOUS
 10
3.567960
 20
4.717240
  0
VERTEX
  8
0
  6
CONTINUOUS
 10
3.582920
 20
4.735280
  0
VERTEX
  8
0
  6
CONTINUOUS
 10
3.600960
 20
4.750240
  0
VERTEX
  8
0
  6
CONTINUOUS
 10
3.621640
 20
4.761680
  0
VERTEX
  8
0
  6
CONTINUOUS
 10
3.644520
 20
4.768720
  0
VERTEX
  8
0
  6
CONTINUOUS
 10
3.669160
 20
4.771360
  0
VERTEX
  8
0
  6
CONTINUOUS
 10
3.693800
 20
4.768720
  0
VERTEX
  8
0
  6
CONTINUOUS
 10
3.717120
 20
4.761680
  0
VERTEX
  8
0
  6
CONTINUOUS
 10
3.737800
 20
4.750240
  0
VERTEX
  8
0
  6
CONTINUOUS
 10
3.755840
 20
4.735280
  0
VERTEX
  8
0
  6
CONTINUOUS
 10
3.770800
 20
4.717240
  0
VERTEX
  8
0
  6
CONTINUOUS
 10
3.781800
 20
4.696560
  0
VERTEX
  8
0
  6
CONTINUOUS
 10
3.789280
 20
4.673680
  0
VERTEX
  8
0
  6
CONTINUOUS
 10
3.791480
 20
4.649040
  0
VERTEX
  8
0
  6
CONTINUOUS
 10
3.810400
 20
4.649040
  0
VERTEX
  8
0
  6
CONTINUOUS
 10
3.813040
 20
4.673680
  0
VERTEX
  8
0
  6
CONTINUOUS
 10
3.820080
 20
4.696560
  0
VERTEX
  8
0
  6
CONTINUOUS
 10
3.831520
 20
4.717240
  0
VERTEX
  8
0
  6
CONTINUOUS
 10
3.846480
 20
4.735280
  0
VERTEX
  8
0
  6
CONTINUOUS
 10
3.864520
 20
4.750240
  0
VERTEX
  8
0
  6
CONTINUOUS
 10
3.885200
 20
4.761680
  0
VERTEX
  8
0
  6
CONTINUOUS
 10
3.908080
 20
4.768720
  0
VERTEX
  8
0
  6
CONTINUOUS
 10
3.932720
 20
4.771360
  0
VERTEX
  8
0
  6
CONTINUOUS
 10
3.957360
 20
4.768720
  0
VERTEX
  8
0
  6
CONTINUOUS
 10
3.980680
 20
4.761680
  0
VERTEX
  8
0
  6
CONTINUOUS
 10
4.001360
 20
4.750240
  0
VERTEX
  8
0
  6
CONTINUOUS
 10
4.019400
 20
4.735280
  0
VERTEX
  8
0
  6
CONTINUOUS
 10
4.034360
 20
4.717240
  0
VERTEX
  8
0
  6
CONTINUOUS
 10
4.045800
 20
4.696560
  0
VERTEX
  8
0
  6
CONTINUOUS
 10
4.052840
 20
4.673680
  0
VERTEX
  8
0
  6
CONTINUOUS
 10
4.055040
 20
4.649040
  0
VERTEX
  8
0
  6
CONTINUOUS
 10
4.071320
 20
4.649040
  0
VERTEX
  8
0
  6
CONTINUOUS
 10
4.073520
 20
4.673680
  0
VERTEX
  8
0
  6
CONTINUOUS
 10
4.081000
 20
4.696560
  0
VERTEX
  8
0
  6
CONTINUOUS
 10
4.092000
 20
4.717240
  0
VERTEX
  8
0
  6
CONTINUOUS
 10
4.106960
 20
4.735280
  0
VERTEX
  8
0
  6
CONTINUOUS
 10
4.125000
 20
4.750240
  0
VERTEX
  8
0
  6
CONTINUOUS
 10
4.146120
 20
4.761680
  0
VERTEX
  8
0
  6
CONTINUOUS
 10
4.169000
 20
4.768720
  0
VERTEX
  8
0
  6
CONTINUOUS
 10
4.193640
 20
4.771360
  0
VERTEX
  8
0
  6
CONTINUOUS
 10
4.218280
 20
4.768720
  0
VERTEX
  8
0
  6
CONTINUOUS
 10
4.241160
 20
4.761680
  0
VERTEX
  8
0
  6
CONTINUOUS
 10
4.261840
 20
4.750240
  0
VERTEX
  8
0
  6
CONTINUOUS
 10
4.279880
 20
4.735280
  0
VERTEX
  8
0
  6
CONTINUOUS
 10
4.294840
 20
4.717240
  0
VERTEX
  8
0
  6
CONTINUOUS
 10
4.306280
 20
4.696560
  0
VERTEX
  8
0
  6
CONTINUOUS
 10
4.313320
 20
4.673680
  0
VERTEX
  8
0
  6
CONTINUOUS
 10
4.315960
 20
4.649040
  0
VERTEX
  8
0
  6
CONTINUOUS
 10
4.334880
 20
4.649040
  0
VERTEX
  8
0
  6
CONTINUOUS
 10
4.337520
 20
4.673680
  0
VERTEX
  8
0
  6
CONTINUOUS
 10
4.344560
 20
4.696560
  0
VERTEX
  8
0
  6
CONTINUOUS
 10
4.355560
 20
4.717240
  0
VERTEX
  8
0
  6
CONTINUOUS
 10
4.370520
 20
4.735280
  0
VERTEX
  8
0
  6
CONTINUOUS
 10
4.388560
 20
4.750240
  0
VERTEX
  8
0
  6
CONTINUOUS
 10
4.409680
 20
4.761680
  0
VERTEX
  8
0
  6
CONTINUOUS
 10
4.432560
 20
4.768720
  0
VERTEX
  8
0
  6
CONTINUOUS
 10
4.457200
 20
4.771360
  0
VERTEX
  8
0
  6
CONTINUOUS
 10
4.481840
 20
4.768720
  0
VERTEX
  8
0
  6
CONTINUOUS
 10
4.504720
 20
4.761680
  0
VERTEX
  8
0
  6
CONTINUOUS
 10
4.525400
 20
4.750240
  0
VERTEX
  8
0
  6
CONTINUOUS
 10
4.543440
 20
4.735280
  0
VERTEX
  8
0
  6
CONTINUOUS
 10
4.558400
 20
4.717240
  0
VERTEX
  8
0
  6
CONTINUOUS
 10
4.569840
 20
4.696560
  0
VERTEX
  8
0
  6
CONTINUOUS
 10
4.576880
 20
4.673680
  0
VERTEX
  8
0
  6
CONTINUOUS
 10
4.579520
 20
4.649040
  0
VERTEX
  8
0
  6
CONTINUOUS
 10
4.595360
 20
4.649040
  0
VERTEX
  8
0
  6
CONTINUOUS
 10
4.598000
 20
4.673680
  0
VERTEX
  8
0
  6
CONTINUOUS
 10
4.605040
 20
4.696560
  0
VERTEX
  8
0
  6
CONTINUOUS
 10
4.616480
 20
4.717240
  0
VERTEX
  8
0
  6
CONTINUOUS
 10
4.631440
 20
4.735280
  0
VERTEX
  8
0
  6
CONTINUOUS
 10
4.649480
 20
4.750240
  0
VERTEX
  8
0
  6
CONTINUOUS
 10
4.670160
 20
4.761680
  0
VERTEX
  8
0
  6
CONTINUOUS
 10
4.693040
 20
4.768720
  0
VERTEX
  8
0
  6
CONTINUOUS
 10
4.717680
 20
4.771360
  0
VERTEX
  8
0
  6
CONTINUOUS
 10
4.742320
 20
4.768720
  0
VERTEX
  8
0
  6
CONTINUOUS
 10
4.765200
 20
4.761680
  0
VERTEX
  8
0
  6
CONTINUOUS
 10
4.785880
 20
4.750240
  0
VERTEX
  8
0
  6
CONTINUOUS
 10
4.804360
 20
4.735280
  0
VERTEX
  8
0
  6
CONTINUOUS
 10
4.818880
 20
4.717240
  0
VERTEX
  8
0
  6
CONTINUOUS
 10
4.830320
 20
4.696560
  0
VERTEX
  8
0
  6
CONTINUOUS
 10
4.837360
 20
4.673680
  0
VERTEX
  8
0
  6
CONTINUOUS
 10
4.840000
 20
4.649040
  0
VERTEX
  8
0
  6
CONTINUOUS
 10
4.858920
 20
4.649040
  0
VERTEX
  8
0
  6
CONTINUOUS
 10
4.861560
 20
4.673680
  0
VERTEX
  8
0
  6
CONTINUOUS
 10
4.868600
 20
4.696560
  0
VERTEX
  8
0
  6
CONTINUOUS
 10
4.880040
 20
4.717240
  0
VERTEX
  8
0
  6
CONTINUOUS
 10
4.895000
 20
4.735280
  0
VERTEX
  8
0
  6
CONTINUOUS
 10
4.913040
 20
4.750240
  0
VERTEX
  8
0
  6
CONTINUOUS
 10
4.933720
 20
4.761680
  0
VERTEX
  8
0
  6
CONTINUOUS
 10
4.956600
 20
4.768720
  0
VERTEX
  8
0
  6
CONTINUOUS
 10
4.981240
 20
4.771360
  0
VERTEX
  8
0
  6
CONTINUOUS
 10
5.005880
 20
4.768720
  0
VERTEX
  8
0
  6
CONTINUOUS
 10
5.028760
 20
4.761680
  0
VERTEX
  8
0
  6
CONTINUOUS
 10
5.049440
 20
4.750240
  0
VERTEX
  8
0
  6
CONTINUOUS
 10
5.067920
 20
4.735280
  0
VERTEX
  8
0
  6
CONTINUOUS
 10
5.082880
 20
4.717240
  0
VERTEX
  8
0
  6
CONTINUOUS
 10
5.093880
 20
4.696560
  0
VERTEX
  8
0
  6
CONTINUOUS
 10
5.100920
 20
4.673680
  0
VERTEX
  8
0
  6
CONTINUOUS
 10
5.103560
 20
4.649040
  0
VERTEX
  8
0
  6
CONTINUOUS
 10
5.119400
 20
4.649040
  0
VERTEX
  8
0
  6
CONTINUOUS
 10
5.122040
 20
4.673680
  0
VERTEX
  8
0
  6
CONTINUOUS
 10
5.129080
 20
4.696560
  0
VERTEX
  8
0
  6
CONTINUOUS
 10
5.140520
 20
4.717240
  0
VERTEX
  8
0
  6
CONTINUOUS
 10
5.155480
 20
4.735280
  0
VERTEX
  8
0
  6
CONTINUOUS
 10
5.173520
 20
4.750240
  0
VERTEX
  8
0
  6
CONTINUOUS
 10
5.194200
 20
4.761680
  0
VERTEX
  8
0
  6
CONTINUOUS
 10
5.217080
 20
4.768720
  0
VERTEX
  8
0
  6
CONTINUOUS
 10
5.241720
 20
4.771360
  0
VERTEX
  8
0
  6
CONTINUOUS
 10
5.266360
 20
4.768720
  0
VERTEX
  8
0
  6
CONTINUOUS
 10
5.289240
 20
4.761680
  0
VERTEX
  8
0
  6
CONTINUOUS
 10
5.309920
 20
4.750240
  0
VERTEX
  8
0
  6
CONTINUOUS
 10
5.328400
 20
4.735280
  0
VERTEX
  8
0
  6
CONTINUOUS
 10
5.343360
 20
4.717240
  0
VERTEX
  8
0
  6
CONTINUOUS
 10
5.354360
 20
4.696560
  0
VERTEX
  8
0
  6
CONTINUOUS
 10
5.361400
 20
4.673680
  0
VERTEX
  8
0
  6
CONTINUOUS
 10
5.364040
 20
4.649040
  0
VERTEX
  8
0
  6
CONTINUOUS
 10
5.382960
 20
4.649040
  0
VERTEX
  8
0
  6
CONTINUOUS
 10
5.385600
 20
4.673680
  0
VERTEX
  8
0
  6
CONTINUOUS
 10
5.392640
 20
4.696560
  0
VERTEX
  8
0
  6
CONTINUOUS
 10
5.404080
 20
4.717240
  0
VERTEX
  8
0
  6
CONTINUOUS
 10
5.419040
 20
4.735280
  0
VERTEX
  8
0
  6
CONTINUOUS
 10
5.437080
 20
4.750240
  0
VERTEX
  8
0
  6
CONTINUOUS
 10
5.457760
 20
4.761680
  0
VERTEX
  8
0
  6
CONTINUOUS
 10
5.480640
 20
4.768720
  0
VERTEX
  8
0
  6
CONTINUOUS
 10
5.505280
 20
4.771360
  0
VERTEX
  8
0
  6
CONTINUOUS
 10
5.529920
 20
4.768720
  0
VERTEX
  8
0
  6
CONTINUOUS
 10
5.552800
 20
4.761680
  0
VERTEX
  8
0
  6
CONTINUOUS
 10
5.573480
 20
4.750240
  0
VERTEX
  8
0
  6
CONTINUOUS
 10
5.591960
 20
4.735280
  0
VERTEX
  8
0
  6
CONTINUOUS
 10
5.606480
 20
4.717240
  0
VERTEX
  8
0
  6
CONTINUOUS
 10
5.617920
 20
4.696560
  0
VERTEX
  8
0
  6
CONTINUOUS
 10
5.624960
 20
4.673680
  0
VERTEX
  8
0
  6
CONTINUOUS
 10
5.627600
 20
4.649040
  0
VERTEX
  8
0
  6
CONTINUOUS
 10
5.643440
 20
4.649040
  0
VERTEX
  8
0
  6
CONTINUOUS
 10
5.650480
 20
4.799520
  0
VERTEX
  8
0
  6
CONTINUOUS
 10
5.727040
 20
4.799080
  0
VERTEX
  8
0
  6
CONTINUOUS
 10
5.796120
 20
4.802600
  0
VERTEX
  8
0
  6
CONTINUOUS
 10
5.858160
 20
4.810080
  0
VERTEX
  8
0
  6
CONTINUOUS
 10
5.912720
 20
4.820640
  0
VERTEX
  8
0
  6
CONTINUOUS
 10
5.961120
 20
4.835160
  0
VERTEX
  8
0
  6
CONTINUOUS
 10
6.003360
 20
4.852320
  0
VERTEX
  8
0
  6
CONTINUOUS
 10
6.039880
 20
4.872120
  0
VERTEX
  8
0
  6
CONTINUOUS
 10
6.070680
 20
4.894560
  0
VERTEX
  8
0
  6
CONTINUOUS
 10
6.096640
 20
4.919640
  0
VERTEX
  8
0
  6
CONTINUOUS
 10
6.117760
 20
4.946040
  0
VERTEX
  8
0
  6
CONTINUOUS
 10
6.134920
 20
4.974640
  0
VERTEX
  8
0
  6
CONTINUOUS
 10
6.148120
 20
5.004560
  0
VERTEX
  8
0
  6
CONTINUOUS
 10
6.163960
 20
5.067920
  0
VERTEX
  8
0
  6
CONTINUOUS
 10
6.168360
 20
5.133920
  0
VERTEX
  8
0
  6
CONTINUOUS
 10
6.778200
 20
5.133920
  0
VERTEX
  8
0
  6
CONTINUOUS
 10
6.778200
 20
4.312440
  0
VERTEX
  8
0
  6
CONTINUOUS
 10
1.865160
 20
4.312000
  0
SEQEND
  8
0
  0
TEXT
  8
0
 10
3.979360
 20
3.978920
 40
0.138223
  1
BA  1177
 41
1.000000
  7
SN0
 71
     0
 72
     5
 11
4.662320
 21
3.978920
  0
TEXT
  8
0
 10
3.685000
 20
3.787080
 40
0.138223
  1
13/16" x 4-15/16"
 41
1.000000
  7
SN0
 71
     0
 72
     5
 11
4.955982
 21
3.787080
  0
POLYLINE
  8
0
  6
CONTINUOUS
 66
     1
 40
0.014080
 41
0.014080
  0
VERTEX
  8
0
  6
CONTINUOUS
 10
1.863840
 20
6.523880
  0
VERTEX
  8
0
  6
CONTINUOUS
 10
1.863840
 20
7.345360
  0
VERTEX
  8
0
  6
CONTINUOUS
 10
2.473680
 20
7.345360
  0
VERTEX
  8
0
  6
CONTINUOUS
 10
2.474560
 20
7.312360
  0
VERTEX
  8
0
  6
CONTINUOUS
 10
2.478080
 20
7.279360
  0
VERTEX
  8
0
  6
CONTINUOUS
 10
2.489080
 20
7.231400
  0
VERTEX
  8
0
  6
CONTINUOUS
 10
2.500080
 20
7.201040
  0
VERTEX
  8
0
  6
CONTINUOUS
 10
2.515040
 20
7.171560
  0
VERTEX
  8
0
  6
CONTINUOUS
 10
2.533960
 20
7.144280
  0
VERTEX
  8
0
  6
CONTINUOUS
 10
2.557720
 20
7.118320
  0
VERTEX
  8
0
  6
CONTINUOUS
 10
2.585880
 20
7.094560
  0
VERTEX
  8
0
  6
CONTINUOUS
 10
2.619760
 20
7.073440
  0
VERTEX
  8
0
  6
CONTINUOUS
 10
2.658920
 20
7.054960
  0
VERTEX
  8
0
  6
CONTINUOUS
 10
2.704240
 20
7.039120
  0
VERTEX
  8
0
  6
CONTINUOUS
 10
2.755720
 20
7.026800
  0
VERTEX
  8
0
  6
CONTINUOUS
 10
2.783880
 20
7.021520
  0
VERTEX
  8
0
  6
CONTINUOUS
 10
2.845920
 20
7.014480
  0
VERTEX
  8
0
  6
CONTINUOUS
 10
2.879360
 20
7.011840
  0
VERTEX
  8
0
  6
CONTINUOUS
 10
2.952400
 20
7.010520
  0
VERTEX
  8
0
  6
CONTINUOUS
 10
2.991560
 20
7.011400
  0
VERTEX
  8
0
  6
CONTINUOUS
 10
2.998600
 20
6.860480
  0
VERTEX
  8
0
  6
CONTINUOUS
 10
3.021480
 20
6.860480
  0
VERTEX
  8
0
  6
CONTINUOUS
 10
3.021920
 20
6.873240
  0
VERTEX
  8
0
  6
CONTINUOUS
 10
3.027200
 20
6.897000
  0
VERTEX
  8
0
  6
CONTINUOUS
 10
3.036440
 20
6.919000
  0
VERTEX
  8
0
  6
CONTINUOUS
 10
3.049640
 20
6.938360
  0
VERTEX
  8
0
  6
CONTINUOUS
 10
3.065920
 20
6.955080
  0
VERTEX
  8
0
  6
CONTINUOUS
 10
3.085720
 20
6.968280
  0
VERTEX
  8
0
  6
CONTINUOUS
 10
3.107720
 20
6.977520
  0
VERTEX
  8
0
  6
CONTINUOUS
 10
3.131480
 20
6.982360
  0
VERTEX
  8
0
  6
CONTINUOUS
 10
3.156560
 20
6.982360
  0
VERTEX
  8
0
  6
CONTINUOUS
 10
3.180320
 20
6.977520
  0
VERTEX
  8
0
  6
CONTINUOUS
 10
3.202320
 20
6.968280
  0
VERTEX
  8
0
  6
CONTINUOUS
 10
3.221680
 20
6.955080
  0
VERTEX
  8
0
  6
CONTINUOUS
 10
3.238400
 20
6.938360
  0
VERTEX
  8
0
  6
CONTINUOUS
 10
3.251600
 20
6.919000
  0
VERTEX
  8
0
  6
CONTINUOUS
 10
3.260840
 20
6.897000
  0
VERTEX
  8
0
  6
CONTINUOUS
 10
3.265680
 20
6.873240
  0
VERTEX
  8
0
  6
CONTINUOUS
 10
3.266120
 20
6.860480
  0
VERTEX
  8
0
  6
CONTINUOUS
 10
3.285040
 20
6.860480
  0
VERTEX
  8
0
  6
CONTINUOUS
 10
3.285480
 20
6.873240
  0
VERTEX
  8
0
  6
CONTINUOUS
 10
3.290760
 20
6.897000
  0
VERTEX
  8
0
  6
CONTINUOUS
 10
3.300000
 20
6.919000
  0
VERTEX
  8
0
  6
CONTINUOUS
 10
3.313200
 20
6.938360
  0
VERTEX
  8
0
  6
CONTINUOUS
 10
3.329480
 20
6.955080
  0
VERTEX
  8
0
  6
CONTINUOUS
 10
3.349280
 20
6.968280
  0
VERTEX
  8
0
  6
CONTINUOUS
 10
3.371280
 20
6.977520
  0
VERTEX
  8
0
  6
CONTINUOUS
 10
3.395040
 20
6.982360
  0
VERTEX
  8
0
  6
CONTINUOUS
 10
3.420120
 20
6.982360
  0
VERTEX
  8
0
  6
CONTINUOUS
 10
3.443880
 20
6.977520
  0
VERTEX
  8
0
  6
CONTINUOUS
 10
3.465880
 20
6.968280
  0
VERTEX
  8
0
  6
CONTINUOUS
 10
3.485240
 20
6.955080
  0
VERTEX
  8
0
  6
CONTINUOUS
 10
3.501960
 20
6.938360
  0
VERTEX
  8
0
  6
CONTINUOUS
 10
3.515160
 20
6.919000
  0
VERTEX
  8
0
  6
CONTINUOUS
 10
3.524400
 20
6.897000
  0
VERTEX
  8
0
  6
CONTINUOUS
 10
3.529240
 20
6.873240
  0
VERTEX
  8
0
  6
CONTINUOUS
 10
3.529680
 20
6.860480
  0
VERTEX
  8
0
  6
CONTINUOUS
 10
3.545520
 20
6.860480
  0
VERTEX
  8
0
  6
CONTINUOUS
 10
3.545960
 20
6.873240
  0
VERTEX
  8
0
  6
CONTINUOUS
 10
3.551240
 20
6.897000
  0
VERTEX
  8
0
  6
CONTINUOUS
 10
3.560480
 20
6.919000
  0
VERTEX
  8
0
  6
CONTINUOUS
 10
3.573680
 20
6.938360
  0
VERTEX
  8
0
  6
CONTINUOUS
 10
3.589960
 20
6.955080
  0
VERTEX
  8
0
  6
CONTINUOUS
 10
3.609760
 20
6.968280
  0
VERTEX
  8
0
  6
CONTINUOUS
 10
3.631760
 20
6.977520
  0
VERTEX
  8
0
  6
CONTINUOUS
 10
3.655520
 20
6.982360
  0
VERTEX
  8
0
  6
CONTINUOUS
 10
3.680600
 20
6.982360
  0
VERTEX
  8
0
  6
CONTINUOUS
 10
3.704360
 20
6.977520
  0
VERTEX
  8
0
  6
CONTINUOUS
 10
3.726360
 20
6.968280
  0
VERTEX
  8
0
  6
CONTINUOUS
 10
3.745720
 20
6.955080
  0
VERTEX
  8
0
  6
CONTINUOUS
 10
3.762440
 20
6.938360
  0
VERTEX
  8
0
  6
CONTINUOUS
 10
3.775640
 20
6.919000
  0
VERTEX
  8
0
  6
CONTINUOUS
 10
3.784880
 20
6.897000
  0
VERTEX
  8
0
  6
CONTINUOUS
 10
3.789720
 20
6.873240
  0
VERTEX
  8
0
  6
CONTINUOUS
 10
3.790160
 20
6.860480
  0
VERTEX
  8
0
  6
CONTINUOUS
 10
3.809080
 20
6.860480
  0
VERTEX
  8
0
  6
CONTINUOUS
 10
3.809520
 20
6.873240
  0
VERTEX
  8
0
  6
CONTINUOUS
 10
3.814800
 20
6.897000
  0
VERTEX
  8
0
  6
CONTINUOUS
 10
3.824040
 20
6.919000
  0
VERTEX
  8
0
  6
CONTINUOUS
 10
3.837240
 20
6.938360
  0
VERTEX
  8
0
  6
CONTINUOUS
 10
3.853520
 20
6.955080
  0
VERTEX
  8
0
  6
CONTINUOUS
 10
3.873320
 20
6.968280
  0
VERTEX
  8
0
  6
CONTINUOUS
 10
3.895320
 20
6.977520
  0
VERTEX
  8
0
  6
CONTINUOUS
 10
3.919080
 20
6.982360
  0
VERTEX
  8
0
  6
CONTINUOUS
 10
3.944160
 20
6.982360
  0
VERTEX
  8
0
  6
CONTINUOUS
 10
3.967920
 20
6.977520
  0
VERTEX
  8
0
  6
CONTINUOUS
 10
3.989920
 20
6.968280
  0
VERTEX
  8
0
  6
CONTINUOUS
 10
4.009280
 20
6.955080
  0
VERTEX
  8
0
  6
CONTINUOUS
 10
4.026000
 20
6.938360
  0
VERTEX
  8
0
  6
CONTINUOUS
 10
4.039200
 20
6.919000
  0
VERTEX
  8
0
  6
CONTINUOUS
 10
4.048440
 20
6.897000
  0
VERTEX
  8
0
  6
CONTINUOUS
 10
4.053280
 20
6.873240
  0
VERTEX
  8
0
  6
CONTINUOUS
 10
4.053720
 20
6.860480
  0
VERTEX
  8
0
  6
CONTINUOUS
 10
4.070000
 20
6.860480
  0
VERTEX
  8
0
  6
CONTINUOUS
 10
4.070440
 20
6.873240
  0
VERTEX
  8
0
  6
CONTINUOUS
 10
4.075280
 20
6.897000
  0
VERTEX
  8
0
  6
CONTINUOUS
 10
4.084520
 20
6.919000
  0
VERTEX
  8
0
  6
CONTINUOUS
 10
4.097720
 20
6.938360
  0
VERTEX
  8
0
  6
CONTINUOUS
 10
4.114440
 20
6.955080
  0
VERTEX
  8
0
  6
CONTINUOUS
 10
4.133800
 20
6.968280
  0
VERTEX
  8
0
  6
CONTINUOUS
 10
4.155800
 20
6.977520
  0
VERTEX
  8
0
  6
CONTINUOUS
 10
4.179560
 20
6.982360
  0
VERTEX
  8
0
  6
CONTINUOUS
 10
4.204640
 20
6.982360
  0
VERTEX
  8
0
  6
CONTINUOUS
 10
4.228400
 20
6.977520
  0
VERTEX
  8
0
  6
CONTINUOUS
 10
4.250400
 20
6.968280
  0
VERTEX
  8
0
  6
CONTINUOUS
 10
4.270200
 20
6.955080
  0
VERTEX
  8
0
  6
CONTINUOUS
 10
4.286480
 20
6.938360
  0
VERTEX
  8
0
  6
CONTINUOUS
 10
4.299680
 20
6.919000
  0
VERTEX
  8
0
  6
CONTINUOUS
 10
4.308920
 20
6.897000
  0
VERTEX
  8
0
  6
CONTINUOUS
 10
4.314200
 20
6.873240
  0
VERTEX
  8
0
  6
CONTINUOUS
 10
4.314640
 20
6.860480
  0
VERTEX
  8
0
  6
CONTINUOUS
 10
4.333560
 20
6.860480
  0
VERTEX
  8
0
  6
CONTINUOUS
 10
4.334000
 20
6.873240
  0
VERTEX
  8
0
  6
CONTINUOUS
 10
4.338840
 20
6.897000
  0
VERTEX
  8
0
  6
CONTINUOUS
 10
4.348080
 20
6.919000
  0
VERTEX
  8
0
  6
CONTINUOUS
 10
4.361280
 20
6.938360
  0
VERTEX
  8
0
  6
CONTINUOUS
 10
4.378000
 20
6.955080
  0
VERTEX
  8
0
  6
CONTINUOUS
 10
4.397360
 20
6.968280
  0
VERTEX
  8
0
  6
CONTINUOUS
 10
4.419360
 20
6.977520
  0
VERTEX
  8
0
  6
CONTINUOUS
 10
4.443120
 20
6.982360
  0
VERTEX
  8
0
  6
CONTINUOUS
 10
4.468200
 20
6.982360
  0
VERTEX
  8
0
  6
CONTINUOUS
 10
4.491960
 20
6.977520
  0
VERTEX
  8
0
  6
CONTINUOUS
 10
4.513960
 20
6.968280
  0
VERTEX
  8
0
  6
CONTINUOUS
 10
4.533760
 20
6.955080
  0
VERTEX
  8
0
  6
CONTINUOUS
 10
4.550040
 20
6.938360
  0
VERTEX
  8
0
  6
CONTINUOUS
 10
4.563240
 20
6.919000
  0
VERTEX
  8
0
  6
CONTINUOUS
 10
4.572480
 20
6.897000
  0
VERTEX
  8
0
  6
CONTINUOUS
 10
4.577760
 20
6.873240
  0
VERTEX
  8
0
  6
CONTINUOUS
 10
4.578200
 20
6.860480
  0
VERTEX
  8
0
  6
CONTINUOUS
 10
4.594040
 20
6.860480
  0
VERTEX
  8
0
  6
CONTINUOUS
 10
4.594480
 20
6.873240
  0
VERTEX
  8
0
  6
CONTINUOUS
 10
4.599320
 20
6.897000
  0
VERTEX
  8
0
  6
CONTINUOUS
 10
4.608560
 20
6.919000
  0
VERTEX
  8
0
  6
CONTINUOUS
 10
4.621760
 20
6.938360
  0
VERTEX
  8
0
  6
CONTINUOUS
 10
4.638480
 20
6.955080
  0
VERTEX
  8
0
  6
CONTINUOUS
 10
4.657840
 20
6.968280
  0
VERTEX
  8
0
  6
CONTINUOUS
 10
4.679840
 20
6.977520
  0
VERTEX
  8
0
  6
CONTINUOUS
 10
4.703600
 20
6.982360
  0
VERTEX
  8
0
  6
CONTINUOUS
 10
4.728680
 20
6.982360
  0
VERTEX
  8
0
  6
CONTINUOUS
 10
4.752440
 20
6.977520
  0
VERTEX
  8
0
  6
CONTINUOUS
 10
4.774440
 20
6.968280
  0
VERTEX
  8
0
  6
CONTINUOUS
 10
4.794240
 20
6.955080
  0
VERTEX
  8
0
  6
CONTINUOUS
 10
4.810520
 20
6.938360
  0
VERTEX
  8
0
  6
CONTINUOUS
 10
4.823720
 20
6.919000
  0
VERTEX
  8
0
  6
CONTINUOUS
 10
4.832960
 20
6.897000
  0
VERTEX
  8
0
  6
CONTINUOUS
 10
4.838240
 20
6.873240
  0
VERTEX
  8
0
  6
CONTINUOUS
 10
4.838680
 20
6.860480
  0
VERTEX
  8
0
  6
CONTINUOUS
 10
4.857600
 20
6.860480
  0
VERTEX
  8
0
  6
CONTINUOUS
 10
4.858040
 20
6.873240
  0
VERTEX
  8
0
  6
CONTINUOUS
 10
4.863320
 20
6.897000
  0
VERTEX
  8
0
  6
CONTINUOUS
 10
4.872560
 20
6.919000
  0
VERTEX
  8
0
  6
CONTINUOUS
 10
4.885760
 20
6.938360
  0
VERTEX
  8
0
  6
CONTINUOUS
 10
4.902040
 20
6.955080
  0
VERTEX
  8
0
  6
CONTINUOUS
 10
4.921840
 20
6.968280
  0
VERTEX
  8
0
  6
CONTINUOUS
 10
4.943840
 20
6.977520
  0
VERTEX
  8
0
  6
CONTINUOUS
 10
4.967600
 20
6.982360
  0
VERTEX
  8
0
  6
CONTINUOUS
 10
4.992240
 20
6.982360
  0
VERTEX
  8
0
  6
CONTINUOUS
 10
5.016000
 20
6.977520
  0
VERTEX
  8
0
  6
CONTINUOUS
 10
5.038000
 20
6.968280
  0
VERTEX
  8
0
  6
CONTINUOUS
 10
5.057800
 20
6.955080
  0
VERTEX
  8
0
  6
CONTINUOUS
 10
5.074080
 20
6.938360
  0
VERTEX
  8
0
  6
CONTINUOUS
 10
5.087280
 20
6.919000
  0
VERTEX
  8
0
  6
CONTINUOUS
 10
5.096520
 20
6.897000
  0
VERTEX
  8
0
  6
CONTINUOUS
 10
5.101800
 20
6.873240
  0
VERTEX
  8
0
  6
CONTINUOUS
 10
5.102240
 20
6.860480
  0
VERTEX
  8
0
  6
CONTINUOUS
 10
5.118080
 20
6.860920
  0
VERTEX
  8
0
  6
CONTINUOUS
 10
5.118520
 20
6.873240
  0
VERTEX
  8
0
  6
CONTINUOUS
 10
5.123800
 20
6.897000
  0
VERTEX
  8
0
  6
CONTINUOUS
 10
5.133040
 20
6.919000
  0
VERTEX
  8
0
  6
CONTINUOUS
 10
5.146240
 20
6.938360
  0
VERTEX
  8
0
  6
CONTINUOUS
 10
5.162520
 20
6.955080
  0
VERTEX
  8
0
  6
CONTINUOUS
 10
5.182320
 20
6.968280
  0
VERTEX
  8
0
  6
CONTINUOUS
 10
5.204320
 20
6.977520
  0
VERTEX
  8
0
  6
CONTINUOUS
 10
5.228080
 20
6.982360
  0
VERTEX
  8
0
  6
CONTINUOUS
 10
5.252720
 20
6.982360
  0
VERTEX
  8
0
  6
CONTINUOUS
 10
5.276480
 20
6.977520
  0
VERTEX
  8
0
  6
CONTINUOUS
 10
5.298480
 20
6.968280
  0
VERTEX
  8
0
  6
CONTINUOUS
 10
5.318280
 20
6.955080
  0
VERTEX
  8
0
  6
CONTINUOUS
 10
5.334560
 20
6.938360
  0
VERTEX
  8
0
  6
CONTINUOUS
 10
5.347760
 20
6.919000
  0
VERTEX
  8
0
  6
CONTINUOUS
 10
5.357000
 20
6.897000
  0
VERTEX
  8
0
  6
CONTINUOUS
 10
5.362280
 20
6.873240
  0
VERTEX
  8
0
  6
CONTINUOUS
 10
5.362720
 20
6.860920
  0
VERTEX
  8
0
  6
CONTINUOUS
 10
5.381640
 20
6.860920
  0
VERTEX
  8
0
  6
CONTINUOUS
 10
5.382080
 20
6.873240
  0
VERTEX
  8
0
  6
CONTINUOUS
 10
5.387360
 20
6.897000
  0
VERTEX
  8
0
  6
CONTINUOUS
 10
5.396600
 20
6.919000
  0
VERTEX
  8
0
  6
CONTINUOUS
 10
5.409800
 20
6.938360
  0
VERTEX
  8
0
  6
CONTINUOUS
 10
5.426080
 20
6.955080
  0
VERTEX
  8
0
  6
CONTINUOUS
 10
5.445880
 20
6.968280
  0
VERTEX
  8
0
  6
CONTINUOUS
 10
5.467880
 20
6.977520
  0
VERTEX
  8
0
  6
CONTINUOUS
 10
5.491640
 20
6.982360
  0
VERTEX
  8
0
  6
CONTINUOUS
 10
5.516720
 20
6.982360
  0
VERTEX
  8
0
  6
CONTINUOUS
 10
5.540480
 20
6.977520
  0
VERTEX
  8
0
  6
CONTINUOUS
 10
5.562480
 20
6.968280
  0
VERTEX
  8
0
  6
CONTINUOUS
 10
5.581840
 20
6.955080
  0
VERTEX
  8
0
  6
CONTINUOUS
 10
5.598560
 20
6.938360
  0
VERTEX
  8
0
  6
CONTINUOUS
 10
5.611760
 20
6.919000
  0
VERTEX
  8
0
  6
CONTINUOUS
 10
5.621000
 20
6.897000
  0
VERTEX
  8
0
  6
CONTINUOUS
 10
5.625840
 20
6.873240
  0
VERTEX
  8
0
  6
CONTINUOUS
 10
5.626280
 20
6.860920
  0
VERTEX
  8
0
  6
CONTINUOUS
 10
5.642120
 20
6.860920
  0
VERTEX
  8
0
  6
CONTINUOUS
 10
5.649160
 20
7.011400
  0
VERTEX
  8
0
  6
CONTINUOUS
 10
5.725720
 20
7.010960
  0
VERTEX
  8
0
  6
CONTINUOUS
 10
5.794800
 20
7.014480
  0
VERTEX
  8
0
  6
CONTINUOUS
 10
5.826920
 20
7.017560
  0
VERTEX
  8
0
  6
CONTINUOUS
 10
5.885000
 20
7.026800
  0
VERTEX
  8
0
  6
CONTINUOUS
 10
5.911840
 20
7.032520
  0
VERTEX
  8
0
  6
CONTINUOUS
 10
5.981800
 20
7.054960
  0
VERTEX
  8
0
  6
CONTINUOUS
 10
6.020960
 20
7.073880
  0
VERTEX
  8
0
  6
CONTINUOUS
 10
6.054840
 20
7.095000
  0
VERTEX
  8
0
  6
CONTINUOUS
 10
6.083000
 20
7.118760
  0
VERTEX
  8
0
  6
CONTINUOUS
 10
6.106760
 20
7.144280
  0
VERTEX
  8
0
  6
CONTINUOUS
 10
6.125680
 20
7.172000
  0
VERTEX
  8
0
  6
CONTINUOUS
 10
6.140640
 20
7.201040
  0
VERTEX
  8
0
  6
CONTINUOUS
 10
6.151640
 20
7.231840
  0
VERTEX
  8
0
  6
CONTINUOUS
 10
6.162640
 20
7.279800
  0
VERTEX
  8
0
  6
CONTINUOUS
 10
6.166160
 20
7.312360
  0
VERTEX
  8
0
  6
CONTINUOUS
 10
6.167040
 20
7.345800
  0
VERTEX
  8
0
  6
CONTINUOUS
 10
6.776440
 20
7.345800
  0
VERTEX
  8
0
  6
CONTINUOUS
 10
6.776440
 20
6.523880
  0
VERTEX
  8
0
  6
CONTINUOUS
 10
1.863840
 20
6.523880
  0
SEQEND
  8
0
  0
TEXT
  8
0
 10
2.302080
 20
6.785240
 40
0.138223
  1
BA  1177
 41
1.000000
  7
SN0
 71
     0
 72
     5
 11
2.985040
 21
6.785240
  0
TEXT
  8
0
 10
2.008160
 20
6.593840
 40
0.138223
  1
13/16" x 4-15/16"
 41
1.000000
  7
SN0
 71
     0
 72
     5
 11
3.279142
 21
6.593840
  0
ENDSEC
  0
EOF
