  0
SECTION
  2
HEADER
  9
$ACADVER
  1
AC1006
  9
$EXTMIN
 10
1.106160
 20
1.968560
  9
$EXTMAX
 10
7.562720
 20
9.302040
  9
$LTSCALE
 40
0.044000
  9
$PDMODE
 70
    35
  9
$PDSIZE
 40
0.035200
  0
ENDSEC
  0
SECTION
  2
TABLES
  0
TABLE
  2
LTYPE
 70
     9
  0
LTYPE
  2
CONTINUOUS
 70
    64
  3
Solid line
 72
    65
 73
     0
 40
0.000000
  0
LTYPE
  2
DASHED
 70
    64
  3
__ __ __ __ __ __ __ __ __ __ __ __ __ __ __
 72
    65
 73
     2
 40
0.000330
 49
0.000220
 49
-0.000110
  0
LTYPE
  2
HIDDEN
 70
    64
  3
 _ _ _ _ _ _ _ _ _ _ _ _ _ _ _ _ _ _ _ _ _ _
 72
    65
 73
     2
 40
0.000165
 49
0.000110
 49
-0.000055
  0
LTYPE
  2
CENTER
 70
    64
  3
____ _ ____ _ ____ _ ____ _ ____ _ ____ _ ____
 72
    65
 73
     4
 40
0.000880
 49
0.000550
 49
-0.000110
 49
0.000110
 49
-0.000110
  0
LTYPE
  2
PHANTOM
 70
    64
  3
_____ _ _ _____ _ _ _____ _ _ _____ _ _ ____
 72
    65
 73
     6
 40
0.001100
 49
0.000550
 49
-0.000110
 49
0.000110
 49
-0.000110
 49
0.000110
 49
-0.000110
  0
LTYPE
  2
DOT
 70
    64
  3
...............................................
 72
    65
 73
     2
 40
0.000110
 49
0.000000
 49
-0.000110
  0
LTYPE
  2
DASHDOT
 70
    64
  3
__ . __ . __ . __ . __ . __ . __ . __ . __ . __
 72
    65
 73
     4
 40
0.000440
 49
0.000220
 49
-0.000110
 49
0.000000
 49
-0.000110
  0
LTYPE
  2
BORDER
 70
    64
  3
__ __ . __ __ . __ __ . __ __ . __ __ . __ __
 72
    65
 73
     6
 40
0.000770
 49
0.000220
 49
-0.000110
 49
0.000220
 49
-0.000110
 49
0.000000
 49
-0.000110
  0
LTYPE
  2
DIVIDE
 70
    64
  3
__ . . __ . . __ . . __ . . __ . . __ . . __
 72
    65
 73
     6
 40
0.000550
 49
0.000220
 49
-0.000110
 49
0.000000
 49
-0.000110
 49
0.000000
 49
-0.000110
  0
LTYPE
  2
DOTDOT
 70
    64
  3
 . .  . .  . .  . .  . .  . . 
 72
    65
 73
     5
 40
0.000242
 49
-0.000110
 49
0.000000
 49
-0.000110
 49
0.000000
 49
-0.000110
  0
ENDTAB
  0
TABLE
  2
STYLE
 70
     2
  0
STYLE
 70
     0
  2
SN0
 40
0.000000
 41
0.000440
 50
0.000000
 71
     0
 42
0.000000
  3
ROMAND
  0
STYLE
 70
    68
  2
SV0
 40
0.000000
 41
0.000440
 50
0.000000
 71
     0
 42
0.000000
  3
ROMAND
  0
ENDTAB
  0
TABLE
  2
LAYER
 70
     3
  0
LAYER
  2
FOREGROUND
 70
    64
 62
     7
  6
CONTINUOUS
  0
LAYER
  2
BACKGROUND
 70
    65
 62
    -7
  6
CONTINUOUS
  0
LAYER
  2
0
 70
    64
 62
     7
  6
CONTINUOUS
  0
ENDTAB
  0
ENDSEC
  0
SECTION
  2
ENTITIES
  0
POLYLINE
  8
FOREGROUND
  6
CONTINUOUS
 66
     1
 40
0.000000
 41
0.000000
  0
VERTEX
  8
FOREGROUND
  6
CONTINUOUS
 10
0.000000
 20
11.270600
  0
VERTEX
  8
FOREGROUND
  6
CONTINUOUS
 10
8.499920
 20
11.270600
  0
VERTEX
  8
FOREGROUND
  6
CONTINUOUS
 10
8.499920
 20
0.270600
  0
VERTEX
  8
FOREGROUND
  6
CONTINUOUS
 10
0.000000
 20
0.270600
  0
VERTEX
  8
FOREGROUND
  6
CONTINUOUS
 10
0.000000
 20
11.270600
  0
SEQEND
  8
0
  0
POLYLINE
  8
FOREGROUND
  6
CONTINUOUS
 66
     1
 40
0.000000
 41
0.000000
  0
VERTEX
  8
FOREGROUND
  6
CONTINUOUS
 10
0.000000
 20
11.270600
  0
VERTEX
  8
FOREGROUND
  6
CONTINUOUS
 10
8.499920
 20
11.270600
  0
VERTEX
  8
FOREGROUND
  6
CONTINUOUS
 10
8.499920
 20
0.270600
  0
VERTEX
  8
FOREGROUND
  6
CONTINUOUS
 10
0.000000
 20
0.270600
  0
VERTEX
  8
FOREGROUND
  6
CONTINUOUS
 10
0.000000
 20
11.270600
  0
SEQEND
  8
0
  0
POLYLINE
  8
0
  6
CONTINUOUS
 66
     1
 40
0.000000
 41
0.000000
  0
VERTEX
  8
0
  6
CONTINUOUS
 10
1.195480
 20
4.963200
  0
VERTEX
  8
0
  6
CONTINUOUS
 10
1.225840
 20
4.829000
  0
VERTEX
  8
0
  6
CONTINUOUS
 10
1.250480
 20
4.703160
  0
VERTEX
  8
0
  6
CONTINUOUS
 10
1.269400
 20
4.584360
  0
VERTEX
  8
0
  6
CONTINUOUS
 10
1.277320
 20
4.528040
  0
VERTEX
  8
0
  6
CONTINUOUS
 10
1.289200
 20
4.419360
  0
VERTEX
  8
0
  6
CONTINUOUS
 10
1.296680
 20
4.317280
  0
VERTEX
  8
0
  6
CONTINUOUS
 10
1.299760
 20
4.220920
  0
VERTEX
  8
0
  6
CONTINUOUS
 10
1.299760
 20
4.129400
  0
VERTEX
  8
0
  6
CONTINUOUS
 10
1.296240
 20
4.042280
  0
VERTEX
  8
0
  6
CONTINUOUS
 10
1.290080
 20
3.959120
  0
VERTEX
  8
0
  6
CONTINUOUS
 10
1.276000
 20
3.840760
  0
VERTEX
  8
0
  6
CONTINUOUS
 10
1.264120
 20
3.765080
  0
VERTEX
  8
0
  6
CONTINUOUS
 10
1.235960
 20
3.619880
  0
VERTEX
  8
0
  6
CONTINUOUS
 10
1.173480
 20
3.336520
  0
VERTEX
  8
0
  6
CONTINUOUS
 10
1.145320
 20
3.190000
  0
VERTEX
  8
0
  6
CONTINUOUS
 10
1.127720
 20
3.074280
  0
VERTEX
  8
0
  6
CONTINUOUS
 10
1.118480
 20
2.993760
  0
VERTEX
  8
0
  6
CONTINUOUS
 10
1.111880
 20
2.909280
  0
VERTEX
  8
0
  6
CONTINUOUS
 10
1.107920
 20
2.820400
  0
VERTEX
  8
0
  6
CONTINUOUS
 10
1.107040
 20
2.727120
  0
VERTEX
  8
0
  6
CONTINUOUS
 10
1.110120
 20
2.628560
  0
VERTEX
  8
0
  6
CONTINUOUS
 10
1.116720
 20
2.524280
  0
VERTEX
  8
0
  6
CONTINUOUS
 10
1.127720
 20
2.413840
  0
VERTEX
  8
0
  6
CONTINUOUS
 10
1.143560
 20
2.295920
  0
VERTEX
  8
0
  6
CONTINUOUS
 10
1.164680
 20
2.170960
  0
VERTEX
  8
0
  6
CONTINUOUS
 10
1.191080
 20
2.038080
  0
VERTEX
  8
0
  6
CONTINUOUS
 10
1.206480
 20
1.968560
  0
VERTEX
  8
0
  6
CONTINUOUS
 10
2.881120
 20
1.968560
  0
VERTEX
  8
0
  6
CONTINUOUS
 10
2.881120
 20
2.966920
  0
VERTEX
  8
0
  6
CONTINUOUS
 10
3.380520
 20
2.966920
  0
VERTEX
  8
0
  6
CONTINUOUS
 10
3.380520
 20
3.965280
  0
VERTEX
  8
0
  6
CONTINUOUS
 10
2.881120
 20
3.965280
  0
VERTEX
  8
0
  6
CONTINUOUS
 10
2.881120
 20
4.963200
  0
VERTEX
  8
0
  6
CONTINUOUS
 10
1.195480
 20
4.963200
  0
SEQEND
  8
0
  0
POLYLINE
  8
0
  6
CONTINUOUS
 66
     1
 40
0.000000
 41
0.000000
  0
VERTEX
  8
0
  6
CONTINUOUS
 10
4.855400
 20
5.044600
  0
VERTEX
  8
0
  6
CONTINUOUS
 10
4.885760
 20
4.910400
  0
VERTEX
  8
0
  6
CONTINUOUS
 10
4.910400
 20
4.784560
  0
VERTEX
  8
0
  6
CONTINUOUS
 10
4.929320
 20
4.665760
  0
VERTEX
  8
0
  6
CONTINUOUS
 10
4.943840
 20
4.554000
  0
VERTEX
  8
0
  6
CONTINUOUS
 10
4.953520
 20
4.448840
  0
VERTEX
  8
0
  6
CONTINUOUS
 10
4.958800
 20
4.349840
  0
VERTEX
  8
0
  6
CONTINUOUS
 10
4.960560
 20
4.255680
  0
VERTEX
  8
0
  6
CONTINUOUS
 10
4.958800
 20
4.166360
  0
VERTEX
  8
0
  6
CONTINUOUS
 10
4.953520
 20
4.081440
  0
VERTEX
  8
0
  6
CONTINUOUS
 10
4.946040
 20
4.000040
  0
VERTEX
  8
0
  6
CONTINUOUS
 10
4.930640
 20
3.883880
  0
VERTEX
  8
0
  6
CONTINUOUS
 10
4.910840
 20
3.773000
  0
VERTEX
  8
0
  6
CONTINUOUS
 10
4.896320
 20
3.701280
  0
VERTEX
  8
0
  6
CONTINUOUS
 10
4.833840
 20
3.417920
  0
VERTEX
  8
0
  6
CONTINUOUS
 10
4.805680
 20
3.271400
  0
VERTEX
  8
0
  6
CONTINUOUS
 10
4.793360
 20
3.194840
  0
VERTEX
  8
0
  6
CONTINUOUS
 10
4.778840
 20
3.074720
  0
VERTEX
  8
0
  6
CONTINUOUS
 10
4.771800
 20
2.990680
  0
VERTEX
  8
0
  6
CONTINUOUS
 10
4.767840
 20
2.901800
  0
VERTEX
  8
0
  6
CONTINUOUS
 10
4.767400
 20
2.808520
  0
VERTEX
  8
0
  6
CONTINUOUS
 10
4.770040
 20
2.709960
  0
VERTEX
  8
0
  6
CONTINUOUS
 10
4.776640
 20
2.605680
  0
VERTEX
  8
0
  6
CONTINUOUS
 10
4.795120
 20
2.437160
  0
VERTEX
  8
0
  6
CONTINUOUS
 10
4.813600
 20
2.316160
  0
VERTEX
  8
0
  6
CONTINUOUS
 10
4.837360
 20
2.187240
  0
VERTEX
  8
0
  6
CONTINUOUS
 10
4.866400
 20
2.049960
  0
VERTEX
  8
0
  6
CONTINUOUS
 10
6.541480
 20
2.049960
  0
VERTEX
  8
0
  6
CONTINUOUS
 10
6.541480
 20
3.048320
  0
VERTEX
  8
0
  6
CONTINUOUS
 10
7.040440
 20
3.048320
  0
VERTEX
  8
0
  6
CONTINUOUS
 10
7.040440
 20
4.046240
  0
VERTEX
  8
0
  6
CONTINUOUS
 10
6.541480
 20
4.046240
  0
VERTEX
  8
0
  6
CONTINUOUS
 10
6.541480
 20
5.044600
  0
VERTEX
  8
0
  6
CONTINUOUS
 10
4.855400
 20
5.044600
  0
SEQEND
  8
0
  0
SOLID
  8
0
 62
    15
 10
3.044360
 20
7.937160
 11
3.693360
 21
8.303240
 12
3.543320
 22
7.937160
 13
4.192320
 23
8.303240
  0
POLYLINE
  8
0
  6
CONTINUOUS
 66
     1
 40
0.000000
 41
0.000000
  0
VERTEX
  8
0
  6
CONTINUOUS
 10
3.044360
 20
7.937160
  0
VERTEX
  8
0
  6
CONTINUOUS
 10
3.693360
 20
8.303240
  0
VERTEX
  8
0
  6
CONTINUOUS
 10
4.192320
 20
8.303240
  0
VERTEX
  8
0
  6
CONTINUOUS
 10
3.543320
 20
7.937160
  0
VERTEX
  8
0
  6
CONTINUOUS
 10
3.044360
 20
7.937160
  0
SEQEND
  8
0
  0
SOLID
  8
0
 62
    15
 10
3.044360
 20
6.938800
 11
3.693360
 21
7.304880
 12
3.044360
 22
5.940880
 13
3.693360
 23
6.306520
  0
POLYLINE
  8
0
  6
CONTINUOUS
 66
     1
 40
0.000000
 41
0.000000
  0
VERTEX
  8
0
  6
CONTINUOUS
 10
3.044360
 20
6.938800
  0
VERTEX
  8
0
  6
CONTINUOUS
 10
3.693360
 20
7.304880
  0
VERTEX
  8
0
  6
CONTINUOUS
 10
3.693360
 20
6.306520
  0
VERTEX
  8
0
  6
CONTINUOUS
 10
3.044360
 20
5.940880
  0
VERTEX
  8
0
  6
CONTINUOUS
 10
3.044360
 20
6.938800
  0
SEQEND
  8
0
  0
SOLID
  8
0
 62
    15
 10
3.543320
 20
7.937160
 11
4.192320
 21
8.303240
 12
3.543320
 22
6.938800
 13
4.192320
 23
7.304880
  0
POLYLINE
  8
0
  6
CONTINUOUS
 66
     1
 40
0.000000
 41
0.000000
  0
VERTEX
  8
0
  6
CONTINUOUS
 10
3.543320
 20
7.937160
  0
VERTEX
  8
0
  6
CONTINUOUS
 10
4.192320
 20
8.303240
  0
VERTEX
  8
0
  6
CONTINUOUS
 10
4.192320
 20
7.304880
  0
VERTEX
  8
0
  6
CONTINUOUS
 10
3.543320
 20
6.938800
  0
VERTEX
  8
0
  6
CONTINUOUS
 10
3.543320
 20
7.937160
  0
SEQEND
  8
0
  0
SOLID
  8
0
 62
    15
 10
1.358280
 20
8.935520
 11
2.007280
 21
9.301600
 12
3.044360
 22
8.935520
 13
3.693360
 23
9.301600
  0
POLYLINE
  8
0
  6
CONTINUOUS
 66
     1
 40
0.000000
 41
0.000000
  0
VERTEX
  8
0
  6
CONTINUOUS
 10
1.358280
 20
8.935520
  0
VERTEX
  8
0
  6
CONTINUOUS
 10
2.007280
 20
9.301600
  0
VERTEX
  8
0
  6
CONTINUOUS
 10
3.693360
 20
9.301600
  0
VERTEX
  8
0
  6
CONTINUOUS
 10
3.044360
 20
8.935520
  0
VERTEX
  8
0
  6
CONTINUOUS
 10
1.358280
 20
8.935520
  0
SEQEND
  8
0
  0
SOLID
  8
0
 62
    15
 10
3.044360
 20
8.935520
 11
3.693360
 21
9.301600
 12
3.044360
 22
7.937160
 13
3.693360
 23
8.303240
  0
POLYLINE
  8
0
  6
CONTINUOUS
 66
     1
 40
0.000000
 41
0.000000
  0
VERTEX
  8
0
  6
CONTINUOUS
 10
3.044360
 20
8.935520
  0
VERTEX
  8
0
  6
CONTINUOUS
 10
3.693360
 20
9.301600
  0
VERTEX
  8
0
  6
CONTINUOUS
 10
3.693360
 20
8.303240
  0
VERTEX
  8
0
  6
CONTINUOUS
 10
3.044360
 20
7.937160
  0
VERTEX
  8
0
  6
CONTINUOUS
 10
3.044360
 20
8.935520
  0
SEQEND
  8
0
  0
POLYLINE
  8
0
  6
CONTINUOUS
 66
     1
 40
0.000000
 41
0.000000
  0
VERTEX
  8
0
  6
CONTINUOUS
 10
3.044360
 20
8.935520
  0
VERTEX
  8
0
  6
CONTINUOUS
 10
3.044360
 20
7.937160
  0
VERTEX
  8
0
  6
CONTINUOUS
 10
3.543320
 20
7.937160
  0
VERTEX
  8
0
  6
CONTINUOUS
 10
3.543320
 20
6.938800
  0
VERTEX
  8
0
  6
CONTINUOUS
 10
3.044360
 20
6.938800
  0
VERTEX
  8
0
  6
CONTINUOUS
 10
3.044360
 20
5.940880
  0
VERTEX
  8
0
  6
CONTINUOUS
 10
1.369280
 20
5.940880
  0
VERTEX
  8
0
  6
CONTINUOUS
 10
1.316480
 20
6.206640
  0
VERTEX
  8
0
  6
CONTINUOUS
 10
1.284800
 20
6.442040
  0
VERTEX
  8
0
  6
CONTINUOUS
 10
1.271160
 20
6.651040
  0
VERTEX
  8
0
  6
CONTINUOUS
 10
1.272480
 20
6.837600
  0
VERTEX
  8
0
  6
CONTINUOUS
 10
1.285680
 20
7.006560
  0
VERTEX
  8
0
  6
CONTINUOUS
 10
1.308120
 20
7.162320
  0
VERTEX
  8
0
  6
CONTINUOUS
 10
1.367960
 20
7.450520
  0
VERTEX
  8
0
  6
CONTINUOUS
 10
1.426920
 20
7.737400
  0
VERTEX
  8
0
  6
CONTINUOUS
 10
1.448920
 20
7.890960
  0
VERTEX
  8
0
  6
CONTINUOUS
 10
1.461240
 20
8.057280
  0
VERTEX
  8
0
  6
CONTINUOUS
 10
1.461680
 20
8.240760
  0
VERTEX
  8
0
  6
CONTINUOUS
 10
1.446720
 20
8.445360
  0
VERTEX
  8
0
  6
CONTINUOUS
 10
1.413280
 20
8.675480
  0
VERTEX
  8
0
  6
CONTINUOUS
 10
1.358280
 20
8.935520
  0
VERTEX
  8
0
  6
CONTINUOUS
 10
3.044360
 20
8.935520
  0
SEQEND
  8
0
  0
TEXT
  8
0
 10
2.389640
 20
5.648720
 40
0.138149
  1
BA  1176
 41
1.000000
  7
SN0
 71
     0
 72
     5
 11
3.071287
 21
5.648720
  0
TEXT
  8
0
 10
2.655400
 20
5.457320
 40
0.138149
  1
3"
 41
1.000000
  7
SN0
 71
     0
 72
     5
 11
2.806470
 21
5.457320
  0
POLYLINE
  8
0
  6
CONTINUOUS
 66
     1
 40
0.014080
 41
0.014080
  0
VERTEX
  8
0
  6
CONTINUOUS
 10
5.370640
 20
9.111520
  0
VERTEX
  8
0
  6
CONTINUOUS
 10
5.401000
 20
8.977320
  0
VERTEX
  8
0
  6
CONTINUOUS
 10
5.425640
 20
8.851480
  0
VERTEX
  8
0
  6
CONTINUOUS
 10
5.444560
 20
8.732680
  0
VERTEX
  8
0
  6
CONTINUOUS
 10
5.459080
 20
8.621360
  0
VERTEX
  8
0
  6
CONTINUOUS
 10
5.468760
 20
8.516200
  0
VERTEX
  8
0
  6
CONTINUOUS
 10
5.474040
 20
8.416760
  0
VERTEX
  8
0
  6
CONTINUOUS
 10
5.475800
 20
8.322600
  0
VERTEX
  8
0
  6
CONTINUOUS
 10
5.474040
 20
8.233280
  0
VERTEX
  8
0
  6
CONTINUOUS
 10
5.468760
 20
8.148360
  0
VERTEX
  8
0
  6
CONTINUOUS
 10
5.461280
 20
8.067400
  0
VERTEX
  8
0
  6
CONTINUOUS
 10
5.445880
 20
7.951240
  0
VERTEX
  8
0
  6
CONTINUOUS
 10
5.426080
 20
7.839920
  0
VERTEX
  8
0
  6
CONTINUOUS
 10
5.411560
 20
7.768200
  0
VERTEX
  8
0
  6
CONTINUOUS
 10
5.349080
 20
7.484840
  0
VERTEX
  8
0
  6
CONTINUOUS
 10
5.320920
 20
7.338320
  0
VERTEX
  8
0
  6
CONTINUOUS
 10
5.308600
 20
7.261760
  0
VERTEX
  8
0
  6
CONTINUOUS
 10
5.294080
 20
7.142080
  0
VERTEX
  8
0
  6
CONTINUOUS
 10
5.287040
 20
7.057600
  0
VERTEX
  8
0
  6
CONTINUOUS
 10
5.283080
 20
6.968720
  0
VERTEX
  8
0
  6
CONTINUOUS
 10
5.282640
 20
6.875440
  0
VERTEX
  8
0
  6
CONTINUOUS
 10
5.285280
 20
6.776880
  0
VERTEX
  8
0
  6
CONTINUOUS
 10
5.291880
 20
6.672600
  0
VERTEX
  8
0
  6
CONTINUOUS
 10
5.310360
 20
6.504080
  0
VERTEX
  8
0
  6
CONTINUOUS
 10
5.328840
 20
6.383080
  0
VERTEX
  8
0
  6
CONTINUOUS
 10
5.352600
 20
6.254160
  0
VERTEX
  8
0
  6
CONTINUOUS
 10
5.381640
 20
6.116880
  0
VERTEX
  8
0
  6
CONTINUOUS
 10
7.056720
 20
6.116880
  0
VERTEX
  8
0
  6
CONTINUOUS
 10
7.056720
 20
7.115240
  0
VERTEX
  8
0
  6
CONTINUOUS
 10
7.555680
 20
7.115240
  0
VERTEX
  8
0
  6
CONTINUOUS
 10
7.555680
 20
8.113600
  0
VERTEX
  8
0
  6
CONTINUOUS
 10
7.056720
 20
8.113600
  0
VERTEX
  8
0
  6
CONTINUOUS
 10
7.056720
 20
9.111520
  0
VERTEX
  8
0
  6
CONTINUOUS
 10
5.370640
 20
9.111520
  0
SEQEND
  8
0
  0
TEXT
  8
0
 10
5.814600
 20
6.479440
 40
0.138149
  1
BA  1176
 41
1.000000
  7
SN0
 71
     0
 72
     5
 11
6.496247
 21
6.479440
  0
TEXT
  8
0
 10
6.080800
 20
6.287600
 40
0.138149
  1
3"
 41
1.000000
  7
SN0
 71
     0
 72
     5
 11
6.231870
 21
6.287600
  0
ENDSEC
  0
EOF
