  0
SECTION
  2
HEADER
  9
$ACADVER
  1
AC1006
  9
$EXTMIN
 10
0.549560
 20
3.920840
  9
$EXTMAX
 10
7.661280
 20
9.555040
  9
$LTSCALE
 40
0.044000
  9
$PDMODE
 70
    35
  9
$PDSIZE
 40
0.035200
  0
ENDSEC
  0
SECTION
  2
TABLES
  0
TABLE
  2
LTYPE
 70
     9
  0
LTYPE
  2
CONTINUOUS
 70
    64
  3
Solid line
 72
    65
 73
     0
 40
0.000000
  0
LTYPE
  2
DASHED
 70
    64
  3
__ __ __ __ __ __ __ __ __ __ __ __ __ __ __
 72
    65
 73
     2
 40
0.000330
 49
0.000220
 49
-0.000110
  0
LTYPE
  2
HIDDEN
 70
    64
  3
 _ _ _ _ _ _ _ _ _ _ _ _ _ _ _ _ _ _ _ _ _ _
 72
    65
 73
     2
 40
0.000165
 49
0.000110
 49
-0.000055
  0
LTYPE
  2
CENTER
 70
    64
  3
____ _ ____ _ ____ _ ____ _ ____ _ ____ _ ____
 72
    65
 73
     4
 40
0.000880
 49
0.000550
 49
-0.000110
 49
0.000110
 49
-0.000110
  0
LTYPE
  2
PHANTOM
 70
    64
  3
_____ _ _ _____ _ _ _____ _ _ _____ _ _ ____
 72
    65
 73
     6
 40
0.001100
 49
0.000550
 49
-0.000110
 49
0.000110
 49
-0.000110
 49
0.000110
 49
-0.000110
  0
LTYPE
  2
DOT
 70
    64
  3
...............................................
 72
    65
 73
     2
 40
0.000110
 49
0.000000
 49
-0.000110
  0
LTYPE
  2
DASHDOT
 70
    64
  3
__ . __ . __ . __ . __ . __ . __ . __ . __ . __
 72
    65
 73
     4
 40
0.000440
 49
0.000220
 49
-0.000110
 49
0.000000
 49
-0.000110
  0
LTYPE
  2
BORDER
 70
    64
  3
__ __ . __ __ . __ __ . __ __ . __ __ . __ __
 72
    65
 73
     6
 40
0.000770
 49
0.000220
 49
-0.000110
 49
0.000220
 49
-0.000110
 49
0.000000
 49
-0.000110
  0
LTYPE
  2
DIVIDE
 70
    64
  3
__ . . __ . . __ . . __ . . __ . . __ . . __
 72
    65
 73
     6
 40
0.000550
 49
0.000220
 49
-0.000110
 49
0.000000
 49
-0.000110
 49
0.000000
 49
-0.000110
  0
LTYPE
  2
DOTDOT
 70
    64
  3
 . .  . .  . .  . .  . .  . . 
 72
    65
 73
     5
 40
0.000242
 49
-0.000110
 49
0.000000
 49
-0.000110
 49
0.000000
 49
-0.000110
  0
ENDTAB
  0
TABLE
  2
STYLE
 70
     2
  0
STYLE
 70
     0
  2
SN0
 40
0.000000
 41
0.000440
 50
0.000000
 71
     0
 42
0.000000
  3
ROMAND
  0
STYLE
 70
    68
  2
SV0
 40
0.000000
 41
0.000440
 50
0.000000
 71
     0
 42
0.000000
  3
ROMAND
  0
ENDTAB
  0
TABLE
  2
LAYER
 70
     3
  0
LAYER
  2
FOREGROUND
 70
    64
 62
     7
  6
CONTINUOUS
  0
LAYER
  2
BACKGROUND
 70
    65
 62
    -7
  6
CONTINUOUS
  0
LAYER
  2
0
 70
    64
 62
     7
  6
CONTINUOUS
  0
ENDTAB
  0
ENDSEC
  0
SECTION
  2
ENTITIES
  0
POLYLINE
  8
FOREGROUND
  6
CONTINUOUS
 66
     1
 40
0.000000
 41
0.000000
  0
VERTEX
  8
FOREGROUND
  6
CONTINUOUS
 10
0.000000
 20
13.475880
  0
VERTEX
  8
FOREGROUND
  6
CONTINUOUS
 10
8.499920
 20
13.475880
  0
VERTEX
  8
FOREGROUND
  6
CONTINUOUS
 10
8.499920
 20
2.475880
  0
VERTEX
  8
FOREGROUND
  6
CONTINUOUS
 10
0.000000
 20
2.475880
  0
VERTEX
  8
FOREGROUND
  6
CONTINUOUS
 10
0.000000
 20
13.475880
  0
SEQEND
  8
0
  0
POLYLINE
  8
FOREGROUND
  6
CONTINUOUS
 66
     1
 40
0.000000
 41
0.000000
  0
VERTEX
  8
FOREGROUND
  6
CONTINUOUS
 10
0.000000
 20
13.475880
  0
VERTEX
  8
FOREGROUND
  6
CONTINUOUS
 10
8.499920
 20
13.475880
  0
VERTEX
  8
FOREGROUND
  6
CONTINUOUS
 10
8.499920
 20
2.475880
  0
VERTEX
  8
FOREGROUND
  6
CONTINUOUS
 10
0.000000
 20
2.475880
  0
VERTEX
  8
FOREGROUND
  6
CONTINUOUS
 10
0.000000
 20
13.475880
  0
SEQEND
  8
0
  0
POLYLINE
  8
0
  6
CONTINUOUS
 66
     1
 40
0.000000
 41
0.000000
  0
VERTEX
  8
0
  6
CONTINUOUS
 10
7.557880
 20
3.971000
  0
VERTEX
  8
0
  6
CONTINUOUS
 10
6.529160
 20
3.971000
  0
VERTEX
  8
0
  6
CONTINUOUS
 10
6.529160
 20
6.226440
  0
VERTEX
  8
0
  6
CONTINUOUS
 10
7.556560
 20
6.226440
  0
VERTEX
  8
0
  6
CONTINUOUS
 10
7.556560
 20
6.122600
  0
VERTEX
  8
0
  6
CONTINUOUS
 10
7.527960
 20
6.114680
  0
VERTEX
  8
0
  6
CONTINUOUS
 10
7.510800
 20
6.106760
  0
VERTEX
  8
0
  6
CONTINUOUS
 10
7.495840
 20
6.097080
  0
VERTEX
  8
0
  6
CONTINUOUS
 10
7.476480
 20
6.078160
  0
VERTEX
  8
0
  6
CONTINUOUS
 10
7.460640
 20
6.054400
  0
VERTEX
  8
0
  6
CONTINUOUS
 10
7.447880
 20
6.024920
  0
VERTEX
  8
0
  6
CONTINUOUS
 10
7.437760
 20
5.990160
  0
VERTEX
  8
0
  6
CONTINUOUS
 10
7.429840
 20
5.949680
  0
VERTEX
  8
0
  6
CONTINUOUS
 10
7.422800
 20
5.885880
  0
VERTEX
  8
0
  6
CONTINUOUS
 10
7.417520
 20
5.789960
  0
VERTEX
  8
0
  6
CONTINUOUS
 10
7.416200
 20
5.750360
  0
VERTEX
  8
0
  6
CONTINUOUS
 10
7.411360
 20
5.713400
  0
VERTEX
  8
0
  6
CONTINUOUS
 10
7.403000
 20
5.675560
  0
VERTEX
  8
0
  6
CONTINUOUS
 10
7.391560
 20
5.639040
  0
VERTEX
  8
0
  6
CONTINUOUS
 10
7.376600
 20
5.605600
  0
VERTEX
  8
0
  6
CONTINUOUS
 10
7.368680
 20
5.590200
  0
VERTEX
  8
0
  6
CONTINUOUS
 10
7.349760
 20
5.563800
  0
VERTEX
  8
0
  6
CONTINUOUS
 10
7.339640
 20
5.552800
  0
VERTEX
  8
0
  6
CONTINUOUS
 10
7.329080
 20
5.544000
  0
VERTEX
  8
0
  6
CONTINUOUS
 10
7.318080
 20
5.537400
  0
VERTEX
  8
0
  6
CONTINUOUS
 10
7.306640
 20
5.533000
  0
VERTEX
  8
0
  6
CONTINUOUS
 10
7.306640
 20
5.228080
  0
VERTEX
  8
0
  6
CONTINUOUS
 10
7.557880
 20
5.228080
  0
VERTEX
  8
0
  6
CONTINUOUS
 10
7.557880
 20
3.971000
  0
SEQEND
  8
0
  0
POLYLINE
  8
0
  6
CONTINUOUS
 66
     1
 40
0.000000
 41
0.000000
  0
VERTEX
  8
0
  6
CONTINUOUS
 10
1.735360
 20
3.971000
  0
VERTEX
  8
0
  6
CONTINUOUS
 10
1.735360
 20
5.225000
  0
VERTEX
  8
0
  6
CONTINUOUS
 10
1.484120
 20
5.225000
  0
VERTEX
  8
0
  6
CONTINUOUS
 10
1.484120
 20
5.529920
  0
VERTEX
  8
0
  6
CONTINUOUS
 10
1.495560
 20
5.534320
  0
VERTEX
  8
0
  6
CONTINUOUS
 10
1.506560
 20
5.540920
  0
VERTEX
  8
0
  6
CONTINUOUS
 10
1.517120
 20
5.549720
  0
VERTEX
  8
0
  6
CONTINUOUS
 10
1.536920
 20
5.573040
  0
VERTEX
  8
0
  6
CONTINUOUS
 10
1.554080
 20
5.602520
  0
VERTEX
  8
0
  6
CONTINUOUS
 10
1.569040
 20
5.635960
  0
VERTEX
  8
0
  6
CONTINUOUS
 10
1.580480
 20
5.672480
  0
VERTEX
  8
0
  6
CONTINUOUS
 10
1.588840
 20
5.710320
  0
VERTEX
  8
0
  6
CONTINUOUS
 10
1.593680
 20
5.747280
  0
VERTEX
  8
0
  6
CONTINUOUS
 10
1.598960
 20
5.865200
  0
VERTEX
  8
0
  6
CONTINUOUS
 10
1.605120
 20
5.931640
  0
VERTEX
  8
0
  6
CONTINUOUS
 10
1.612160
 20
5.974320
  0
VERTEX
  8
0
  6
CONTINUOUS
 10
1.621400
 20
6.010840
  0
VERTEX
  8
0
  6
CONTINUOUS
 10
1.633280
 20
6.042080
  0
VERTEX
  8
0
  6
CONTINUOUS
 10
1.648240
 20
6.067600
  0
VERTEX
  8
0
  6
CONTINUOUS
 10
1.660120
 20
6.081680
  0
VERTEX
  8
0
  6
CONTINUOUS
 10
1.673320
 20
6.094000
  0
VERTEX
  8
0
  6
CONTINUOUS
 10
1.696640
 20
6.107640
  0
VERTEX
  8
0
  6
CONTINUOUS
 10
1.723920
 20
6.117320
  0
VERTEX
  8
0
  6
CONTINUOUS
 10
1.734040
 20
6.119520
  0
VERTEX
  8
0
  6
CONTINUOUS
 10
1.734480
 20
6.223800
  0
VERTEX
  8
0
  6
CONTINUOUS
 10
1.988360
 20
6.223800
  0
VERTEX
  8
0
  6
CONTINUOUS
 10
1.988360
 20
6.119520
  0
VERTEX
  8
0
  6
CONTINUOUS
 10
2.016960
 20
6.111600
  0
VERTEX
  8
0
  6
CONTINUOUS
 10
2.034120
 20
6.103680
  0
VERTEX
  8
0
  6
CONTINUOUS
 10
2.049080
 20
6.094000
  0
VERTEX
  8
0
  6
CONTINUOUS
 10
2.068440
 20
6.075080
  0
VERTEX
  8
0
  6
CONTINUOUS
 10
2.084280
 20
6.051320
  0
VERTEX
  8
0
  6
CONTINUOUS
 10
2.097040
 20
6.021840
  0
VERTEX
  8
0
  6
CONTINUOUS
 10
2.107160
 20
5.987080
  0
VERTEX
  8
0
  6
CONTINUOUS
 10
2.115080
 20
5.946600
  0
VERTEX
  8
0
  6
CONTINUOUS
 10
2.122120
 20
5.882800
  0
VERTEX
  8
0
  6
CONTINUOUS
 10
2.127400
 20
5.786880
  0
VERTEX
  8
0
  6
CONTINUOUS
 10
2.128720
 20
5.747280
  0
VERTEX
  8
0
  6
CONTINUOUS
 10
2.133560
 20
5.710320
  0
VERTEX
  8
0
  6
CONTINUOUS
 10
2.141920
 20
5.672480
  0
VERTEX
  8
0
  6
CONTINUOUS
 10
2.153360
 20
5.635960
  0
VERTEX
  8
0
  6
CONTINUOUS
 10
2.168320
 20
5.602520
  0
VERTEX
  8
0
  6
CONTINUOUS
 10
2.185480
 20
5.573040
  0
VERTEX
  8
0
  6
CONTINUOUS
 10
2.205280
 20
5.549720
  0
VERTEX
  8
0
  6
CONTINUOUS
 10
2.215840
 20
5.540920
  0
VERTEX
  8
0
  6
CONTINUOUS
 10
2.226840
 20
5.534320
  0
VERTEX
  8
0
  6
CONTINUOUS
 10
2.238280
 20
5.529920
  0
VERTEX
  8
0
  6
CONTINUOUS
 10
2.238280
 20
5.225000
  0
VERTEX
  8
0
  6
CONTINUOUS
 10
1.987040
 20
5.225000
  0
VERTEX
  8
0
  6
CONTINUOUS
 10
1.987040
 20
3.971000
  0
VERTEX
  8
0
  6
CONTINUOUS
 10
1.735360
 20
3.971000
  0
SEQEND
  8
0
  0
POLYLINE
  8
0
  6
CONTINUOUS
 66
     1
 40
0.000000
 41
0.000000
  0
VERTEX
  8
0
  6
CONTINUOUS
 10
4.664440
 20
3.971000
  0
VERTEX
  8
0
  6
CONTINUOUS
 10
5.693160
 20
3.971000
  0
VERTEX
  8
0
  6
CONTINUOUS
 10
5.693160
 20
6.226440
  0
VERTEX
  8
0
  6
CONTINUOUS
 10
4.665760
 20
6.226440
  0
VERTEX
  8
0
  6
CONTINUOUS
 10
4.665760
 20
6.122600
  0
VERTEX
  8
0
  6
CONTINUOUS
 10
4.694360
 20
6.114680
  0
VERTEX
  8
0
  6
CONTINUOUS
 10
4.711520
 20
6.106760
  0
VERTEX
  8
0
  6
CONTINUOUS
 10
4.726480
 20
6.097080
  0
VERTEX
  8
0
  6
CONTINUOUS
 10
4.745840
 20
6.078160
  0
VERTEX
  8
0
  6
CONTINUOUS
 10
4.761680
 20
6.054400
  0
VERTEX
  8
0
  6
CONTINUOUS
 10
4.774440
 20
6.024920
  0
VERTEX
  8
0
  6
CONTINUOUS
 10
4.784560
 20
5.990160
  0
VERTEX
  8
0
  6
CONTINUOUS
 10
4.792480
 20
5.949680
  0
VERTEX
  8
0
  6
CONTINUOUS
 10
4.799520
 20
5.885880
  0
VERTEX
  8
0
  6
CONTINUOUS
 10
4.804800
 20
5.789960
  0
VERTEX
  8
0
  6
CONTINUOUS
 10
4.806120
 20
5.750360
  0
VERTEX
  8
0
  6
CONTINUOUS
 10
4.810960
 20
5.713400
  0
VERTEX
  8
0
  6
CONTINUOUS
 10
4.819320
 20
5.675560
  0
VERTEX
  8
0
  6
CONTINUOUS
 10
4.830760
 20
5.639040
  0
VERTEX
  8
0
  6
CONTINUOUS
 10
4.845720
 20
5.605600
  0
VERTEX
  8
0
  6
CONTINUOUS
 10
4.862880
 20
5.576120
  0
VERTEX
  8
0
  6
CONTINUOUS
 10
4.882680
 20
5.552800
  0
VERTEX
  8
0
  6
CONTINUOUS
 10
4.893240
 20
5.544000
  0
VERTEX
  8
0
  6
CONTINUOUS
 10
4.904240
 20
5.537400
  0
VERTEX
  8
0
  6
CONTINUOUS
 10
4.915680
 20
5.533000
  0
VERTEX
  8
0
  6
CONTINUOUS
 10
4.915680
 20
5.228080
  0
VERTEX
  8
0
  6
CONTINUOUS
 10
4.664440
 20
5.228080
  0
VERTEX
  8
0
  6
CONTINUOUS
 10
4.664440
 20
3.971000
  0
SEQEND
  8
0
  0
POLYLINE
  8
0
  6
CONTINUOUS
 66
     1
 40
0.000000
 41
0.000000
  0
VERTEX
  8
0
  6
CONTINUOUS
 10
3.325520
 20
3.971000
  0
VERTEX
  8
0
  6
CONTINUOUS
 10
3.325520
 20
5.225000
  0
VERTEX
  8
0
  6
CONTINUOUS
 10
3.074280
 20
5.225000
  0
VERTEX
  8
0
  6
CONTINUOUS
 10
3.074280
 20
5.529920
  0
VERTEX
  8
0
  6
CONTINUOUS
 10
3.085720
 20
5.534320
  0
VERTEX
  8
0
  6
CONTINUOUS
 10
3.096720
 20
5.540920
  0
VERTEX
  8
0
  6
CONTINUOUS
 10
3.107280
 20
5.549720
  0
VERTEX
  8
0
  6
CONTINUOUS
 10
3.127080
 20
5.573040
  0
VERTEX
  8
0
  6
CONTINUOUS
 10
3.144240
 20
5.602520
  0
VERTEX
  8
0
  6
CONTINUOUS
 10
3.159200
 20
5.635960
  0
VERTEX
  8
0
  6
CONTINUOUS
 10
3.170640
 20
5.672480
  0
VERTEX
  8
0
  6
CONTINUOUS
 10
3.179000
 20
5.710320
  0
VERTEX
  8
0
  6
CONTINUOUS
 10
3.183840
 20
5.747280
  0
VERTEX
  8
0
  6
CONTINUOUS
 10
3.189120
 20
5.865200
  0
VERTEX
  8
0
  6
CONTINUOUS
 10
3.195280
 20
5.931640
  0
VERTEX
  8
0
  6
CONTINUOUS
 10
3.202320
 20
5.974320
  0
VERTEX
  8
0
  6
CONTINUOUS
 10
3.211560
 20
6.010840
  0
VERTEX
  8
0
  6
CONTINUOUS
 10
3.223440
 20
6.042080
  0
VERTEX
  8
0
  6
CONTINUOUS
 10
3.238400
 20
6.067600
  0
VERTEX
  8
0
  6
CONTINUOUS
 10
3.250280
 20
6.081680
  0
VERTEX
  8
0
  6
CONTINUOUS
 10
3.263480
 20
6.094000
  0
VERTEX
  8
0
  6
CONTINUOUS
 10
3.286800
 20
6.107640
  0
VERTEX
  8
0
  6
CONTINUOUS
 10
3.314080
 20
6.117320
  0
VERTEX
  8
0
  6
CONTINUOUS
 10
3.324200
 20
6.119520
  0
VERTEX
  8
0
  6
CONTINUOUS
 10
3.324640
 20
6.223800
  0
VERTEX
  8
0
  6
CONTINUOUS
 10
3.578520
 20
6.223800
  0
VERTEX
  8
0
  6
CONTINUOUS
 10
3.578520
 20
6.119520
  0
VERTEX
  8
0
  6
CONTINUOUS
 10
3.607120
 20
6.111600
  0
VERTEX
  8
0
  6
CONTINUOUS
 10
3.624280
 20
6.103680
  0
VERTEX
  8
0
  6
CONTINUOUS
 10
3.639240
 20
6.094000
  0
VERTEX
  8
0
  6
CONTINUOUS
 10
3.658600
 20
6.075080
  0
VERTEX
  8
0
  6
CONTINUOUS
 10
3.674440
 20
6.051320
  0
VERTEX
  8
0
  6
CONTINUOUS
 10
3.687200
 20
6.021840
  0
VERTEX
  8
0
  6
CONTINUOUS
 10
3.697320
 20
5.987080
  0
VERTEX
  8
0
  6
CONTINUOUS
 10
3.705240
 20
5.946600
  0
VERTEX
  8
0
  6
CONTINUOUS
 10
3.712280
 20
5.882800
  0
VERTEX
  8
0
  6
CONTINUOUS
 10
3.717560
 20
5.786880
  0
VERTEX
  8
0
  6
CONTINUOUS
 10
3.718880
 20
5.747280
  0
VERTEX
  8
0
  6
CONTINUOUS
 10
3.723720
 20
5.710320
  0
VERTEX
  8
0
  6
CONTINUOUS
 10
3.732080
 20
5.672480
  0
VERTEX
  8
0
  6
CONTINUOUS
 10
3.743520
 20
5.635960
  0
VERTEX
  8
0
  6
CONTINUOUS
 10
3.758480
 20
5.602520
  0
VERTEX
  8
0
  6
CONTINUOUS
 10
3.775640
 20
5.573040
  0
VERTEX
  8
0
  6
CONTINUOUS
 10
3.795440
 20
5.549720
  0
VERTEX
  8
0
  6
CONTINUOUS
 10
3.806000
 20
5.540920
  0
VERTEX
  8
0
  6
CONTINUOUS
 10
3.817000
 20
5.534320
  0
VERTEX
  8
0
  6
CONTINUOUS
 10
3.828440
 20
5.529920
  0
VERTEX
  8
0
  6
CONTINUOUS
 10
3.828440
 20
5.225000
  0
VERTEX
  8
0
  6
CONTINUOUS
 10
3.577200
 20
5.225000
  0
VERTEX
  8
0
  6
CONTINUOUS
 10
3.577200
 20
3.971000
  0
VERTEX
  8
0
  6
CONTINUOUS
 10
3.325520
 20
3.971000
  0
SEQEND
  8
0
  0
SOLID
  8
0
 62
    15
 10
2.377320
 20
8.799560
 11
3.023240
 21
9.177520
 12
2.380840
 22
8.718160
 13
3.026760
 23
9.096120
  0
POLYLINE
  8
0
  6
CONTINUOUS
 66
     1
 40
0.000000
 41
0.000000
  0
VERTEX
  8
0
  6
CONTINUOUS
 10
2.377320
 20
8.799560
  0
VERTEX
  8
0
  6
CONTINUOUS
 10
3.023240
 20
9.177520
  0
VERTEX
  8
0
  6
CONTINUOUS
 10
3.026760
 20
9.096120
  0
VERTEX
  8
0
  6
CONTINUOUS
 10
2.380840
 20
8.718160
  0
VERTEX
  8
0
  6
CONTINUOUS
 10
2.377320
 20
8.799560
  0
SEQEND
  8
0
  0
SOLID
  8
0
 62
    15
 10
1.949640
 20
9.060920
 11
2.595560
 21
9.438440
 12
1.987040
 22
9.072360
 13
2.632960
 23
9.450320
  0
POLYLINE
  8
0
  6
CONTINUOUS
 66
     1
 40
0.000000
 41
0.000000
  0
VERTEX
  8
0
  6
CONTINUOUS
 10
1.949640
 20
9.060920
  0
VERTEX
  8
0
  6
CONTINUOUS
 10
2.595560
 20
9.438440
  0
VERTEX
  8
0
  6
CONTINUOUS
 10
2.632960
 20
9.450320
  0
VERTEX
  8
0
  6
CONTINUOUS
 10
1.987040
 20
9.072360
  0
VERTEX
  8
0
  6
CONTINUOUS
 10
1.949640
 20
9.060920
  0
SEQEND
  8
0
  0
SOLID
  8
0
 62
    15
 10
1.987040
 20
9.176640
 11
2.632960
 21
9.554600
 12
2.241360
 22
9.176640
 13
2.886840
 23
9.554600
  0
POLYLINE
  8
0
  6
CONTINUOUS
 66
     1
 40
0.000000
 41
0.000000
  0
VERTEX
  8
0
  6
CONTINUOUS
 10
1.987040
 20
9.176640
  0
VERTEX
  8
0
  6
CONTINUOUS
 10
2.632960
 20
9.554600
  0
VERTEX
  8
0
  6
CONTINUOUS
 10
2.886840
 20
9.554600
  0
VERTEX
  8
0
  6
CONTINUOUS
 10
2.241360
 20
9.176640
  0
VERTEX
  8
0
  6
CONTINUOUS
 10
1.987040
 20
9.176640
  0
SEQEND
  8
0
  0
SOLID
  8
0
 62
    15
 10
2.241360
 20
9.176640
 11
2.886840
 21
9.554600
 12
2.241360
 22
9.072360
 13
2.886840
 23
9.450320
  0
POLYLINE
  8
0
  6
CONTINUOUS
 66
     1
 40
0.000000
 41
0.000000
  0
VERTEX
  8
0
  6
CONTINUOUS
 10
2.241360
 20
9.176640
  0
VERTEX
  8
0
  6
CONTINUOUS
 10
2.886840
 20
9.554600
  0
VERTEX
  8
0
  6
CONTINUOUS
 10
2.886840
 20
9.450320
  0
VERTEX
  8
0
  6
CONTINUOUS
 10
2.241360
 20
9.072360
  0
VERTEX
  8
0
  6
CONTINUOUS
 10
2.241360
 20
9.176640
  0
SEQEND
  8
0
  0
SOLID
  8
0
 62
    15
 10
2.241360
 20
9.072360
 11
2.886840
 21
9.450320
 12
2.278760
 22
9.060920
 13
2.924680
 23
9.438440
  0
POLYLINE
  8
0
  6
CONTINUOUS
 66
     1
 40
0.000000
 41
0.000000
  0
VERTEX
  8
0
  6
CONTINUOUS
 10
2.241360
 20
9.072360
  0
VERTEX
  8
0
  6
CONTINUOUS
 10
2.886840
 20
9.450320
  0
VERTEX
  8
0
  6
CONTINUOUS
 10
2.924680
 20
9.438440
  0
VERTEX
  8
0
  6
CONTINUOUS
 10
2.278760
 20
9.060920
  0
VERTEX
  8
0
  6
CONTINUOUS
 10
2.241360
 20
9.072360
  0
SEQEND
  8
0
  0
SOLID
  8
0
 62
    15
 10
2.278760
 20
9.060920
 11
2.924680
 21
9.438440
 12
2.308680
 22
9.041120
 13
2.954600
 23
9.419080
  0
POLYLINE
  8
0
  6
CONTINUOUS
 66
     1
 40
0.000000
 41
0.000000
  0
VERTEX
  8
0
  6
CONTINUOUS
 10
2.278760
 20
9.060920
  0
VERTEX
  8
0
  6
CONTINUOUS
 10
2.924680
 20
9.438440
  0
VERTEX
  8
0
  6
CONTINUOUS
 10
2.954600
 20
9.419080
  0
VERTEX
  8
0
  6
CONTINUOUS
 10
2.308680
 20
9.041120
  0
VERTEX
  8
0
  6
CONTINUOUS
 10
2.278760
 20
9.060920
  0
SEQEND
  8
0
  0
SOLID
  8
0
 62
    15
 10
2.308680
 20
9.041120
 11
2.954600
 21
9.419080
 12
2.332440
 22
9.012520
 13
2.977920
 23
9.390480
  0
POLYLINE
  8
0
  6
CONTINUOUS
 66
     1
 40
0.000000
 41
0.000000
  0
VERTEX
  8
0
  6
CONTINUOUS
 10
2.308680
 20
9.041120
  0
VERTEX
  8
0
  6
CONTINUOUS
 10
2.954600
 20
9.419080
  0
VERTEX
  8
0
  6
CONTINUOUS
 10
2.977920
 20
9.390480
  0
VERTEX
  8
0
  6
CONTINUOUS
 10
2.332440
 20
9.012520
  0
VERTEX
  8
0
  6
CONTINUOUS
 10
2.308680
 20
9.041120
  0
SEQEND
  8
0
  0
SOLID
  8
0
 62
    15
 10
2.332440
 20
9.012520
 11
2.977920
 21
9.390480
 12
2.350040
 22
8.975120
 13
2.995960
 23
9.352640
  0
POLYLINE
  8
0
  6
CONTINUOUS
 66
     1
 40
0.000000
 41
0.000000
  0
VERTEX
  8
0
  6
CONTINUOUS
 10
2.332440
 20
9.012520
  0
VERTEX
  8
0
  6
CONTINUOUS
 10
2.977920
 20
9.390480
  0
VERTEX
  8
0
  6
CONTINUOUS
 10
2.995960
 20
9.352640
  0
VERTEX
  8
0
  6
CONTINUOUS
 10
2.350040
 20
8.975120
  0
VERTEX
  8
0
  6
CONTINUOUS
 10
2.332440
 20
9.012520
  0
SEQEND
  8
0
  0
SOLID
  8
0
 62
    15
 10
2.350040
 20
8.975120
 11
2.995960
 21
9.352640
 12
2.362800
 22
8.927160
 13
3.008720
 23
9.305120
  0
POLYLINE
  8
0
  6
CONTINUOUS
 66
     1
 40
0.000000
 41
0.000000
  0
VERTEX
  8
0
  6
CONTINUOUS
 10
2.350040
 20
8.975120
  0
VERTEX
  8
0
  6
CONTINUOUS
 10
2.995960
 20
9.352640
  0
VERTEX
  8
0
  6
CONTINUOUS
 10
3.008720
 20
9.305120
  0
VERTEX
  8
0
  6
CONTINUOUS
 10
2.362800
 20
8.927160
  0
VERTEX
  8
0
  6
CONTINUOUS
 10
2.350040
 20
8.975120
  0
SEQEND
  8
0
  0
SOLID
  8
0
 62
    15
 10
2.362800
 20
8.927160
 11
3.008720
 21
9.305120
 12
2.372040
 22
8.869080
 13
3.017520
 23
9.247040
  0
POLYLINE
  8
0
  6
CONTINUOUS
 66
     1
 40
0.000000
 41
0.000000
  0
VERTEX
  8
0
  6
CONTINUOUS
 10
2.362800
 20
8.927160
  0
VERTEX
  8
0
  6
CONTINUOUS
 10
3.008720
 20
9.305120
  0
VERTEX
  8
0
  6
CONTINUOUS
 10
3.017520
 20
9.247040
  0
VERTEX
  8
0
  6
CONTINUOUS
 10
2.372040
 20
8.869080
  0
VERTEX
  8
0
  6
CONTINUOUS
 10
2.362800
 20
8.927160
  0
SEQEND
  8
0
  0
SOLID
  8
0
 62
    15
 10
1.737120
 20
8.482760
 11
2.383040
 21
8.860720
 12
1.759560
 22
8.493760
 13
2.405480
 23
8.871720
  0
POLYLINE
  8
0
  6
CONTINUOUS
 66
     1
 40
0.000000
 41
0.000000
  0
VERTEX
  8
0
  6
CONTINUOUS
 10
1.737120
 20
8.482760
  0
VERTEX
  8
0
  6
CONTINUOUS
 10
2.383040
 20
8.860720
  0
VERTEX
  8
0
  6
CONTINUOUS
 10
2.405480
 20
8.871720
  0
VERTEX
  8
0
  6
CONTINUOUS
 10
1.759560
 20
8.493760
  0
VERTEX
  8
0
  6
CONTINUOUS
 10
1.737120
 20
8.482760
  0
SEQEND
  8
0
  0
SOLID
  8
0
 62
    15
 10
2.372040
 20
8.869080
 11
3.017520
 21
9.247040
 12
2.377320
 22
8.799560
 13
3.023240
 23
9.177520
  0
POLYLINE
  8
0
  6
CONTINUOUS
 66
     1
 40
0.000000
 41
0.000000
  0
VERTEX
  8
0
  6
CONTINUOUS
 10
2.372040
 20
8.869080
  0
VERTEX
  8
0
  6
CONTINUOUS
 10
3.017520
 20
9.247040
  0
VERTEX
  8
0
  6
CONTINUOUS
 10
3.023240
 20
9.177520
  0
VERTEX
  8
0
  6
CONTINUOUS
 10
2.377320
 20
8.799560
  0
VERTEX
  8
0
  6
CONTINUOUS
 10
2.372040
 20
8.869080
  0
SEQEND
  8
0
  0
SOLID
  8
0
 62
    15
 10
2.380840
 20
8.718160
 11
3.026760
 21
9.096120
 12
2.383480
 22
8.682080
 13
3.029400
 23
9.059600
  0
POLYLINE
  8
0
  6
CONTINUOUS
 66
     1
 40
0.000000
 41
0.000000
  0
VERTEX
  8
0
  6
CONTINUOUS
 10
2.380840
 20
8.718160
  0
VERTEX
  8
0
  6
CONTINUOUS
 10
3.026760
 20
9.096120
  0
VERTEX
  8
0
  6
CONTINUOUS
 10
3.029400
 20
9.059600
  0
VERTEX
  8
0
  6
CONTINUOUS
 10
2.383480
 20
8.682080
  0
VERTEX
  8
0
  6
CONTINUOUS
 10
2.380840
 20
8.718160
  0
SEQEND
  8
0
  0
SOLID
  8
0
 62
    15
 10
2.383480
 20
8.682080
 11
3.029400
 21
9.059600
 12
2.390080
 22
8.644240
 13
3.036000
 23
9.022200
  0
POLYLINE
  8
0
  6
CONTINUOUS
 66
     1
 40
0.000000
 41
0.000000
  0
VERTEX
  8
0
  6
CONTINUOUS
 10
2.383480
 20
8.682080
  0
VERTEX
  8
0
  6
CONTINUOUS
 10
3.029400
 20
9.059600
  0
VERTEX
  8
0
  6
CONTINUOUS
 10
3.036000
 20
9.022200
  0
VERTEX
  8
0
  6
CONTINUOUS
 10
2.390080
 20
8.644240
  0
VERTEX
  8
0
  6
CONTINUOUS
 10
2.383480
 20
8.682080
  0
SEQEND
  8
0
  0
SOLID
  8
0
 62
    15
 10
2.390080
 20
8.644240
 11
3.036000
 21
9.022200
 12
2.400200
 22
8.606840
 13
3.046120
 23
8.984800
  0
POLYLINE
  8
0
  6
CONTINUOUS
 66
     1
 40
0.000000
 41
0.000000
  0
VERTEX
  8
0
  6
CONTINUOUS
 10
2.390080
 20
8.644240
  0
VERTEX
  8
0
  6
CONTINUOUS
 10
3.036000
 20
9.022200
  0
VERTEX
  8
0
  6
CONTINUOUS
 10
3.046120
 20
8.984800
  0
VERTEX
  8
0
  6
CONTINUOUS
 10
2.400200
 20
8.606840
  0
VERTEX
  8
0
  6
CONTINUOUS
 10
2.390080
 20
8.644240
  0
SEQEND
  8
0
  0
SOLID
  8
0
 62
    15
 10
2.400200
 20
8.606840
 11
3.046120
 21
8.984800
 12
2.413400
 22
8.571640
 13
3.059320
 23
8.949600
  0
POLYLINE
  8
0
  6
CONTINUOUS
 66
     1
 40
0.000000
 41
0.000000
  0
VERTEX
  8
0
  6
CONTINUOUS
 10
2.400200
 20
8.606840
  0
VERTEX
  8
0
  6
CONTINUOUS
 10
3.046120
 20
8.984800
  0
VERTEX
  8
0
  6
CONTINUOUS
 10
3.059320
 20
8.949600
  0
VERTEX
  8
0
  6
CONTINUOUS
 10
2.413400
 20
8.571640
  0
VERTEX
  8
0
  6
CONTINUOUS
 10
2.400200
 20
8.606840
  0
SEQEND
  8
0
  0
SOLID
  8
0
 62
    15
 10
2.413400
 20
8.571640
 11
3.059320
 21
8.949600
 12
2.429240
 22
8.539960
 13
3.075160
 23
8.917920
  0
POLYLINE
  8
0
  6
CONTINUOUS
 66
     1
 40
0.000000
 41
0.000000
  0
VERTEX
  8
0
  6
CONTINUOUS
 10
2.413400
 20
8.571640
  0
VERTEX
  8
0
  6
CONTINUOUS
 10
3.059320
 20
8.949600
  0
VERTEX
  8
0
  6
CONTINUOUS
 10
3.075160
 20
8.917920
  0
VERTEX
  8
0
  6
CONTINUOUS
 10
2.429240
 20
8.539960
  0
VERTEX
  8
0
  6
CONTINUOUS
 10
2.413400
 20
8.571640
  0
SEQEND
  8
0
  0
SOLID
  8
0
 62
    15
 10
2.429240
 20
8.539960
 11
3.075160
 21
8.917920
 12
2.447720
 22
8.513560
 13
3.093640
 23
8.891080
  0
POLYLINE
  8
0
  6
CONTINUOUS
 66
     1
 40
0.000000
 41
0.000000
  0
VERTEX
  8
0
  6
CONTINUOUS
 10
2.429240
 20
8.539960
  0
VERTEX
  8
0
  6
CONTINUOUS
 10
3.075160
 20
8.917920
  0
VERTEX
  8
0
  6
CONTINUOUS
 10
3.093640
 20
8.891080
  0
VERTEX
  8
0
  6
CONTINUOUS
 10
2.447720
 20
8.513560
  0
VERTEX
  8
0
  6
CONTINUOUS
 10
2.429240
 20
8.539960
  0
SEQEND
  8
0
  0
SOLID
  8
0
 62
    15
 10
2.447720
 20
8.513560
 11
3.093640
 21
8.891080
 12
2.468400
 22
8.493760
 13
3.114320
 23
8.871720
  0
POLYLINE
  8
0
  6
CONTINUOUS
 66
     1
 40
0.000000
 41
0.000000
  0
VERTEX
  8
0
  6
CONTINUOUS
 10
2.447720
 20
8.513560
  0
VERTEX
  8
0
  6
CONTINUOUS
 10
3.093640
 20
8.891080
  0
VERTEX
  8
0
  6
CONTINUOUS
 10
3.114320
 20
8.871720
  0
VERTEX
  8
0
  6
CONTINUOUS
 10
2.468400
 20
8.493760
  0
VERTEX
  8
0
  6
CONTINUOUS
 10
2.447720
 20
8.513560
  0
SEQEND
  8
0
  0
SOLID
  8
0
 62
    15
 10
2.468400
 20
8.493760
 11
3.114320
 21
8.871720
 12
2.491280
 22
8.482760
 13
3.137200
 23
8.860720
  0
POLYLINE
  8
0
  6
CONTINUOUS
 66
     1
 40
0.000000
 41
0.000000
  0
VERTEX
  8
0
  6
CONTINUOUS
 10
2.468400
 20
8.493760
  0
VERTEX
  8
0
  6
CONTINUOUS
 10
3.114320
 20
8.871720
  0
VERTEX
  8
0
  6
CONTINUOUS
 10
3.137200
 20
8.860720
  0
VERTEX
  8
0
  6
CONTINUOUS
 10
2.491280
 20
8.482760
  0
VERTEX
  8
0
  6
CONTINUOUS
 10
2.468400
 20
8.493760
  0
SEQEND
  8
0
  0
SOLID
  8
0
 62
    15
 10
2.240040
 20
8.177840
 11
2.885960
 21
8.555800
 12
2.240040
 22
6.923840
 13
2.885960
 23
7.301800
  0
POLYLINE
  8
0
  6
CONTINUOUS
 66
     1
 40
0.000000
 41
0.000000
  0
VERTEX
  8
0
  6
CONTINUOUS
 10
2.240040
 20
8.177840
  0
VERTEX
  8
0
  6
CONTINUOUS
 10
2.885960
 20
8.555800
  0
VERTEX
  8
0
  6
CONTINUOUS
 10
2.885960
 20
7.301800
  0
VERTEX
  8
0
  6
CONTINUOUS
 10
2.240040
 20
6.923840
  0
VERTEX
  8
0
  6
CONTINUOUS
 10
2.240040
 20
8.177840
  0
SEQEND
  8
0
  0
SOLID
  8
0
 62
    15
 10
2.491280
 20
8.482760
 11
3.137200
 21
8.860720
 12
2.491280
 22
8.177840
 13
3.137200
 23
8.555800
  0
POLYLINE
  8
0
  6
CONTINUOUS
 66
     1
 40
0.000000
 41
0.000000
  0
VERTEX
  8
0
  6
CONTINUOUS
 10
2.491280
 20
8.482760
  0
VERTEX
  8
0
  6
CONTINUOUS
 10
3.137200
 20
8.860720
  0
VERTEX
  8
0
  6
CONTINUOUS
 10
3.137200
 20
8.555800
  0
VERTEX
  8
0
  6
CONTINUOUS
 10
2.491280
 20
8.177840
  0
VERTEX
  8
0
  6
CONTINUOUS
 10
2.491280
 20
8.482760
  0
SEQEND
  8
0
  0
POLYLINE
  8
0
  6
CONTINUOUS
 66
     1
 40
0.000000
 41
0.000000
  0
VERTEX
  8
0
  6
CONTINUOUS
 10
1.988360
 20
6.923840
  0
VERTEX
  8
0
  6
CONTINUOUS
 10
1.988360
 20
8.177840
  0
VERTEX
  8
0
  6
CONTINUOUS
 10
1.737120
 20
8.177840
  0
VERTEX
  8
0
  6
CONTINUOUS
 10
1.737120
 20
8.482760
  0
VERTEX
  8
0
  6
CONTINUOUS
 10
1.759560
 20
8.493760
  0
VERTEX
  8
0
  6
CONTINUOUS
 10
1.780680
 20
8.513560
  0
VERTEX
  8
0
  6
CONTINUOUS
 10
1.799160
 20
8.539960
  0
VERTEX
  8
0
  6
CONTINUOUS
 10
1.815000
 20
8.571640
  0
VERTEX
  8
0
  6
CONTINUOUS
 10
1.828200
 20
8.606840
  0
VERTEX
  8
0
  6
CONTINUOUS
 10
1.838320
 20
8.644240
  0
VERTEX
  8
0
  6
CONTINUOUS
 10
1.844920
 20
8.682080
  0
VERTEX
  8
0
  6
CONTINUOUS
 10
1.847560
 20
8.718160
  0
VERTEX
  8
0
  6
CONTINUOUS
 10
1.850640
 20
8.799560
  0
VERTEX
  8
0
  6
CONTINUOUS
 10
1.856360
 20
8.869080
  0
VERTEX
  8
0
  6
CONTINUOUS
 10
1.865160
 20
8.927160
  0
VERTEX
  8
0
  6
CONTINUOUS
 10
1.878360
 20
8.975120
  0
VERTEX
  8
0
  6
CONTINUOUS
 10
1.895960
 20
9.012520
  0
VERTEX
  8
0
  6
CONTINUOUS
 10
1.919720
 20
9.041120
  0
VERTEX
  8
0
  6
CONTINUOUS
 10
1.949640
 20
9.060920
  0
VERTEX
  8
0
  6
CONTINUOUS
 10
1.987040
 20
9.072360
  0
VERTEX
  8
0
  6
CONTINUOUS
 10
1.987040
 20
9.176640
  0
VERTEX
  8
0
  6
CONTINUOUS
 10
2.241360
 20
9.176640
  0
VERTEX
  8
0
  6
CONTINUOUS
 10
2.241360
 20
9.072360
  0
VERTEX
  8
0
  6
CONTINUOUS
 10
2.278760
 20
9.060920
  0
VERTEX
  8
0
  6
CONTINUOUS
 10
2.308680
 20
9.041120
  0
VERTEX
  8
0
  6
CONTINUOUS
 10
2.332440
 20
9.012520
  0
VERTEX
  8
0
  6
CONTINUOUS
 10
2.350040
 20
8.975120
  0
VERTEX
  8
0
  6
CONTINUOUS
 10
2.362800
 20
8.927160
  0
VERTEX
  8
0
  6
CONTINUOUS
 10
2.372040
 20
8.869080
  0
VERTEX
  8
0
  6
CONTINUOUS
 10
2.377320
 20
8.799560
  0
VERTEX
  8
0
  6
CONTINUOUS
 10
2.380840
 20
8.718160
  0
VERTEX
  8
0
  6
CONTINUOUS
 10
2.383480
 20
8.682080
  0
VERTEX
  8
0
  6
CONTINUOUS
 10
2.390080
 20
8.644240
  0
VERTEX
  8
0
  6
CONTINUOUS
 10
2.400200
 20
8.606840
  0
VERTEX
  8
0
  6
CONTINUOUS
 10
2.413400
 20
8.571640
  0
VERTEX
  8
0
  6
CONTINUOUS
 10
2.429240
 20
8.539960
  0
VERTEX
  8
0
  6
CONTINUOUS
 10
2.447720
 20
8.513560
  0
VERTEX
  8
0
  6
CONTINUOUS
 10
2.468400
 20
8.493760
  0
VERTEX
  8
0
  6
CONTINUOUS
 10
2.491280
 20
8.482760
  0
VERTEX
  8
0
  6
CONTINUOUS
 10
2.491280
 20
8.177840
  0
VERTEX
  8
0
  6
CONTINUOUS
 10
2.240040
 20
8.177840
  0
VERTEX
  8
0
  6
CONTINUOUS
 10
2.240040
 20
6.923840
  0
VERTEX
  8
0
  6
CONTINUOUS
 10
1.988360
 20
6.923840
  0
SEQEND
  8
0
  0
SOLID
  8
0
 62
    15
 10
3.164480
 20
9.179280
 11
3.807760
 21
9.551960
 12
4.191880
 22
9.179280
 13
4.835160
 23
9.551960
  0
POLYLINE
  8
0
  6
CONTINUOUS
 66
     1
 40
0.000000
 41
0.000000
  0
VERTEX
  8
0
  6
CONTINUOUS
 10
3.164480
 20
9.179280
  0
VERTEX
  8
0
  6
CONTINUOUS
 10
3.807760
 20
9.551960
  0
VERTEX
  8
0
  6
CONTINUOUS
 10
4.835160
 20
9.551960
  0
VERTEX
  8
0
  6
CONTINUOUS
 10
4.191880
 20
9.179280
  0
VERTEX
  8
0
  6
CONTINUOUS
 10
3.164480
 20
9.179280
  0
SEQEND
  8
0
  0
SOLID
  8
0
 62
    15
 10
4.191880
 20
9.179280
 11
4.835160
 21
9.551960
 12
4.191880
 22
6.923400
 13
4.835160
 23
7.296520
  0
POLYLINE
  8
0
  6
CONTINUOUS
 66
     1
 40
0.000000
 41
0.000000
  0
VERTEX
  8
0
  6
CONTINUOUS
 10
4.191880
 20
9.179280
  0
VERTEX
  8
0
  6
CONTINUOUS
 10
4.835160
 20
9.551960
  0
VERTEX
  8
0
  6
CONTINUOUS
 10
4.835160
 20
7.296520
  0
VERTEX
  8
0
  6
CONTINUOUS
 10
4.191880
 20
6.923400
  0
VERTEX
  8
0
  6
CONTINUOUS
 10
4.191880
 20
9.179280
  0
SEQEND
  8
0
  0
SOLID
  8
0
 62
    15
 10
3.163160
 20
8.180480
 11
3.806440
 21
8.553600
 12
3.414400
 22
8.180480
 13
4.057680
 23
8.553600
  0
POLYLINE
  8
0
  6
CONTINUOUS
 66
     1
 40
0.000000
 41
0.000000
  0
VERTEX
  8
0
  6
CONTINUOUS
 10
3.163160
 20
8.180480
  0
VERTEX
  8
0
  6
CONTINUOUS
 10
3.806440
 20
8.553600
  0
VERTEX
  8
0
  6
CONTINUOUS
 10
4.057680
 20
8.553600
  0
VERTEX
  8
0
  6
CONTINUOUS
 10
3.414400
 20
8.180480
  0
VERTEX
  8
0
  6
CONTINUOUS
 10
3.163160
 20
8.180480
  0
SEQEND
  8
0
  0
POLYLINE
  8
0
  6
CONTINUOUS
 66
     1
 40
0.000000
 41
0.000000
  0
VERTEX
  8
0
  6
CONTINUOUS
 10
3.163160
 20
6.926480
  0
VERTEX
  8
0
  6
CONTINUOUS
 10
3.163160
 20
8.180480
  0
VERTEX
  8
0
  6
CONTINUOUS
 10
3.414400
 20
8.180480
  0
VERTEX
  8
0
  6
CONTINUOUS
 10
3.414400
 20
8.485400
  0
VERTEX
  8
0
  6
CONTINUOUS
 10
3.391960
 20
8.496400
  0
VERTEX
  8
0
  6
CONTINUOUS
 10
3.371280
 20
8.515760
  0
VERTEX
  8
0
  6
CONTINUOUS
 10
3.352360
 20
8.542600
  0
VERTEX
  8
0
  6
CONTINUOUS
 10
3.336520
 20
8.574280
  0
VERTEX
  8
0
  6
CONTINUOUS
 10
3.313200
 20
8.646880
  0
VERTEX
  8
0
  6
CONTINUOUS
 10
3.303960
 20
8.720800
  0
VERTEX
  8
0
  6
CONTINUOUS
 10
3.300880
 20
8.802200
  0
VERTEX
  8
0
  6
CONTINUOUS
 10
3.295160
 20
8.871720
  0
VERTEX
  8
0
  6
CONTINUOUS
 10
3.286360
 20
8.929800
  0
VERTEX
  8
0
  6
CONTINUOUS
 10
3.273160
 20
8.977320
  0
VERTEX
  8
0
  6
CONTINUOUS
 10
3.255560
 20
9.015160
  0
VERTEX
  8
0
  6
CONTINUOUS
 10
3.231800
 20
9.043760
  0
VERTEX
  8
0
  6
CONTINUOUS
 10
3.201880
 20
9.063120
  0
VERTEX
  8
0
  6
CONTINUOUS
 10
3.164480
 20
9.075000
  0
VERTEX
  8
0
  6
CONTINUOUS
 10
3.164480
 20
9.179280
  0
VERTEX
  8
0
  6
CONTINUOUS
 10
4.191880
 20
9.179280
  0
VERTEX
  8
0
  6
CONTINUOUS
 10
4.191880
 20
6.923400
  0
VERTEX
  8
0
  6
CONTINUOUS
 10
3.163160
 20
6.923400
  0
VERTEX
  8
0
  6
CONTINUOUS
 10
3.163160
 20
6.926480
  0
SEQEND
  8
0
  0
TEXT
  8
0
 10
2.732840
 20
6.674800
 40
0.138209
  1
BA  1175A & B
 41
1.000000
  7
SN0
 71
     0
 72
     5
 11
3.838001
 21
6.674800
  0
TEXT
  8
0
 10
3.068120
 20
6.482960
 40
0.138209
  1
2-1/4"
 41
1.000000
  7
SN0
 71
     0
 72
     5
 11
3.504424
 21
6.482960
  0
POLYLINE
  8
0
  6
CONTINUOUS
 66
     1
 40
0.014080
 41
0.014080
  0
VERTEX
  8
0
  6
CONTINUOUS
 10
6.625520
 20
6.941000
  0
VERTEX
  8
0
  6
CONTINUOUS
 10
7.654240
 20
6.941000
  0
VERTEX
  8
0
  6
CONTINUOUS
 10
7.654240
 20
9.196880
  0
VERTEX
  8
0
  6
CONTINUOUS
 10
6.626840
 20
9.196880
  0
VERTEX
  8
0
  6
CONTINUOUS
 10
6.626840
 20
9.092600
  0
VERTEX
  8
0
  6
CONTINUOUS
 10
6.655440
 20
9.084680
  0
VERTEX
  8
0
  6
CONTINUOUS
 10
6.680080
 20
9.072360
  0
VERTEX
  8
0
  6
CONTINUOUS
 10
6.700760
 20
9.055200
  0
VERTEX
  8
0
  6
CONTINUOUS
 10
6.717920
 20
9.033200
  0
VERTEX
  8
0
  6
CONTINUOUS
 10
6.727600
 20
9.015600
  0
VERTEX
  8
0
  6
CONTINUOUS
 10
6.739480
 20
8.984360
  0
VERTEX
  8
0
  6
CONTINUOUS
 10
6.751360
 20
8.934200
  0
VERTEX
  8
0
  6
CONTINUOUS
 10
6.759280
 20
8.873040
  0
VERTEX
  8
0
  6
CONTINUOUS
 10
6.765000
 20
8.780640
  0
VERTEX
  8
0
  6
CONTINUOUS
 10
6.767200
 20
8.720360
  0
VERTEX
  8
0
  6
CONTINUOUS
 10
6.772040
 20
8.683400
  0
VERTEX
  8
0
  6
CONTINUOUS
 10
6.780400
 20
8.645560
  0
VERTEX
  8
0
  6
CONTINUOUS
 10
6.791840
 20
8.609040
  0
VERTEX
  8
0
  6
CONTINUOUS
 10
6.806800
 20
8.575600
  0
VERTEX
  8
0
  6
CONTINUOUS
 10
6.823960
 20
8.546120
  0
VERTEX
  8
0
  6
CONTINUOUS
 10
6.843760
 20
8.522800
  0
VERTEX
  8
0
  6
CONTINUOUS
 10
6.854320
 20
8.514000
  0
VERTEX
  8
0
  6
CONTINUOUS
 10
6.865320
 20
8.507400
  0
VERTEX
  8
0
  6
CONTINUOUS
 10
6.876760
 20
8.503000
  0
VERTEX
  8
0
  6
CONTINUOUS
 10
6.876760
 20
8.198080
  0
VERTEX
  8
0
  6
CONTINUOUS
 10
6.625520
 20
8.198080
  0
VERTEX
  8
0
  6
CONTINUOUS
 10
6.625520
 20
6.941000
  0
SEQEND
  8
0
  0
POLYLINE
  8
0
  6
CONTINUOUS
 66
     1
 40
0.014080
 41
0.014080
  0
VERTEX
  8
0
  6
CONTINUOUS
 10
5.573480
 20
6.950240
  0
VERTEX
  8
0
  6
CONTINUOUS
 10
5.573480
 20
8.204240
  0
VERTEX
  8
0
  6
CONTINUOUS
 10
5.322240
 20
8.204240
  0
VERTEX
  8
0
  6
CONTINUOUS
 10
5.322240
 20
8.509160
  0
VERTEX
  8
0
  6
CONTINUOUS
 10
5.333680
 20
8.513560
  0
VERTEX
  8
0
  6
CONTINUOUS
 10
5.344680
 20
8.520160
  0
VERTEX
  8
0
  6
CONTINUOUS
 10
5.355240
 20
8.528960
  0
VERTEX
  8
0
  6
CONTINUOUS
 10
5.375040
 20
8.552280
  0
VERTEX
  8
0
  6
CONTINUOUS
 10
5.392200
 20
8.581760
  0
VERTEX
  8
0
  6
CONTINUOUS
 10
5.407160
 20
8.615200
  0
VERTEX
  8
0
  6
CONTINUOUS
 10
5.418600
 20
8.651720
  0
VERTEX
  8
0
  6
CONTINUOUS
 10
5.426960
 20
8.689560
  0
VERTEX
  8
0
  6
CONTINUOUS
 10
5.431800
 20
8.726520
  0
VERTEX
  8
0
  6
CONTINUOUS
 10
5.437080
 20
8.844440
  0
VERTEX
  8
0
  6
CONTINUOUS
 10
5.443240
 20
8.911320
  0
VERTEX
  8
0
  6
CONTINUOUS
 10
5.450280
 20
8.954000
  0
VERTEX
  8
0
  6
CONTINUOUS
 10
5.459520
 20
8.990520
  0
VERTEX
  8
0
  6
CONTINUOUS
 10
5.471400
 20
9.021760
  0
VERTEX
  8
0
  6
CONTINUOUS
 10
5.486360
 20
9.047280
  0
VERTEX
  8
0
  6
CONTINUOUS
 10
5.504840
 20
9.067520
  0
VERTEX
  8
0
  6
CONTINUOUS
 10
5.526400
 20
9.082920
  0
VERTEX
  8
0
  6
CONTINUOUS
 10
5.552360
 20
9.093920
  0
VERTEX
  8
0
  6
CONTINUOUS
 10
5.572160
 20
9.098760
  0
VERTEX
  8
0
  6
CONTINUOUS
 10
5.572160
 20
9.203040
  0
VERTEX
  8
0
  6
CONTINUOUS
 10
5.826040
 20
9.203040
  0
VERTEX
  8
0
  6
CONTINUOUS
 10
5.826040
 20
9.098760
  0
VERTEX
  8
0
  6
CONTINUOUS
 10
5.854640
 20
9.090840
  0
VERTEX
  8
0
  6
CONTINUOUS
 10
5.879280
 20
9.078520
  0
VERTEX
  8
0
  6
CONTINUOUS
 10
5.899960
 20
9.061360
  0
VERTEX
  8
0
  6
CONTINUOUS
 10
5.917120
 20
9.039360
  0
VERTEX
  8
0
  6
CONTINUOUS
 10
5.926800
 20
9.021760
  0
VERTEX
  8
0
  6
CONTINUOUS
 10
5.938680
 20
8.990520
  0
VERTEX
  8
0
  6
CONTINUOUS
 10
5.947920
 20
8.954000
  0
VERTEX
  8
0
  6
CONTINUOUS
 10
5.956720
 20
8.895480
  0
VERTEX
  8
0
  6
CONTINUOUS
 10
5.961560
 20
8.844440
  0
VERTEX
  8
0
  6
CONTINUOUS
 10
5.966840
 20
8.726520
  0
VERTEX
  8
0
  6
CONTINUOUS
 10
5.971240
 20
8.689560
  0
VERTEX
  8
0
  6
CONTINUOUS
 10
5.979600
 20
8.651720
  0
VERTEX
  8
0
  6
CONTINUOUS
 10
5.991480
 20
8.615200
  0
VERTEX
  8
0
  6
CONTINUOUS
 10
6.006000
 20
8.581760
  0
VERTEX
  8
0
  6
CONTINUOUS
 10
6.023600
 20
8.552280
  0
VERTEX
  8
0
  6
CONTINUOUS
 10
6.042960
 20
8.528960
  0
VERTEX
  8
0
  6
CONTINUOUS
 10
6.064960
 20
8.513560
  0
VERTEX
  8
0
  6
CONTINUOUS
 10
6.076400
 20
8.509160
  0
VERTEX
  8
0
  6
CONTINUOUS
 10
6.076400
 20
8.204240
  0
VERTEX
  8
0
  6
CONTINUOUS
 10
5.825160
 20
8.204240
  0
VERTEX
  8
0
  6
CONTINUOUS
 10
5.825160
 20
6.950240
  0
VERTEX
  8
0
  6
CONTINUOUS
 10
5.573480
 20
6.950240
  0
SEQEND
  8
0
  0
TEXT
  8
0
 10
5.925480
 20
6.702520
 40
0.138209
  1
BA  1175A & B
 41
1.000000
  7
SN0
 71
     0
 72
     5
 11
7.030641
 21
6.702520
  0
TEXT
  8
0
 10
6.260760
 20
6.511120
 40
0.138209
  1
2-1/4"
 41
1.000000
  7
SN0
 71
     0
 72
     5
 11
6.697064
 21
6.511120
  0
POLYLINE
  8
0
  6
CONTINUOUS
 66
     1
 40
0.000000
 41
0.000000
  0
VERTEX
  8
0
  6
CONTINUOUS
 10
3.073840
 20
5.116760
  0
VERTEX
  8
0
  6
CONTINUOUS
 10
3.073840
 20
4.964080
  0
VERTEX
  8
0
  6
CONTINUOUS
 10
3.073840
 20
3.955600
  0
SEQEND
  8
0
  0
POLYLINE
  8
0
  6
CONTINUOUS
 66
     1
 40
0.000000
 41
0.000000
  0
VERTEX
  8
0
  6
CONTINUOUS
 10
0.802120
 20
3.936240
  0
VERTEX
  8
0
  6
CONTINUOUS
 10
0.802120
 20
5.190240
  0
VERTEX
  8
0
  6
CONTINUOUS
 10
0.550880
 20
5.190240
  0
VERTEX
  8
0
  6
CONTINUOUS
 10
0.550880
 20
5.495160
  0
VERTEX
  8
0
  6
CONTINUOUS
 10
0.562320
 20
5.499560
  0
VERTEX
  8
0
  6
CONTINUOUS
 10
0.573320
 20
5.506160
  0
VERTEX
  8
0
  6
CONTINUOUS
 10
0.583880
 20
5.514960
  0
VERTEX
  8
0
  6
CONTINUOUS
 10
0.603680
 20
5.538280
  0
VERTEX
  8
0
  6
CONTINUOUS
 10
0.620840
 20
5.567760
  0
VERTEX
  8
0
  6
CONTINUOUS
 10
0.635800
 20
5.601200
  0
VERTEX
  8
0
  6
CONTINUOUS
 10
0.647240
 20
5.637720
  0
VERTEX
  8
0
  6
CONTINUOUS
 10
0.655600
 20
5.675560
  0
VERTEX
  8
0
  6
CONTINUOUS
 10
0.660440
 20
5.712520
  0
VERTEX
  8
0
  6
CONTINUOUS
 10
0.665720
 20
5.830440
  0
VERTEX
  8
0
  6
CONTINUOUS
 10
0.671880
 20
5.896880
  0
VERTEX
  8
0
  6
CONTINUOUS
 10
0.678920
 20
5.939560
  0
VERTEX
  8
0
  6
CONTINUOUS
 10
0.688160
 20
5.976080
  0
VERTEX
  8
0
  6
CONTINUOUS
 10
0.700040
 20
6.007320
  0
VERTEX
  8
0
  6
CONTINUOUS
 10
0.715000
 20
6.032840
  0
VERTEX
  8
0
  6
CONTINUOUS
 10
0.726880
 20
6.046920
  0
VERTEX
  8
0
  6
CONTINUOUS
 10
0.740080
 20
6.059240
  0
VERTEX
  8
0
  6
CONTINUOUS
 10
0.763400
 20
6.072880
  0
VERTEX
  8
0
  6
CONTINUOUS
 10
0.790680
 20
6.082560
  0
VERTEX
  8
0
  6
CONTINUOUS
 10
0.800800
 20
6.084760
  0
VERTEX
  8
0
  6
CONTINUOUS
 10
0.800800
 20
6.189040
  0
VERTEX
  8
0
  6
CONTINUOUS
 10
1.054680
 20
6.189040
  0
VERTEX
  8
0
  6
CONTINUOUS
 10
1.054680
 20
6.084760
  0
VERTEX
  8
0
  6
CONTINUOUS
 10
1.083280
 20
6.076840
  0
VERTEX
  8
0
  6
CONTINUOUS
 10
1.107920
 20
6.064520
  0
VERTEX
  8
0
  6
CONTINUOUS
 10
1.128600
 20
6.047360
  0
VERTEX
  8
0
  6
CONTINUOUS
 10
1.145760
 20
6.024920
  0
VERTEX
  8
0
  6
CONTINUOUS
 10
1.159400
 20
5.997640
  0
VERTEX
  8
0
  6
CONTINUOUS
 10
1.167320
 20
5.976520
  0
VERTEX
  8
0
  6
CONTINUOUS
 10
1.176560
 20
5.939560
  0
VERTEX
  8
0
  6
CONTINUOUS
 10
1.185360
 20
5.881480
  0
VERTEX
  8
0
  6
CONTINUOUS
 10
1.190200
 20
5.830440
  0
VERTEX
  8
0
  6
CONTINUOUS
 10
1.195480
 20
5.712520
  0
VERTEX
  8
0
  6
CONTINUOUS
 10
1.199880
 20
5.675560
  0
VERTEX
  8
0
  6
CONTINUOUS
 10
1.213520
 20
5.619240
  0
VERTEX
  8
0
  6
CONTINUOUS
 10
1.226720
 20
5.584040
  0
VERTEX
  8
0
  6
CONTINUOUS
 10
1.243000
 20
5.552360
  0
VERTEX
  8
0
  6
CONTINUOUS
 10
1.261480
 20
5.525960
  0
VERTEX
  8
0
  6
CONTINUOUS
 10
1.271600
 20
5.514960
  0
VERTEX
  8
0
  6
CONTINUOUS
 10
1.282160
 20
5.506160
  0
VERTEX
  8
0
  6
CONTINUOUS
 10
1.293160
 20
5.499560
  0
VERTEX
  8
0
  6
CONTINUOUS
 10
1.304600
 20
5.495160
  0
VERTEX
  8
0
  6
CONTINUOUS
 10
1.304600
 20
5.190240
  0
VERTEX
  8
0
  6
CONTINUOUS
 10
1.053800
 20
5.190240
  0
VERTEX
  8
0
  6
CONTINUOUS
 10
1.053800
 20
3.936240
  0
VERTEX
  8
0
  6
CONTINUOUS
 10
0.802120
 20
3.936240
  0
SEQEND
  8
0
  0
POLYLINE
  8
0
  6
CONTINUOUS
 66
     1
 40
0.000000
 41
0.000000
  0
VERTEX
  8
0
  6
CONTINUOUS
 10
0.550000
 20
5.082000
  0
VERTEX
  8
0
  6
CONTINUOUS
 10
0.550000
 20
4.929320
  0
VERTEX
  8
0
  6
CONTINUOUS
 10
0.550000
 20
3.920840
  0
SEQEND
  8
0
  0
ENDSEC
  0
EOF
