  0
SECTION
  2
HEADER
  9
$ACADVER
  1
AC1006
  9
$EXTMIN
 10
3.206720
 20
2.438920
  9
$EXTMAX
 10
6.988080
 20
6.028440
  9
$LTSCALE
 40
0.044000
  9
$PDMODE
 70
    35
  9
$PDSIZE
 40
0.035200
  0
ENDSEC
  0
SECTION
  2
TABLES
  0
TABLE
  2
LTYPE
 70
     9
  0
LTYPE
  2
CONTINUOUS
 70
    64
  3
Solid line
 72
    65
 73
     0
 40
0.000000
  0
LTYPE
  2
DASHED
 70
    64
  3
__ __ __ __ __ __ __ __ __ __ __ __ __ __ __
 72
    65
 73
     2
 40
0.000330
 49
0.000220
 49
-0.000110
  0
LTYPE
  2
HIDDEN
 70
    64
  3
 _ _ _ _ _ _ _ _ _ _ _ _ _ _ _ _ _ _ _ _ _ _
 72
    65
 73
     2
 40
0.000165
 49
0.000110
 49
-0.000055
  0
LTYPE
  2
CENTER
 70
    64
  3
____ _ ____ _ ____ _ ____ _ ____ _ ____ _ ____
 72
    65
 73
     4
 40
0.000880
 49
0.000550
 49
-0.000110
 49
0.000110
 49
-0.000110
  0
LTYPE
  2
PHANTOM
 70
    64
  3
_____ _ _ _____ _ _ _____ _ _ _____ _ _ ____
 72
    65
 73
     6
 40
0.001100
 49
0.000550
 49
-0.000110
 49
0.000110
 49
-0.000110
 49
0.000110
 49
-0.000110
  0
LTYPE
  2
DOT
 70
    64
  3
...............................................
 72
    65
 73
     2
 40
0.000110
 49
0.000000
 49
-0.000110
  0
LTYPE
  2
DASHDOT
 70
    64
  3
__ . __ . __ . __ . __ . __ . __ . __ . __ . __
 72
    65
 73
     4
 40
0.000440
 49
0.000220
 49
-0.000110
 49
0.000000
 49
-0.000110
  0
LTYPE
  2
BORDER
 70
    64
  3
__ __ . __ __ . __ __ . __ __ . __ __ . __ __
 72
    65
 73
     6
 40
0.000770
 49
0.000220
 49
-0.000110
 49
0.000220
 49
-0.000110
 49
0.000000
 49
-0.000110
  0
LTYPE
  2
DIVIDE
 70
    64
  3
__ . . __ . . __ . . __ . . __ . . __ . . __
 72
    65
 73
     6
 40
0.000550
 49
0.000220
 49
-0.000110
 49
0.000000
 49
-0.000110
 49
0.000000
 49
-0.000110
  0
LTYPE
  2
DOTDOT
 70
    64
  3
 . .  . .  . .  . .  . .  . . 
 72
    65
 73
     5
 40
0.000242
 49
-0.000110
 49
0.000000
 49
-0.000110
 49
0.000000
 49
-0.000110
  0
ENDTAB
  0
TABLE
  2
STYLE
 70
     2
  0
STYLE
 70
     0
  2
SN0
 40
0.000000
 41
0.000440
 50
0.000000
 71
     0
 42
0.000000
  3
ROMAND
  0
STYLE
 70
    68
  2
SV0
 40
0.000000
 41
0.000440
 50
0.000000
 71
     0
 42
0.000000
  3
ROMAND
  0
ENDTAB
  0
TABLE
  2
LAYER
 70
     3
  0
LAYER
  2
FOREGROUND
 70
    64
 62
     7
  6
CONTINUOUS
  0
LAYER
  2
BACKGROUND
 70
    65
 62
    -7
  6
CONTINUOUS
  0
LAYER
  2
0
 70
    64
 62
     7
  6
CONTINUOUS
  0
ENDTAB
  0
ENDSEC
  0
SECTION
  2
ENTITIES
  0
POLYLINE
  8
FOREGROUND
  6
CONTINUOUS
 66
     1
 40
0.000000
 41
0.000000
  0
VERTEX
  8
FOREGROUND
  6
CONTINUOUS
 10
0.000000
 20
8.467360
  0
VERTEX
  8
FOREGROUND
  6
CONTINUOUS
 10
8.499920
 20
8.467360
  0
VERTEX
  8
FOREGROUND
  6
CONTINUOUS
 10
8.499920
 20
-2.532640
  0
VERTEX
  8
FOREGROUND
  6
CONTINUOUS
 10
0.000000
 20
-2.532640
  0
VERTEX
  8
FOREGROUND
  6
CONTINUOUS
 10
0.000000
 20
8.467360
  0
SEQEND
  8
0
  0
POLYLINE
  8
FOREGROUND
  6
CONTINUOUS
 66
     1
 40
0.000000
 41
0.000000
  0
VERTEX
  8
FOREGROUND
  6
CONTINUOUS
 10
0.000000
 20
8.467360
  0
VERTEX
  8
FOREGROUND
  6
CONTINUOUS
 10
8.499920
 20
8.467360
  0
VERTEX
  8
FOREGROUND
  6
CONTINUOUS
 10
8.499920
 20
-2.532640
  0
VERTEX
  8
FOREGROUND
  6
CONTINUOUS
 10
0.000000
 20
-2.532640
  0
VERTEX
  8
FOREGROUND
  6
CONTINUOUS
 10
0.000000
 20
8.467360
  0
SEQEND
  8
0
  0
POLYLINE
  8
0
  6
CONTINUOUS
 66
     1
 40
0.000000
 41
0.000000
  0
VERTEX
  8
0
  6
CONTINUOUS
 10
3.839880
 20
3.495360
  0
VERTEX
  8
0
  6
CONTINUOUS
 10
3.911600
 20
3.285920
  0
VERTEX
  8
0
  6
CONTINUOUS
 10
3.936680
 20
3.220800
  0
VERTEX
  8
0
  6
CONTINUOUS
 10
3.981560
 20
3.123120
  0
VERTEX
  8
0
  6
CONTINUOUS
 10
4.017200
 20
3.059320
  0
VERTEX
  8
0
  6
CONTINUOUS
 10
4.058120
 20
2.997280
  0
VERTEX
  8
0
  6
CONTINUOUS
 10
4.081000
 20
2.967360
  0
VERTEX
  8
0
  6
CONTINUOUS
 10
4.105640
 20
2.938320
  0
VERTEX
  8
0
  6
CONTINUOUS
 10
4.160200
 20
2.883320
  0
VERTEX
  8
0
  6
CONTINUOUS
 10
4.206400
 20
2.845480
  0
VERTEX
  8
0
  6
CONTINUOUS
 10
4.257880
 20
2.810720
  0
VERTEX
  8
0
  6
CONTINUOUS
 10
4.294840
 20
2.789160
  0
VERTEX
  8
0
  6
CONTINUOUS
 10
4.354680
 20
2.760560
  0
VERTEX
  8
0
  6
CONTINUOUS
 10
4.420240
 20
2.736360
  0
VERTEX
  8
0
  6
CONTINUOUS
 10
4.492400
 20
2.716560
  0
VERTEX
  8
0
  6
CONTINUOUS
 10
4.570720
 20
2.702040
  0
VERTEX
  8
0
  6
CONTINUOUS
 10
4.626600
 20
2.695440
  0
VERTEX
  8
0
  6
CONTINUOUS
 10
4.685560
 20
2.691480
  0
VERTEX
  8
0
  6
CONTINUOUS
 10
4.688640
 20
2.714800
  0
VERTEX
  8
0
  6
CONTINUOUS
 10
4.693040
 20
2.736800
  0
VERTEX
  8
0
  6
CONTINUOUS
 10
4.699200
 20
2.757480
  0
VERTEX
  8
0
  6
CONTINUOUS
 10
4.715920
 20
2.793560
  0
VERTEX
  8
0
  6
CONTINUOUS
 10
4.726040
 20
2.809840
  0
VERTEX
  8
0
  6
CONTINUOUS
 10
4.749800
 20
2.837120
  0
VERTEX
  8
0
  6
CONTINUOUS
 10
4.763000
 20
2.849000
  0
VERTEX
  8
0
  6
CONTINUOUS
 10
4.791600
 20
2.867480
  0
VERTEX
  8
0
  6
CONTINUOUS
 10
4.806560
 20
2.874960
  0
VERTEX
  8
0
  6
CONTINUOUS
 10
4.822400
 20
2.880680
  0
VERTEX
  8
0
  6
CONTINUOUS
 10
4.854080
 20
2.887720
  0
VERTEX
  8
0
  6
CONTINUOUS
 10
4.886200
 20
2.889040
  0
VERTEX
  8
0
  6
CONTINUOUS
 10
4.901600
 20
2.887720
  0
VERTEX
  8
0
  6
CONTINUOUS
 10
4.932400
 20
2.880240
  0
VERTEX
  8
0
  6
CONTINUOUS
 10
4.960560
 20
2.867480
  0
VERTEX
  8
0
  6
CONTINUOUS
 10
4.973760
 20
2.859120
  0
VERTEX
  8
0
  6
CONTINUOUS
 10
4.986080
 20
2.849000
  0
VERTEX
  8
0
  6
CONTINUOUS
 10
5.007200
 20
2.824800
  0
VERTEX
  8
0
  6
CONTINUOUS
 10
5.016440
 20
2.810720
  0
VERTEX
  8
0
  6
CONTINUOUS
 10
5.023920
 20
2.794880
  0
VERTEX
  8
0
  6
CONTINUOUS
 10
5.034480
 20
2.759680
  0
VERTEX
  8
0
  6
CONTINUOUS
 10
5.037120
 20
2.739880
  0
VERTEX
  8
0
  6
CONTINUOUS
 10
5.038000
 20
2.718760
  0
VERTEX
  8
0
  6
CONTINUOUS
 10
5.038000
 20
2.439360
  0
VERTEX
  8
0
  6
CONTINUOUS
 10
3.461920
 20
2.439360
  0
VERTEX
  8
0
  6
CONTINUOUS
 10
3.461920
 20
3.495360
  0
VERTEX
  8
0
  6
CONTINUOUS
 10
3.839880
 20
3.495360
  0
SEQEND
  8
0
  0
POLYLINE
  8
0
  6
CONTINUOUS
 66
     1
 40
0.000000
 41
0.000000
  0
VERTEX
  8
0
  6
CONTINUOUS
 10
6.610120
 20
3.516040
  0
VERTEX
  8
0
  6
CONTINUOUS
 10
6.537960
 20
3.306160
  0
VERTEX
  8
0
  6
CONTINUOUS
 10
6.499240
 20
3.208920
  0
VERTEX
  8
0
  6
CONTINUOUS
 10
6.468440
 20
3.143800
  0
VERTEX
  8
0
  6
CONTINUOUS
 10
6.432800
 20
3.080000
  0
VERTEX
  8
0
  6
CONTINUOUS
 10
6.413000
 20
3.048320
  0
VERTEX
  8
0
  6
CONTINUOUS
 10
6.368560
 20
2.988040
  0
VERTEX
  8
0
  6
CONTINUOUS
 10
6.343920
 20
2.959000
  0
VERTEX
  8
0
  6
CONTINUOUS
 10
6.317520
 20
2.930840
  0
VERTEX
  8
0
  6
CONTINUOUS
 10
6.289360
 20
2.904000
  0
VERTEX
  8
0
  6
CONTINUOUS
 10
6.243160
 20
2.865720
  0
VERTEX
  8
0
  6
CONTINUOUS
 10
6.192120
 20
2.830960
  0
VERTEX
  8
0
  6
CONTINUOUS
 10
6.135800
 20
2.799720
  0
VERTEX
  8
0
  6
CONTINUOUS
 10
6.073760
 20
2.772440
  0
VERTEX
  8
0
  6
CONTINUOUS
 10
6.006440
 20
2.749560
  0
VERTEX
  8
0
  6
CONTINUOUS
 10
5.932520
 20
2.731520
  0
VERTEX
  8
0
  6
CONTINUOUS
 10
5.852000
 20
2.718760
  0
VERTEX
  8
0
  6
CONTINUOUS
 10
5.794360
 20
2.713480
  0
VERTEX
  8
0
  6
CONTINUOUS
 10
5.764440
 20
2.711720
  0
VERTEX
  8
0
  6
CONTINUOUS
 10
5.756960
 20
2.757040
  0
VERTEX
  8
0
  6
CONTINUOUS
 10
5.742880
 20
2.796640
  0
VERTEX
  8
0
  6
CONTINUOUS
 10
5.723520
 20
2.830080
  0
VERTEX
  8
0
  6
CONTINUOUS
 10
5.699760
 20
2.857360
  0
VERTEX
  8
0
  6
CONTINUOUS
 10
5.686560
 20
2.869240
  0
VERTEX
  8
0
  6
CONTINUOUS
 10
5.657960
 20
2.887720
  0
VERTEX
  8
0
  6
CONTINUOUS
 10
5.643000
 20
2.895200
  0
VERTEX
  8
0
  6
CONTINUOUS
 10
5.611760
 20
2.905320
  0
VERTEX
  8
0
  6
CONTINUOUS
 10
5.579640
 20
2.909280
  0
VERTEX
  8
0
  6
CONTINUOUS
 10
5.547960
 20
2.907960
  0
VERTEX
  8
0
  6
CONTINUOUS
 10
5.532560
 20
2.905320
  0
VERTEX
  8
0
  6
CONTINUOUS
 10
5.502640
 20
2.895200
  0
VERTEX
  8
0
  6
CONTINUOUS
 10
5.475800
 20
2.879360
  0
VERTEX
  8
0
  6
CONTINUOUS
 10
5.452480
 20
2.857800
  0
VERTEX
  8
0
  6
CONTINUOUS
 10
5.433120
 20
2.830960
  0
VERTEX
  8
0
  6
CONTINUOUS
 10
5.425640
 20
2.815560
  0
VERTEX
  8
0
  6
CONTINUOUS
 10
5.415080
 20
2.779920
  0
VERTEX
  8
0
  6
CONTINUOUS
 10
5.412440
 20
2.760120
  0
VERTEX
  8
0
  6
CONTINUOUS
 10
5.411560
 20
2.739000
  0
VERTEX
  8
0
  6
CONTINUOUS
 10
5.411560
 20
2.459600
  0
VERTEX
  8
0
  6
CONTINUOUS
 10
6.988080
 20
2.459600
  0
VERTEX
  8
0
  6
CONTINUOUS
 10
6.988080
 20
3.516040
  0
VERTEX
  8
0
  6
CONTINUOUS
 10
6.610120
 20
3.516040
  0
SEQEND
  8
0
  0
SOLID
  8
0
 62
    15
 10
3.469840
 20
4.919200
 11
4.112680
 21
4.548720
 12
3.459280
 22
4.804360
 13
4.102120
 23
4.433440
  0
POLYLINE
  8
0
  6
CONTINUOUS
 66
     1
 40
0.000000
 41
0.000000
  0
VERTEX
  8
0
  6
CONTINUOUS
 10
3.469840
 20
4.919200
  0
VERTEX
  8
0
  6
CONTINUOUS
 10
4.112680
 20
4.548720
  0
VERTEX
  8
0
  6
CONTINUOUS
 10
4.102120
 20
4.433440
  0
VERTEX
  8
0
  6
CONTINUOUS
 10
3.459280
 20
4.804360
  0
VERTEX
  8
0
  6
CONTINUOUS
 10
3.469840
 20
4.919200
  0
SEQEND
  8
0
  0
SOLID
  8
0
 62
    15
 10
4.207720
 20
5.630680
 11
4.850560
 21
5.260200
 12
4.147880
 22
5.610880
 13
4.790720
 23
5.240400
  0
POLYLINE
  8
0
  6
CONTINUOUS
 66
     1
 40
0.000000
 41
0.000000
  0
VERTEX
  8
0
  6
CONTINUOUS
 10
4.207720
 20
5.630680
  0
VERTEX
  8
0
  6
CONTINUOUS
 10
4.850560
 20
5.260200
  0
VERTEX
  8
0
  6
CONTINUOUS
 10
4.790720
 20
5.240400
  0
VERTEX
  8
0
  6
CONTINUOUS
 10
4.147880
 20
5.610880
  0
VERTEX
  8
0
  6
CONTINUOUS
 10
4.207720
 20
5.630680
  0
SEQEND
  8
0
  0
SOLID
  8
0
 62
    15
 10
4.147880
 20
5.610880
 11
4.790720
 21
5.240400
 12
4.021160
 22
5.566000
 13
4.664000
 23
5.195080
  0
POLYLINE
  8
0
  6
CONTINUOUS
 66
     1
 40
0.000000
 41
0.000000
  0
VERTEX
  8
0
  6
CONTINUOUS
 10
4.147880
 20
5.610880
  0
VERTEX
  8
0
  6
CONTINUOUS
 10
4.790720
 20
5.240400
  0
VERTEX
  8
0
  6
CONTINUOUS
 10
4.664000
 20
5.195080
  0
VERTEX
  8
0
  6
CONTINUOUS
 10
4.021160
 20
5.566000
  0
VERTEX
  8
0
  6
CONTINUOUS
 10
4.147880
 20
5.610880
  0
SEQEND
  8
0
  0
SOLID
  8
0
 62
    15
 10
4.021160
 20
5.566000
 11
4.664000
 21
5.195080
 12
3.891360
 22
5.508360
 13
4.533760
 23
5.137440
  0
POLYLINE
  8
0
  6
CONTINUOUS
 66
     1
 40
0.000000
 41
0.000000
  0
VERTEX
  8
0
  6
CONTINUOUS
 10
4.021160
 20
5.566000
  0
VERTEX
  8
0
  6
CONTINUOUS
 10
4.664000
 20
5.195080
  0
VERTEX
  8
0
  6
CONTINUOUS
 10
4.533760
 20
5.137440
  0
VERTEX
  8
0
  6
CONTINUOUS
 10
3.891360
 20
5.508360
  0
VERTEX
  8
0
  6
CONTINUOUS
 10
4.021160
 20
5.566000
  0
SEQEND
  8
0
  0
SOLID
  8
0
 62
    15
 10
3.891360
 20
5.508360
 11
4.533760
 21
5.137440
 12
3.827120
 22
5.472720
 13
4.469960
 23
5.101800
  0
POLYLINE
  8
0
  6
CONTINUOUS
 66
     1
 40
0.000000
 41
0.000000
  0
VERTEX
  8
0
  6
CONTINUOUS
 10
3.891360
 20
5.508360
  0
VERTEX
  8
0
  6
CONTINUOUS
 10
4.533760
 20
5.137440
  0
VERTEX
  8
0
  6
CONTINUOUS
 10
4.469960
 20
5.101800
  0
VERTEX
  8
0
  6
CONTINUOUS
 10
3.827120
 20
5.472720
  0
VERTEX
  8
0
  6
CONTINUOUS
 10
3.891360
 20
5.508360
  0
SEQEND
  8
0
  0
SOLID
  8
0
 62
    15
 10
3.827120
 20
5.472720
 11
4.469960
 21
5.101800
 12
3.765080
 22
5.431360
 13
4.407920
 23
5.060880
  0
POLYLINE
  8
0
  6
CONTINUOUS
 66
     1
 40
0.000000
 41
0.000000
  0
VERTEX
  8
0
  6
CONTINUOUS
 10
3.827120
 20
5.472720
  0
VERTEX
  8
0
  6
CONTINUOUS
 10
4.469960
 20
5.101800
  0
VERTEX
  8
0
  6
CONTINUOUS
 10
4.407920
 20
5.060880
  0
VERTEX
  8
0
  6
CONTINUOUS
 10
3.765080
 20
5.431360
  0
VERTEX
  8
0
  6
CONTINUOUS
 10
3.827120
 20
5.472720
  0
SEQEND
  8
0
  0
SOLID
  8
0
 62
    15
 10
3.765080
 20
5.431360
 11
4.407920
 21
5.060880
 12
3.706120
 22
5.384280
 13
4.348960
 23
5.013360
  0
POLYLINE
  8
0
  6
CONTINUOUS
 66
     1
 40
0.000000
 41
0.000000
  0
VERTEX
  8
0
  6
CONTINUOUS
 10
3.765080
 20
5.431360
  0
VERTEX
  8
0
  6
CONTINUOUS
 10
4.407920
 20
5.060880
  0
VERTEX
  8
0
  6
CONTINUOUS
 10
4.348960
 20
5.013360
  0
VERTEX
  8
0
  6
CONTINUOUS
 10
3.706120
 20
5.384280
  0
VERTEX
  8
0
  6
CONTINUOUS
 10
3.765080
 20
5.431360
  0
SEQEND
  8
0
  0
SOLID
  8
0
 62
    15
 10
3.706120
 20
5.384280
 11
4.348960
 21
5.013360
 12
3.651560
 22
5.329280
 13
4.293960
 23
4.958800
  0
POLYLINE
  8
0
  6
CONTINUOUS
 66
     1
 40
0.000000
 41
0.000000
  0
VERTEX
  8
0
  6
CONTINUOUS
 10
3.706120
 20
5.384280
  0
VERTEX
  8
0
  6
CONTINUOUS
 10
4.348960
 20
5.013360
  0
VERTEX
  8
0
  6
CONTINUOUS
 10
4.293960
 20
4.958800
  0
VERTEX
  8
0
  6
CONTINUOUS
 10
3.651560
 20
5.329280
  0
VERTEX
  8
0
  6
CONTINUOUS
 10
3.706120
 20
5.384280
  0
SEQEND
  8
0
  0
SOLID
  8
0
 62
    15
 10
3.651560
 20
5.329280
 11
4.293960
 21
4.958800
 12
3.601400
 22
5.266800
 13
4.244240
 23
4.895880
  0
POLYLINE
  8
0
  6
CONTINUOUS
 66
     1
 40
0.000000
 41
0.000000
  0
VERTEX
  8
0
  6
CONTINUOUS
 10
3.651560
 20
5.329280
  0
VERTEX
  8
0
  6
CONTINUOUS
 10
4.293960
 20
4.958800
  0
VERTEX
  8
0
  6
CONTINUOUS
 10
4.244240
 20
4.895880
  0
VERTEX
  8
0
  6
CONTINUOUS
 10
3.601400
 20
5.266800
  0
VERTEX
  8
0
  6
CONTINUOUS
 10
3.651560
 20
5.329280
  0
SEQEND
  8
0
  0
SOLID
  8
0
 62
    15
 10
3.601400
 20
5.266800
 11
4.244240
 21
4.895880
 12
3.557400
 22
5.195080
 13
4.200240
 23
4.824160
  0
POLYLINE
  8
0
  6
CONTINUOUS
 66
     1
 40
0.000000
 41
0.000000
  0
VERTEX
  8
0
  6
CONTINUOUS
 10
3.601400
 20
5.266800
  0
VERTEX
  8
0
  6
CONTINUOUS
 10
4.244240
 20
4.895880
  0
VERTEX
  8
0
  6
CONTINUOUS
 10
4.200240
 20
4.824160
  0
VERTEX
  8
0
  6
CONTINUOUS
 10
3.557400
 20
5.195080
  0
VERTEX
  8
0
  6
CONTINUOUS
 10
3.601400
 20
5.266800
  0
SEQEND
  8
0
  0
SOLID
  8
0
 62
    15
 10
3.557400
 20
5.195080
 11
4.200240
 21
4.824160
 12
3.520000
 22
5.114120
 13
4.162840
 23
4.743200
  0
POLYLINE
  8
0
  6
CONTINUOUS
 66
     1
 40
0.000000
 41
0.000000
  0
VERTEX
  8
0
  6
CONTINUOUS
 10
3.557400
 20
5.195080
  0
VERTEX
  8
0
  6
CONTINUOUS
 10
4.200240
 20
4.824160
  0
VERTEX
  8
0
  6
CONTINUOUS
 10
4.162840
 20
4.743200
  0
VERTEX
  8
0
  6
CONTINUOUS
 10
3.520000
 20
5.114120
  0
VERTEX
  8
0
  6
CONTINUOUS
 10
3.557400
 20
5.195080
  0
SEQEND
  8
0
  0
SOLID
  8
0
 62
    15
 10
3.520000
 20
5.114120
 11
4.162840
 21
4.743200
 12
3.490520
 22
5.022160
 13
4.133360
 23
4.651680
  0
POLYLINE
  8
0
  6
CONTINUOUS
 66
     1
 40
0.000000
 41
0.000000
  0
VERTEX
  8
0
  6
CONTINUOUS
 10
3.520000
 20
5.114120
  0
VERTEX
  8
0
  6
CONTINUOUS
 10
4.162840
 20
4.743200
  0
VERTEX
  8
0
  6
CONTINUOUS
 10
4.133360
 20
4.651680
  0
VERTEX
  8
0
  6
CONTINUOUS
 10
3.490520
 20
5.022160
  0
VERTEX
  8
0
  6
CONTINUOUS
 10
3.520000
 20
5.114120
  0
SEQEND
  8
0
  0
SOLID
  8
0
 62
    15
 10
3.490520
 20
5.022160
 11
4.133360
 21
4.651680
 12
3.469840
 22
4.919200
 13
4.112680
 23
4.548720
  0
POLYLINE
  8
0
  6
CONTINUOUS
 66
     1
 40
0.000000
 41
0.000000
  0
VERTEX
  8
0
  6
CONTINUOUS
 10
3.490520
 20
5.022160
  0
VERTEX
  8
0
  6
CONTINUOUS
 10
4.133360
 20
4.651680
  0
VERTEX
  8
0
  6
CONTINUOUS
 10
4.112680
 20
4.548720
  0
VERTEX
  8
0
  6
CONTINUOUS
 10
3.469840
 20
4.919200
  0
VERTEX
  8
0
  6
CONTINUOUS
 10
3.490520
 20
5.022160
  0
SEQEND
  8
0
  0
SOLID
  8
0
 62
    15
 10
3.577640
 20
4.763440
 11
4.220480
 21
4.392960
 12
3.604920
 22
4.739680
 13
4.247760
 23
4.369200
  0
POLYLINE
  8
0
  6
CONTINUOUS
 66
     1
 40
0.000000
 41
0.000000
  0
VERTEX
  8
0
  6
CONTINUOUS
 10
3.577640
 20
4.763440
  0
VERTEX
  8
0
  6
CONTINUOUS
 10
4.220480
 20
4.392960
  0
VERTEX
  8
0
  6
CONTINUOUS
 10
4.247760
 20
4.369200
  0
VERTEX
  8
0
  6
CONTINUOUS
 10
3.604920
 20
4.739680
  0
VERTEX
  8
0
  6
CONTINUOUS
 10
3.577640
 20
4.763440
  0
SEQEND
  8
0
  0
SOLID
  8
0
 62
    15
 10
4.263160
 20
5.650040
 11
4.906000
 21
5.279120
 12
4.207720
 22
5.630680
 13
4.850560
 23
5.260200
  0
POLYLINE
  8
0
  6
CONTINUOUS
 66
     1
 40
0.000000
 41
0.000000
  0
VERTEX
  8
0
  6
CONTINUOUS
 10
4.263160
 20
5.650040
  0
VERTEX
  8
0
  6
CONTINUOUS
 10
4.906000
 20
5.279120
  0
VERTEX
  8
0
  6
CONTINUOUS
 10
4.850560
 20
5.260200
  0
VERTEX
  8
0
  6
CONTINUOUS
 10
4.207720
 20
5.630680
  0
VERTEX
  8
0
  6
CONTINUOUS
 10
4.263160
 20
5.650040
  0
SEQEND
  8
0
  0
SOLID
  8
0
 62
    15
 10
3.604920
 20
4.739680
 11
4.247760
 21
4.369200
 12
3.626920
 22
4.712840
 13
4.269760
 23
4.341920
  0
POLYLINE
  8
0
  6
CONTINUOUS
 66
     1
 40
0.000000
 41
0.000000
  0
VERTEX
  8
0
  6
CONTINUOUS
 10
3.604920
 20
4.739680
  0
VERTEX
  8
0
  6
CONTINUOUS
 10
4.247760
 20
4.369200
  0
VERTEX
  8
0
  6
CONTINUOUS
 10
4.269760
 20
4.341920
  0
VERTEX
  8
0
  6
CONTINUOUS
 10
3.626920
 20
4.712840
  0
VERTEX
  8
0
  6
CONTINUOUS
 10
3.604920
 20
4.739680
  0
SEQEND
  8
0
  0
SOLID
  8
0
 62
    15
 10
3.626920
 20
4.712840
 11
4.269760
 21
4.341920
 12
3.642760
 22
4.682920
 13
4.285600
 23
4.312000
  0
POLYLINE
  8
0
  6
CONTINUOUS
 66
     1
 40
0.000000
 41
0.000000
  0
VERTEX
  8
0
  6
CONTINUOUS
 10
3.626920
 20
4.712840
  0
VERTEX
  8
0
  6
CONTINUOUS
 10
4.269760
 20
4.341920
  0
VERTEX
  8
0
  6
CONTINUOUS
 10
4.285600
 20
4.312000
  0
VERTEX
  8
0
  6
CONTINUOUS
 10
3.642760
 20
4.682920
  0
VERTEX
  8
0
  6
CONTINUOUS
 10
3.626920
 20
4.712840
  0
SEQEND
  8
0
  0
SOLID
  8
0
 62
    15
 10
3.642760
 20
4.682920
 11
4.285600
 21
4.312000
 12
3.652880
 22
4.651680
 13
4.295720
 23
4.280760
  0
POLYLINE
  8
0
  6
CONTINUOUS
 66
     1
 40
0.000000
 41
0.000000
  0
VERTEX
  8
0
  6
CONTINUOUS
 10
3.642760
 20
4.682920
  0
VERTEX
  8
0
  6
CONTINUOUS
 10
4.285600
 20
4.312000
  0
VERTEX
  8
0
  6
CONTINUOUS
 10
4.295720
 20
4.280760
  0
VERTEX
  8
0
  6
CONTINUOUS
 10
3.652880
 20
4.651680
  0
VERTEX
  8
0
  6
CONTINUOUS
 10
3.642760
 20
4.682920
  0
SEQEND
  8
0
  0
SOLID
  8
0
 62
    15
 10
3.652880
 20
4.651680
 11
4.295720
 21
4.280760
 12
3.656840
 22
4.619560
 13
4.299680
 23
4.248640
  0
POLYLINE
  8
0
  6
CONTINUOUS
 66
     1
 40
0.000000
 41
0.000000
  0
VERTEX
  8
0
  6
CONTINUOUS
 10
3.652880
 20
4.651680
  0
VERTEX
  8
0
  6
CONTINUOUS
 10
4.295720
 20
4.280760
  0
VERTEX
  8
0
  6
CONTINUOUS
 10
4.299680
 20
4.248640
  0
VERTEX
  8
0
  6
CONTINUOUS
 10
3.656840
 20
4.619560
  0
VERTEX
  8
0
  6
CONTINUOUS
 10
3.652880
 20
4.651680
  0
SEQEND
  8
0
  0
SOLID
  8
0
 62
    15
 10
3.656840
 20
4.619560
 11
4.299680
 21
4.248640
 12
3.655520
 22
4.587880
 13
4.298360
 23
4.216960
  0
POLYLINE
  8
0
  6
CONTINUOUS
 66
     1
 40
0.000000
 41
0.000000
  0
VERTEX
  8
0
  6
CONTINUOUS
 10
3.656840
 20
4.619560
  0
VERTEX
  8
0
  6
CONTINUOUS
 10
4.299680
 20
4.248640
  0
VERTEX
  8
0
  6
CONTINUOUS
 10
4.298360
 20
4.216960
  0
VERTEX
  8
0
  6
CONTINUOUS
 10
3.655520
 20
4.587880
  0
VERTEX
  8
0
  6
CONTINUOUS
 10
3.656840
 20
4.619560
  0
SEQEND
  8
0
  0
SOLID
  8
0
 62
    15
 10
3.655520
 20
4.587880
 11
4.298360
 21
4.216960
 12
3.648480
 22
4.557520
 13
4.291320
 23
4.186600
  0
POLYLINE
  8
0
  6
CONTINUOUS
 66
     1
 40
0.000000
 41
0.000000
  0
VERTEX
  8
0
  6
CONTINUOUS
 10
3.655520
 20
4.587880
  0
VERTEX
  8
0
  6
CONTINUOUS
 10
4.298360
 20
4.216960
  0
VERTEX
  8
0
  6
CONTINUOUS
 10
4.291320
 20
4.186600
  0
VERTEX
  8
0
  6
CONTINUOUS
 10
3.648480
 20
4.557520
  0
VERTEX
  8
0
  6
CONTINUOUS
 10
3.655520
 20
4.587880
  0
SEQEND
  8
0
  0
SOLID
  8
0
 62
    15
 10
3.648480
 20
4.557520
 11
4.291320
 21
4.186600
 12
3.635280
 22
4.528920
 13
4.278120
 23
4.158000
  0
POLYLINE
  8
0
  6
CONTINUOUS
 66
     1
 40
0.000000
 41
0.000000
  0
VERTEX
  8
0
  6
CONTINUOUS
 10
3.648480
 20
4.557520
  0
VERTEX
  8
0
  6
CONTINUOUS
 10
4.291320
 20
4.186600
  0
VERTEX
  8
0
  6
CONTINUOUS
 10
4.278120
 20
4.158000
  0
VERTEX
  8
0
  6
CONTINUOUS
 10
3.635280
 20
4.528920
  0
VERTEX
  8
0
  6
CONTINUOUS
 10
3.648480
 20
4.557520
  0
SEQEND
  8
0
  0
SOLID
  8
0
 62
    15
 10
3.635280
 20
4.528920
 11
4.278120
 21
4.158000
 12
3.616800
 22
4.503400
 13
4.259640
 23
4.132920
  0
POLYLINE
  8
0
  6
CONTINUOUS
 66
     1
 40
0.000000
 41
0.000000
  0
VERTEX
  8
0
  6
CONTINUOUS
 10
3.635280
 20
4.528920
  0
VERTEX
  8
0
  6
CONTINUOUS
 10
4.278120
 20
4.158000
  0
VERTEX
  8
0
  6
CONTINUOUS
 10
4.259640
 20
4.132920
  0
VERTEX
  8
0
  6
CONTINUOUS
 10
3.616800
 20
4.503400
  0
VERTEX
  8
0
  6
CONTINUOUS
 10
3.635280
 20
4.528920
  0
SEQEND
  8
0
  0
SOLID
  8
0
 62
    15
 10
3.616800
 20
4.503400
 11
4.259640
 21
4.132920
 12
3.592600
 22
4.482280
 13
4.235440
 23
4.111360
  0
POLYLINE
  8
0
  6
CONTINUOUS
 66
     1
 40
0.000000
 41
0.000000
  0
VERTEX
  8
0
  6
CONTINUOUS
 10
3.616800
 20
4.503400
  0
VERTEX
  8
0
  6
CONTINUOUS
 10
4.259640
 20
4.132920
  0
VERTEX
  8
0
  6
CONTINUOUS
 10
4.235440
 20
4.111360
  0
VERTEX
  8
0
  6
CONTINUOUS
 10
3.592600
 20
4.482280
  0
VERTEX
  8
0
  6
CONTINUOUS
 10
3.616800
 20
4.503400
  0
SEQEND
  8
0
  0
SOLID
  8
0
 62
    15
 10
3.592600
 20
4.482280
 11
4.235440
 21
4.111360
 12
3.562680
 22
4.466000
 13
4.205520
 23
4.095080
  0
POLYLINE
  8
0
  6
CONTINUOUS
 66
     1
 40
0.000000
 41
0.000000
  0
VERTEX
  8
0
  6
CONTINUOUS
 10
3.592600
 20
4.482280
  0
VERTEX
  8
0
  6
CONTINUOUS
 10
4.235440
 20
4.111360
  0
VERTEX
  8
0
  6
CONTINUOUS
 10
4.205520
 20
4.095080
  0
VERTEX
  8
0
  6
CONTINUOUS
 10
3.562680
 20
4.466000
  0
VERTEX
  8
0
  6
CONTINUOUS
 10
3.592600
 20
4.482280
  0
SEQEND
  8
0
  0
SOLID
  8
0
 62
    15
 10
3.562680
 20
4.466000
 11
4.205520
 21
4.095080
 12
3.527480
 22
4.455440
 13
4.170320
 23
4.084520
  0
POLYLINE
  8
0
  6
CONTINUOUS
 66
     1
 40
0.000000
 41
0.000000
  0
VERTEX
  8
0
  6
CONTINUOUS
 10
3.562680
 20
4.466000
  0
VERTEX
  8
0
  6
CONTINUOUS
 10
4.205520
 20
4.095080
  0
VERTEX
  8
0
  6
CONTINUOUS
 10
4.170320
 20
4.084520
  0
VERTEX
  8
0
  6
CONTINUOUS
 10
3.527480
 20
4.455440
  0
VERTEX
  8
0
  6
CONTINUOUS
 10
3.562680
 20
4.466000
  0
SEQEND
  8
0
  0
SOLID
  8
0
 62
    15
 10
3.527480
 20
4.455440
 11
4.170320
 21
4.084520
 12
3.486560
 22
4.451480
 13
4.129400
 23
4.081000
  0
POLYLINE
  8
0
  6
CONTINUOUS
 66
     1
 40
0.000000
 41
0.000000
  0
VERTEX
  8
0
  6
CONTINUOUS
 10
3.527480
 20
4.455440
  0
VERTEX
  8
0
  6
CONTINUOUS
 10
4.170320
 20
4.084520
  0
VERTEX
  8
0
  6
CONTINUOUS
 10
4.129400
 20
4.081000
  0
VERTEX
  8
0
  6
CONTINUOUS
 10
3.486560
 20
4.451480
  0
VERTEX
  8
0
  6
CONTINUOUS
 10
3.527480
 20
4.455440
  0
SEQEND
  8
0
  0
SOLID
  8
0
 62
    15
 10
3.486560
 20
4.451480
 11
4.129400
 21
4.081000
 12
3.207160
 22
4.451480
 13
3.850000
 23
4.081000
  0
POLYLINE
  8
0
  6
CONTINUOUS
 66
     1
 40
0.000000
 41
0.000000
  0
VERTEX
  8
0
  6
CONTINUOUS
 10
3.486560
 20
4.451480
  0
VERTEX
  8
0
  6
CONTINUOUS
 10
4.129400
 20
4.081000
  0
VERTEX
  8
0
  6
CONTINUOUS
 10
3.850000
 20
4.081000
  0
VERTEX
  8
0
  6
CONTINUOUS
 10
3.207160
 20
4.451480
  0
VERTEX
  8
0
  6
CONTINUOUS
 10
3.486560
 20
4.451480
  0
SEQEND
  8
0
  0
SOLID
  8
0
 62
    15
 10
4.263160
 20
6.028000
 11
4.906000
 21
5.657080
 12
4.263160
 22
5.650040
 13
4.906000
 23
5.279120
  0
POLYLINE
  8
0
  6
CONTINUOUS
 66
     1
 40
0.000000
 41
0.000000
  0
VERTEX
  8
0
  6
CONTINUOUS
 10
4.263160
 20
6.028000
  0
VERTEX
  8
0
  6
CONTINUOUS
 10
4.906000
 20
5.657080
  0
VERTEX
  8
0
  6
CONTINUOUS
 10
4.906000
 20
5.279120
  0
VERTEX
  8
0
  6
CONTINUOUS
 10
4.263160
 20
5.650040
  0
VERTEX
  8
0
  6
CONTINUOUS
 10
4.263160
 20
6.028000
  0
SEQEND
  8
0
  0
POLYLINE
  8
0
  6
CONTINUOUS
 66
     1
 40
0.000000
 41
0.000000
  0
VERTEX
  8
0
  6
CONTINUOUS
 10
4.263160
 20
5.650040
  0
VERTEX
  8
0
  6
CONTINUOUS
 10
4.207720
 20
5.630680
  0
VERTEX
  8
0
  6
CONTINUOUS
 10
4.147880
 20
5.610880
  0
VERTEX
  8
0
  6
CONTINUOUS
 10
4.021160
 20
5.566000
  0
VERTEX
  8
0
  6
CONTINUOUS
 10
3.891360
 20
5.508360
  0
VERTEX
  8
0
  6
CONTINUOUS
 10
3.827120
 20
5.472720
  0
VERTEX
  8
0
  6
CONTINUOUS
 10
3.765080
 20
5.431360
  0
VERTEX
  8
0
  6
CONTINUOUS
 10
3.706120
 20
5.384280
  0
VERTEX
  8
0
  6
CONTINUOUS
 10
3.651560
 20
5.329280
  0
VERTEX
  8
0
  6
CONTINUOUS
 10
3.601400
 20
5.266800
  0
VERTEX
  8
0
  6
CONTINUOUS
 10
3.557400
 20
5.195080
  0
VERTEX
  8
0
  6
CONTINUOUS
 10
3.520000
 20
5.114120
  0
VERTEX
  8
0
  6
CONTINUOUS
 10
3.490520
 20
5.022160
  0
VERTEX
  8
0
  6
CONTINUOUS
 10
3.469840
 20
4.919200
  0
VERTEX
  8
0
  6
CONTINUOUS
 10
3.459280
 20
4.804360
  0
VERTEX
  8
0
  6
CONTINUOUS
 10
3.504600
 20
4.796880
  0
VERTEX
  8
0
  6
CONTINUOUS
 10
3.544200
 20
4.782800
  0
VERTEX
  8
0
  6
CONTINUOUS
 10
3.577640
 20
4.763440
  0
VERTEX
  8
0
  6
CONTINUOUS
 10
3.604920
 20
4.739680
  0
VERTEX
  8
0
  6
CONTINUOUS
 10
3.626920
 20
4.712840
  0
VERTEX
  8
0
  6
CONTINUOUS
 10
3.642760
 20
4.682920
  0
VERTEX
  8
0
  6
CONTINUOUS
 10
3.652880
 20
4.651680
  0
VERTEX
  8
0
  6
CONTINUOUS
 10
3.656840
 20
4.619560
  0
VERTEX
  8
0
  6
CONTINUOUS
 10
3.655520
 20
4.587880
  0
VERTEX
  8
0
  6
CONTINUOUS
 10
3.648480
 20
4.557520
  0
VERTEX
  8
0
  6
CONTINUOUS
 10
3.635280
 20
4.528920
  0
VERTEX
  8
0
  6
CONTINUOUS
 10
3.616800
 20
4.503400
  0
VERTEX
  8
0
  6
CONTINUOUS
 10
3.592600
 20
4.482280
  0
VERTEX
  8
0
  6
CONTINUOUS
 10
3.562680
 20
4.466000
  0
VERTEX
  8
0
  6
CONTINUOUS
 10
3.527480
 20
4.455440
  0
VERTEX
  8
0
  6
CONTINUOUS
 10
3.486560
 20
4.451480
  0
VERTEX
  8
0
  6
CONTINUOUS
 10
3.207160
 20
4.451480
  0
VERTEX
  8
0
  6
CONTINUOUS
 10
3.207160
 20
6.028000
  0
VERTEX
  8
0
  6
CONTINUOUS
 10
4.263160
 20
6.028000
  0
VERTEX
  8
0
  6
CONTINUOUS
 10
4.263160
 20
5.650040
  0
SEQEND
  8
0
  0
TEXT
  8
0
 10
3.661240
 20
3.817000
 40
0.138135
  1
BA  1174
 41
1.000000
  7
SN0
 71
     0
 72
     5
 11
4.342641
 21
3.817000
  0
TEXT
  8
0
 10
3.385360
 20
3.625600
 40
0.138135
  1
1-1/16" x 1-9/16"  
 41
1.000000
  7
SN0
 71
     0
 72
     5
 11
4.706945
 21
3.625600
  0
POLYLINE
  8
0
  6
CONTINUOUS
 66
     1
 40
0.014080
 41
0.014080
  0
VERTEX
  8
0
  6
CONTINUOUS
 10
5.716480
 20
5.598560
  0
VERTEX
  8
0
  6
CONTINUOUS
 10
5.788640
 20
5.389120
  0
VERTEX
  8
0
  6
CONTINUOUS
 10
5.813720
 20
5.324000
  0
VERTEX
  8
0
  6
CONTINUOUS
 10
5.842320
 20
5.258880
  0
VERTEX
  8
0
  6
CONTINUOUS
 10
5.875320
 20
5.194200
  0
VERTEX
  8
0
  6
CONTINUOUS
 10
5.913600
 20
5.131280
  0
VERTEX
  8
0
  6
CONTINUOUS
 10
5.958040
 20
5.070560
  0
VERTEX
  8
0
  6
CONTINUOUS
 10
5.982680
 20
5.041520
  0
VERTEX
  8
0
  6
CONTINUOUS
 10
6.037240
 20
4.986520
  0
VERTEX
  8
0
  6
CONTINUOUS
 10
6.083440
 20
4.948680
  0
VERTEX
  8
0
  6
CONTINUOUS
 10
6.134480
 20
4.913920
  0
VERTEX
  8
0
  6
CONTINUOUS
 10
6.171440
 20
4.892360
  0
VERTEX
  8
0
  6
CONTINUOUS
 10
6.231280
 20
4.863760
  0
VERTEX
  8
0
  6
CONTINUOUS
 10
6.274400
 20
4.847040
  0
VERTEX
  8
0
  6
CONTINUOUS
 10
6.344360
 20
4.825920
  0
VERTEX
  8
0
  6
CONTINUOUS
 10
6.394080
 20
4.814480
  0
VERTEX
  8
0
  6
CONTINUOUS
 10
6.447320
 20
4.805240
  0
VERTEX
  8
0
  6
CONTINUOUS
 10
6.503200
 20
4.798640
  0
VERTEX
  8
0
  6
CONTINUOUS
 10
6.562160
 20
4.794680
  0
VERTEX
  8
0
  6
CONTINUOUS
 10
6.565240
 20
4.818000
  0
VERTEX
  8
0
  6
CONTINUOUS
 10
6.569640
 20
4.840000
  0
VERTEX
  8
0
  6
CONTINUOUS
 10
6.583720
 20
4.879600
  0
VERTEX
  8
0
  6
CONTINUOUS
 10
6.603080
 20
4.913040
  0
VERTEX
  8
0
  6
CONTINUOUS
 10
6.626840
 20
4.940320
  0
VERTEX
  8
0
  6
CONTINUOUS
 10
6.640040
 20
4.952200
  0
VERTEX
  8
0
  6
CONTINUOUS
 10
6.668640
 20
4.970680
  0
VERTEX
  8
0
  6
CONTINUOUS
 10
6.683600
 20
4.978160
  0
VERTEX
  8
0
  6
CONTINUOUS
 10
6.699000
 20
4.983880
  0
VERTEX
  8
0
  6
CONTINUOUS
 10
6.731120
 20
4.990920
  0
VERTEX
  8
0
  6
CONTINUOUS
 10
6.762800
 20
4.992240
  0
VERTEX
  8
0
  6
CONTINUOUS
 10
6.778640
 20
4.990920
  0
VERTEX
  8
0
  6
CONTINUOUS
 10
6.809440
 20
4.983440
  0
VERTEX
  8
0
  6
CONTINUOUS
 10
6.837600
 20
4.970680
  0
VERTEX
  8
0
  6
CONTINUOUS
 10
6.863120
 20
4.951760
  0
VERTEX
  8
0
  6
CONTINUOUS
 10
6.874120
 20
4.940760
  0
VERTEX
  8
0
  6
CONTINUOUS
 10
6.893480
 20
4.913480
  0
VERTEX
  8
0
  6
CONTINUOUS
 10
6.900960
 20
4.898080
  0
VERTEX
  8
0
  6
CONTINUOUS
 10
6.911520
 20
4.862440
  0
VERTEX
  8
0
  6
CONTINUOUS
 10
6.914160
 20
4.842640
  0
VERTEX
  8
0
  6
CONTINUOUS
 10
6.915040
 20
4.821520
  0
VERTEX
  8
0
  6
CONTINUOUS
 10
6.915040
 20
4.542560
  0
VERTEX
  8
0
  6
CONTINUOUS
 10
5.338960
 20
4.542560
  0
VERTEX
  8
0
  6
CONTINUOUS
 10
5.338960
 20
5.598560
  0
VERTEX
  8
0
  6
CONTINUOUS
 10
5.716480
 20
5.598560
  0
SEQEND
  8
0
  0
TEXT
  8
0
 10
5.757400
 20
4.313760
 40
0.138135
  1
BA  1174
 41
1.000000
  7
SN0
 71
     0
 72
     5
 11
6.438801
 21
4.313760
  0
TEXT
  8
0
 10
5.481520
 20
4.121920
 40
0.138135
  1
1-1/16" x 1-9/16"  
 41
1.000000
  7
SN0
 71
     0
 72
     5
 11
6.803105
 21
4.121920
  0
ENDSEC
  0
EOF
