  0
SECTION
  2
HEADER
  9
$ACADVER
  1
AC1006
  9
$EXTMIN
 10
1.829520
 20
0.743600
  9
$EXTMAX
 10
6.837160
 20
7.578560
  9
$LTSCALE
 40
0.044000
  9
$PDMODE
 70
    35
  9
$PDSIZE
 40
0.035200
  0
ENDSEC
  0
SECTION
  2
TABLES
  0
TABLE
  2
LTYPE
 70
     9
  0
LTYPE
  2
CONTINUOUS
 70
    64
  3
Solid line
 72
    65
 73
     0
 40
0.000000
  0
LTYPE
  2
DASHED
 70
    64
  3
__ __ __ __ __ __ __ __ __ __ __ __ __ __ __
 72
    65
 73
     2
 40
0.000330
 49
0.000220
 49
-0.000110
  0
LTYPE
  2
HIDDEN
 70
    64
  3
 _ _ _ _ _ _ _ _ _ _ _ _ _ _ _ _ _ _ _ _ _ _
 72
    65
 73
     2
 40
0.000165
 49
0.000110
 49
-0.000055
  0
LTYPE
  2
CENTER
 70
    64
  3
____ _ ____ _ ____ _ ____ _ ____ _ ____ _ ____
 72
    65
 73
     4
 40
0.000880
 49
0.000550
 49
-0.000110
 49
0.000110
 49
-0.000110
  0
LTYPE
  2
PHANTOM
 70
    64
  3
_____ _ _ _____ _ _ _____ _ _ _____ _ _ ____
 72
    65
 73
     6
 40
0.001100
 49
0.000550
 49
-0.000110
 49
0.000110
 49
-0.000110
 49
0.000110
 49
-0.000110
  0
LTYPE
  2
DOT
 70
    64
  3
...............................................
 72
    65
 73
     2
 40
0.000110
 49
0.000000
 49
-0.000110
  0
LTYPE
  2
DASHDOT
 70
    64
  3
__ . __ . __ . __ . __ . __ . __ . __ . __ . __
 72
    65
 73
     4
 40
0.000440
 49
0.000220
 49
-0.000110
 49
0.000000
 49
-0.000110
  0
LTYPE
  2
BORDER
 70
    64
  3
__ __ . __ __ . __ __ . __ __ . __ __ . __ __
 72
    65
 73
     6
 40
0.000770
 49
0.000220
 49
-0.000110
 49
0.000220
 49
-0.000110
 49
0.000000
 49
-0.000110
  0
LTYPE
  2
DIVIDE
 70
    64
  3
__ . . __ . . __ . . __ . . __ . . __ . . __
 72
    65
 73
     6
 40
0.000550
 49
0.000220
 49
-0.000110
 49
0.000000
 49
-0.000110
 49
0.000000
 49
-0.000110
  0
LTYPE
  2
DOTDOT
 70
    64
  3
 . .  . .  . .  . .  . .  . . 
 72
    65
 73
     5
 40
0.000242
 49
-0.000110
 49
0.000000
 49
-0.000110
 49
0.000000
 49
-0.000110
  0
ENDTAB
  0
TABLE
  2
STYLE
 70
     2
  0
STYLE
 70
     0
  2
SN0
 40
0.000000
 41
0.000440
 50
0.000000
 71
     0
 42
0.000000
  3
ROMAND
  0
STYLE
 70
    68
  2
SV0
 40
0.000000
 41
0.000440
 50
0.000000
 71
     0
 42
0.000000
  3
ROMAND
  0
ENDTAB
  0
TABLE
  2
LAYER
 70
     3
  0
LAYER
  2
FOREGROUND
 70
    64
 62
     7
  6
CONTINUOUS
  0
LAYER
  2
BACKGROUND
 70
    65
 62
    -7
  6
CONTINUOUS
  0
LAYER
  2
0
 70
    64
 62
     7
  6
CONTINUOUS
  0
ENDTAB
  0
ENDSEC
  0
SECTION
  2
ENTITIES
  0
POLYLINE
  8
FOREGROUND
  6
CONTINUOUS
 66
     1
 40
0.000000
 41
0.000000
  0
VERTEX
  8
FOREGROUND
  6
CONTINUOUS
 10
0.000000
 20
8.322160
  0
VERTEX
  8
FOREGROUND
  6
CONTINUOUS
 10
8.499920
 20
8.322160
  0
VERTEX
  8
FOREGROUND
  6
CONTINUOUS
 10
8.499920
 20
-2.677840
  0
VERTEX
  8
FOREGROUND
  6
CONTINUOUS
 10
0.000000
 20
-2.677840
  0
VERTEX
  8
FOREGROUND
  6
CONTINUOUS
 10
0.000000
 20
8.322160
  0
SEQEND
  8
0
  0
POLYLINE
  8
FOREGROUND
  6
CONTINUOUS
 66
     1
 40
0.000000
 41
0.000000
  0
VERTEX
  8
FOREGROUND
  6
CONTINUOUS
 10
0.000000
 20
8.322160
  0
VERTEX
  8
FOREGROUND
  6
CONTINUOUS
 10
8.499920
 20
8.322160
  0
VERTEX
  8
FOREGROUND
  6
CONTINUOUS
 10
8.499920
 20
-2.677840
  0
VERTEX
  8
FOREGROUND
  6
CONTINUOUS
 10
0.000000
 20
-2.677840
  0
VERTEX
  8
FOREGROUND
  6
CONTINUOUS
 10
0.000000
 20
8.322160
  0
SEQEND
  8
0
  0
POLYLINE
  8
0
  6
CONTINUOUS
 66
     1
 40
0.000000
 41
0.000000
  0
VERTEX
  8
0
  6
CONTINUOUS
 10
6.670400
 20
2.317040
  0
VERTEX
  8
0
  6
CONTINUOUS
 10
6.829680
 20
2.317040
  0
VERTEX
  8
0
  6
CONTINUOUS
 10
6.829680
 20
3.164920
  0
VERTEX
  8
0
  6
CONTINUOUS
 10
5.931200
 20
3.164920
  0
VERTEX
  8
0
  6
CONTINUOUS
 10
5.903040
 20
3.075160
  0
VERTEX
  8
0
  6
CONTINUOUS
 10
5.696680
 20
3.074280
  0
VERTEX
  8
0
  6
CONTINUOUS
 10
5.568200
 20
3.071640
  0
VERTEX
  8
0
  6
CONTINUOUS
 10
5.396160
 20
3.064160
  0
VERTEX
  8
0
  6
CONTINUOUS
 10
5.275600
 20
3.056680
  0
VERTEX
  8
0
  6
CONTINUOUS
 10
5.153720
 20
3.045680
  0
VERTEX
  8
0
  6
CONTINUOUS
 10
5.033600
 20
3.031160
  0
VERTEX
  8
0
  6
CONTINUOUS
 10
4.917880
 20
3.012240
  0
VERTEX
  8
0
  6
CONTINUOUS
 10
4.836040
 20
2.995520
  0
VERTEX
  8
0
  6
CONTINUOUS
 10
4.759920
 20
2.975720
  0
VERTEX
  8
0
  6
CONTINUOUS
 10
4.689960
 20
2.952840
  0
VERTEX
  8
0
  6
CONTINUOUS
 10
4.628800
 20
2.926880
  0
VERTEX
  8
0
  6
CONTINUOUS
 10
4.576440
 20
2.897400
  0
VERTEX
  8
0
  6
CONTINUOUS
 10
4.547400
 20
2.875400
  0
VERTEX
  8
0
  6
CONTINUOUS
 10
4.523200
 20
2.852080
  0
VERTEX
  8
0
  6
CONTINUOUS
 10
4.504720
 20
2.827000
  0
VERTEX
  8
0
  6
CONTINUOUS
 10
4.491960
 20
2.800160
  0
VERTEX
  8
0
  6
CONTINUOUS
 10
4.485360
 20
2.771120
  0
VERTEX
  8
0
  6
CONTINUOUS
 10
4.484480
 20
2.756160
  0
VERTEX
  8
0
  6
CONTINUOUS
 10
4.139520
 20
2.756160
  0
VERTEX
  8
0
  6
CONTINUOUS
 10
4.127640
 20
2.793120
  0
VERTEX
  8
0
  6
CONTINUOUS
 10
4.110480
 20
2.827440
  0
VERTEX
  8
0
  6
CONTINUOUS
 10
4.087600
 20
2.857800
  0
VERTEX
  8
0
  6
CONTINUOUS
 10
4.074400
 20
2.871880
  0
VERTEX
  8
0
  6
CONTINUOUS
 10
4.044920
 20
2.895640
  0
VERTEX
  8
0
  6
CONTINUOUS
 10
4.011480
 20
2.914560
  0
VERTEX
  8
0
  6
CONTINUOUS
 10
3.993440
 20
2.922040
  0
VERTEX
  8
0
  6
CONTINUOUS
 10
3.955600
 20
2.932160
  0
VERTEX
  8
0
  6
CONTINUOUS
 10
3.935800
 20
2.934800
  0
VERTEX
  8
0
  6
CONTINUOUS
 10
3.915560
 20
2.935680
  0
VERTEX
  8
0
  6
CONTINUOUS
 10
3.895320
 20
2.934800
  0
VERTEX
  8
0
  6
CONTINUOUS
 10
3.875520
 20
2.932160
  0
VERTEX
  8
0
  6
CONTINUOUS
 10
3.837680
 20
2.922040
  0
VERTEX
  8
0
  6
CONTINUOUS
 10
3.802480
 20
2.905760
  0
VERTEX
  8
0
  6
CONTINUOUS
 10
3.770800
 20
2.884200
  0
VERTEX
  8
0
  6
CONTINUOUS
 10
3.756720
 20
2.871880
  0
VERTEX
  8
0
  6
CONTINUOUS
 10
3.731640
 20
2.843280
  0
VERTEX
  8
0
  6
CONTINUOUS
 10
3.720640
 20
2.827440
  0
VERTEX
  8
0
  6
CONTINUOUS
 10
3.703040
 20
2.793120
  0
VERTEX
  8
0
  6
CONTINUOUS
 10
3.696440
 20
2.775080
  0
VERTEX
  8
0
  6
CONTINUOUS
 10
3.691600
 20
2.756160
  0
VERTEX
  8
0
  6
CONTINUOUS
 10
3.349720
 20
2.756160
  0
VERTEX
  8
0
  6
CONTINUOUS
 10
3.347080
 20
2.741640
  0
VERTEX
  8
0
  6
CONTINUOUS
 10
3.338280
 20
2.721840
  0
VERTEX
  8
0
  6
CONTINUOUS
 10
3.322880
 20
2.704240
  0
VERTEX
  8
0
  6
CONTINUOUS
 10
3.301760
 20
2.688840
  0
VERTEX
  8
0
  6
CONTINUOUS
 10
3.275360
 20
2.674760
  0
VERTEX
  8
0
  6
CONTINUOUS
 10
3.233120
 20
2.659360
  0
VERTEX
  8
0
  6
CONTINUOUS
 10
3.183840
 20
2.647040
  0
VERTEX
  8
0
  6
CONTINUOUS
 10
3.128840
 20
2.636920
  0
VERTEX
  8
0
  6
CONTINUOUS
 10
3.037320
 20
2.625920
  0
VERTEX
  8
0
  6
CONTINUOUS
 10
2.972640
 20
2.621520
  0
VERTEX
  8
0
  6
CONTINUOUS
 10
2.906200
 20
2.618000
  0
VERTEX
  8
0
  6
CONTINUOUS
 10
2.740320
 20
2.614920
  0
VERTEX
  8
0
  6
CONTINUOUS
 10
2.537480
 20
2.615800
  0
VERTEX
  8
0
  6
CONTINUOUS
 10
2.522080
 20
2.648800
  0
VERTEX
  8
0
  6
CONTINUOUS
 10
2.501840
 20
2.678720
  0
VERTEX
  8
0
  6
CONTINUOUS
 10
2.477640
 20
2.705560
  0
VERTEX
  8
0
  6
CONTINUOUS
 10
2.449920
 20
2.728440
  0
VERTEX
  8
0
  6
CONTINUOUS
 10
2.418680
 20
2.746920
  0
VERTEX
  8
0
  6
CONTINUOUS
 10
2.385240
 20
2.761000
  0
VERTEX
  8
0
  6
CONTINUOUS
 10
2.348720
 20
2.769360
  0
VERTEX
  8
0
  6
CONTINUOUS
 10
2.310440
 20
2.772440
  0
VERTEX
  8
0
  6
CONTINUOUS
 10
2.272600
 20
2.769360
  0
VERTEX
  8
0
  6
CONTINUOUS
 10
2.236520
 20
2.761000
  0
VERTEX
  8
0
  6
CONTINUOUS
 10
2.202640
 20
2.746920
  0
VERTEX
  8
0
  6
CONTINUOUS
 10
2.171400
 20
2.728440
  0
VERTEX
  8
0
  6
CONTINUOUS
 10
2.143680
 20
2.705560
  0
VERTEX
  8
0
  6
CONTINUOUS
 10
2.119480
 20
2.678720
  0
VERTEX
  8
0
  6
CONTINUOUS
 10
2.099240
 20
2.648800
  0
VERTEX
  8
0
  6
CONTINUOUS
 10
2.083840
 20
2.615800
  0
VERTEX
  8
0
  6
CONTINUOUS
 10
1.837440
 20
2.615800
  0
VERTEX
  8
0
  6
CONTINUOUS
 10
1.837440
 20
2.315720
  0
VERTEX
  8
0
  6
CONTINUOUS
 10
6.671280
 20
2.315720
  0
VERTEX
  8
0
  6
CONTINUOUS
 10
6.670400
 20
2.317040
  0
SEQEND
  8
0
  0
POLYLINE
  8
0
  6
CONTINUOUS
 66
     1
 40
0.000000
 41
0.000000
  0
VERTEX
  8
0
  6
CONTINUOUS
 10
1.996720
 20
0.744920
  0
VERTEX
  8
0
  6
CONTINUOUS
 10
1.837440
 20
0.744920
  0
VERTEX
  8
0
  6
CONTINUOUS
 10
1.837440
 20
1.592800
  0
VERTEX
  8
0
  6
CONTINUOUS
 10
2.735480
 20
1.592800
  0
VERTEX
  8
0
  6
CONTINUOUS
 10
2.764080
 20
1.503480
  0
VERTEX
  8
0
  6
CONTINUOUS
 10
2.970440
 20
1.502600
  0
VERTEX
  8
0
  6
CONTINUOUS
 10
3.154800
 20
1.497760
  0
VERTEX
  8
0
  6
CONTINUOUS
 10
3.330800
 20
1.488960
  0
VERTEX
  8
0
  6
CONTINUOUS
 10
3.452240
 20
1.479720
  0
VERTEX
  8
0
  6
CONTINUOUS
 10
3.573680
 20
1.466960
  0
VERTEX
  8
0
  6
CONTINUOUS
 10
3.692040
 20
1.450240
  0
VERTEX
  8
0
  6
CONTINUOUS
 10
3.749240
 20
1.440560
  0
VERTEX
  8
0
  6
CONTINUOUS
 10
3.831080
 20
1.423400
  0
VERTEX
  8
0
  6
CONTINUOUS
 10
3.907200
 20
1.403600
  0
VERTEX
  8
0
  6
CONTINUOUS
 10
3.977160
 20
1.380720
  0
VERTEX
  8
0
  6
CONTINUOUS
 10
4.038320
 20
1.354760
  0
VERTEX
  8
0
  6
CONTINUOUS
 10
4.090680
 20
1.325280
  0
VERTEX
  8
0
  6
CONTINUOUS
 10
4.119720
 20
1.303280
  0
VERTEX
  8
0
  6
CONTINUOUS
 10
4.143920
 20
1.279960
  0
VERTEX
  8
0
  6
CONTINUOUS
 10
4.162400
 20
1.254880
  0
VERTEX
  8
0
  6
CONTINUOUS
 10
4.175160
 20
1.228040
  0
VERTEX
  8
0
  6
CONTINUOUS
 10
4.181760
 20
1.199000
  0
VERTEX
  8
0
  6
CONTINUOUS
 10
4.182640
 20
1.184040
  0
VERTEX
  8
0
  6
CONTINUOUS
 10
4.527600
 20
1.184040
  0
VERTEX
  8
0
  6
CONTINUOUS
 10
4.532440
 20
1.202960
  0
VERTEX
  8
0
  6
CONTINUOUS
 10
4.539040
 20
1.221000
  0
VERTEX
  8
0
  6
CONTINUOUS
 10
4.556640
 20
1.255320
  0
VERTEX
  8
0
  6
CONTINUOUS
 10
4.579520
 20
1.285680
  0
VERTEX
  8
0
  6
CONTINUOUS
 10
4.592720
 20
1.299760
  0
VERTEX
  8
0
  6
CONTINUOUS
 10
4.622200
 20
1.323520
  0
VERTEX
  8
0
  6
CONTINUOUS
 10
4.655640
 20
1.342440
  0
VERTEX
  8
0
  6
CONTINUOUS
 10
4.673680
 20
1.349920
  0
VERTEX
  8
0
  6
CONTINUOUS
 10
4.711520
 20
1.360040
  0
VERTEX
  8
0
  6
CONTINUOUS
 10
4.731320
 20
1.362680
  0
VERTEX
  8
0
  6
CONTINUOUS
 10
4.751560
 20
1.363560
  0
VERTEX
  8
0
  6
CONTINUOUS
 10
4.771800
 20
1.362680
  0
VERTEX
  8
0
  6
CONTINUOUS
 10
4.791600
 20
1.360040
  0
VERTEX
  8
0
  6
CONTINUOUS
 10
4.829440
 20
1.349920
  0
VERTEX
  8
0
  6
CONTINUOUS
 10
4.864640
 20
1.333640
  0
VERTEX
  8
0
  6
CONTINUOUS
 10
4.880920
 20
1.323520
  0
VERTEX
  8
0
  6
CONTINUOUS
 10
4.910400
 20
1.299760
  0
VERTEX
  8
0
  6
CONTINUOUS
 10
4.935480
 20
1.271160
  0
VERTEX
  8
0
  6
CONTINUOUS
 10
4.946480
 20
1.255320
  0
VERTEX
  8
0
  6
CONTINUOUS
 10
4.963640
 20
1.221000
  0
VERTEX
  8
0
  6
CONTINUOUS
 10
4.975520
 20
1.184040
  0
VERTEX
  8
0
  6
CONTINUOUS
 10
5.317400
 20
1.184040
  0
VERTEX
  8
0
  6
CONTINUOUS
 10
5.320040
 20
1.169520
  0
VERTEX
  8
0
  6
CONTINUOUS
 10
5.328840
 20
1.149720
  0
VERTEX
  8
0
  6
CONTINUOUS
 10
5.344240
 20
1.132120
  0
VERTEX
  8
0
  6
CONTINUOUS
 10
5.365360
 20
1.116720
  0
VERTEX
  8
0
  6
CONTINUOUS
 10
5.391760
 20
1.102640
  0
VERTEX
  8
0
  6
CONTINUOUS
 10
5.434000
 20
1.087240
  0
VERTEX
  8
0
  6
CONTINUOUS
 10
5.483280
 20
1.074920
  0
VERTEX
  8
0
  6
CONTINUOUS
 10
5.538280
 20
1.064800
  0
VERTEX
  8
0
  6
CONTINUOUS
 10
5.629800
 20
1.053800
  0
VERTEX
  8
0
  6
CONTINUOUS
 10
5.760920
 20
1.045880
  0
VERTEX
  8
0
  6
CONTINUOUS
 10
5.926800
 20
1.042800
  0
VERTEX
  8
0
  6
CONTINUOUS
 10
6.129640
 20
1.043680
  0
VERTEX
  8
0
  6
CONTINUOUS
 10
6.145040
 20
1.076680
  0
VERTEX
  8
0
  6
CONTINUOUS
 10
6.165280
 20
1.106600
  0
VERTEX
  8
0
  6
CONTINUOUS
 10
6.176720
 20
1.120680
  0
VERTEX
  8
0
  6
CONTINUOUS
 10
6.202680
 20
1.145320
  0
VERTEX
  8
0
  6
CONTINUOUS
 10
6.232160
 20
1.166000
  0
VERTEX
  8
0
  6
CONTINUOUS
 10
6.264720
 20
1.182280
  0
VERTEX
  8
0
  6
CONTINUOUS
 10
6.282320
 20
1.188880
  0
VERTEX
  8
0
  6
CONTINUOUS
 10
6.318400
 20
1.197240
  0
VERTEX
  8
0
  6
CONTINUOUS
 10
6.356240
 20
1.200320
  0
VERTEX
  8
0
  6
CONTINUOUS
 10
6.376040
 20
1.199440
  0
VERTEX
  8
0
  6
CONTINUOUS
 10
6.413000
 20
1.193720
  0
VERTEX
  8
0
  6
CONTINUOUS
 10
6.431040
 20
1.188880
  0
VERTEX
  8
0
  6
CONTINUOUS
 10
6.464480
 20
1.174800
  0
VERTEX
  8
0
  6
CONTINUOUS
 10
6.495720
 20
1.156320
  0
VERTEX
  8
0
  6
CONTINUOUS
 10
6.523440
 20
1.133440
  0
VERTEX
  8
0
  6
CONTINUOUS
 10
6.536200
 20
1.120680
  0
VERTEX
  8
0
  6
CONTINUOUS
 10
6.558200
 20
1.092080
  0
VERTEX
  8
0
  6
CONTINUOUS
 10
6.576240
 20
1.060400
  0
VERTEX
  8
0
  6
CONTINUOUS
 10
6.583280
 20
1.043680
  0
VERTEX
  8
0
  6
CONTINUOUS
 10
6.829680
 20
1.043680
  0
VERTEX
  8
0
  6
CONTINUOUS
 10
6.829680
 20
0.743600
  0
VERTEX
  8
0
  6
CONTINUOUS
 10
1.995840
 20
0.743600
  0
VERTEX
  8
0
  6
CONTINUOUS
 10
1.996720
 20
0.744920
  0
SEQEND
  8
0
  0
SOLID
  8
0
 62
    15
 10
4.897640
 20
4.971120
 11
4.894560
 21
5.711200
 12
4.924920
 22
4.944720
 13
4.922280
 23
5.684800
  0
POLYLINE
  8
0
  6
CONTINUOUS
 66
     1
 40
0.000000
 41
0.000000
  0
VERTEX
  8
0
  6
CONTINUOUS
 10
4.897640
 20
4.971120
  0
VERTEX
  8
0
  6
CONTINUOUS
 10
4.894560
 20
5.711200
  0
VERTEX
  8
0
  6
CONTINUOUS
 10
4.922280
 20
5.684800
  0
VERTEX
  8
0
  6
CONTINUOUS
 10
4.924920
 20
4.944720
  0
VERTEX
  8
0
  6
CONTINUOUS
 10
4.897640
 20
4.971120
  0
SEQEND
  8
0
  0
SOLID
  8
0
 62
    15
 10
1.838760
 20
4.403520
 11
1.835680
 21
5.143600
 12
1.838760
 22
5.251840
 13
1.835680
 23
5.991920
  0
POLYLINE
  8
0
  6
CONTINUOUS
 66
     1
 40
0.000000
 41
0.000000
  0
VERTEX
  8
0
  6
CONTINUOUS
 10
1.838760
 20
4.403520
  0
VERTEX
  8
0
  6
CONTINUOUS
 10
1.835680
 20
5.143600
  0
VERTEX
  8
0
  6
CONTINUOUS
 10
1.835680
 20
5.991920
  0
VERTEX
  8
0
  6
CONTINUOUS
 10
1.838760
 20
5.251840
  0
VERTEX
  8
0
  6
CONTINUOUS
 10
1.838760
 20
4.403520
  0
SEQEND
  8
0
  0
SOLID
  8
0
 62
     7
 10
2.737240
 20
5.251840
 11
2.734160
 21
5.991920
 12
2.765840
 22
5.162080
 13
2.762760
 23
5.902160
  0
POLYLINE
  8
0
  6
CONTINUOUS
 66
     1
 40
0.000000
 41
0.000000
  0
VERTEX
  8
0
  6
CONTINUOUS
 10
2.737240
 20
5.251840
  0
VERTEX
  8
0
  6
CONTINUOUS
 10
2.734160
 20
5.991920
  0
VERTEX
  8
0
  6
CONTINUOUS
 10
2.762760
 20
5.902160
  0
VERTEX
  8
0
  6
CONTINUOUS
 10
2.765840
 20
5.162080
  0
VERTEX
  8
0
  6
CONTINUOUS
 10
2.737240
 20
5.251840
  0
SEQEND
  8
0
  0
SOLID
  8
0
 62
    15
 10
2.765840
 20
5.162080
 11
2.762760
 21
5.902160
 12
2.825680
 22
5.162080
 13
2.822600
 23
5.902160
  0
POLYLINE
  8
0
  6
CONTINUOUS
 66
     1
 40
0.000000
 41
0.000000
  0
VERTEX
  8
0
  6
CONTINUOUS
 10
2.765840
 20
5.162080
  0
VERTEX
  8
0
  6
CONTINUOUS
 10
2.762760
 20
5.902160
  0
VERTEX
  8
0
  6
CONTINUOUS
 10
2.822600
 20
5.902160
  0
VERTEX
  8
0
  6
CONTINUOUS
 10
2.825680
 20
5.162080
  0
VERTEX
  8
0
  6
CONTINUOUS
 10
2.765840
 20
5.162080
  0
SEQEND
  8
0
  0
SOLID
  8
0
 62
    15
 10
2.825680
 20
5.162080
 11
2.822600
 21
5.902160
 12
2.903560
 22
5.162080
 13
2.900480
 23
5.902160
  0
POLYLINE
  8
0
  6
CONTINUOUS
 66
     1
 40
0.000000
 41
0.000000
  0
VERTEX
  8
0
  6
CONTINUOUS
 10
2.825680
 20
5.162080
  0
VERTEX
  8
0
  6
CONTINUOUS
 10
2.822600
 20
5.902160
  0
VERTEX
  8
0
  6
CONTINUOUS
 10
2.900480
 20
5.902160
  0
VERTEX
  8
0
  6
CONTINUOUS
 10
2.903560
 20
5.162080
  0
VERTEX
  8
0
  6
CONTINUOUS
 10
2.825680
 20
5.162080
  0
SEQEND
  8
0
  0
SOLID
  8
0
 62
    15
 10
2.903560
 20
5.162080
 11
2.900480
 21
5.902160
 12
2.996400
 22
5.160760
 13
2.993320
 23
5.900840
  0
POLYLINE
  8
0
  6
CONTINUOUS
 66
     1
 40
0.000000
 41
0.000000
  0
VERTEX
  8
0
  6
CONTINUOUS
 10
2.903560
 20
5.162080
  0
VERTEX
  8
0
  6
CONTINUOUS
 10
2.900480
 20
5.902160
  0
VERTEX
  8
0
  6
CONTINUOUS
 10
2.993320
 20
5.900840
  0
VERTEX
  8
0
  6
CONTINUOUS
 10
2.996400
 20
5.160760
  0
VERTEX
  8
0
  6
CONTINUOUS
 10
2.903560
 20
5.162080
  0
SEQEND
  8
0
  0
SOLID
  8
0
 62
    15
 10
2.996400
 20
5.160760
 11
2.993320
 21
5.900840
 12
3.100680
 22
5.158560
 13
3.097600
 23
5.898640
  0
POLYLINE
  8
0
  6
CONTINUOUS
 66
     1
 40
0.000000
 41
0.000000
  0
VERTEX
  8
0
  6
CONTINUOUS
 10
2.996400
 20
5.160760
  0
VERTEX
  8
0
  6
CONTINUOUS
 10
2.993320
 20
5.900840
  0
VERTEX
  8
0
  6
CONTINUOUS
 10
3.097600
 20
5.898640
  0
VERTEX
  8
0
  6
CONTINUOUS
 10
3.100680
 20
5.158560
  0
VERTEX
  8
0
  6
CONTINUOUS
 10
2.996400
 20
5.160760
  0
SEQEND
  8
0
  0
SOLID
  8
0
 62
    15
 10
3.100680
 20
5.158560
 11
3.097600
 21
5.898640
 12
3.213320
 22
5.154160
 13
3.210680
 23
5.894680
  0
POLYLINE
  8
0
  6
CONTINUOUS
 66
     1
 40
0.000000
 41
0.000000
  0
VERTEX
  8
0
  6
CONTINUOUS
 10
3.100680
 20
5.158560
  0
VERTEX
  8
0
  6
CONTINUOUS
 10
3.097600
 20
5.898640
  0
VERTEX
  8
0
  6
CONTINUOUS
 10
3.210680
 20
5.894680
  0
VERTEX
  8
0
  6
CONTINUOUS
 10
3.213320
 20
5.154160
  0
VERTEX
  8
0
  6
CONTINUOUS
 10
3.100680
 20
5.158560
  0
SEQEND
  8
0
  0
SOLID
  8
0
 62
    15
 10
3.213320
 20
5.154160
 11
3.210680
 21
5.894680
 12
3.332120
 22
5.147560
 13
3.329040
 23
5.888080
  0
POLYLINE
  8
0
  6
CONTINUOUS
 66
     1
 40
0.000000
 41
0.000000
  0
VERTEX
  8
0
  6
CONTINUOUS
 10
3.213320
 20
5.154160
  0
VERTEX
  8
0
  6
CONTINUOUS
 10
3.210680
 20
5.894680
  0
VERTEX
  8
0
  6
CONTINUOUS
 10
3.329040
 20
5.888080
  0
VERTEX
  8
0
  6
CONTINUOUS
 10
3.332120
 20
5.147560
  0
VERTEX
  8
0
  6
CONTINUOUS
 10
3.213320
 20
5.154160
  0
SEQEND
  8
0
  0
SOLID
  8
0
 62
    15
 10
3.332120
 20
5.147560
 11
3.329040
 21
5.888080
 12
3.575440
 22
5.125560
 13
3.572360
 23
5.865640
  0
POLYLINE
  8
0
  6
CONTINUOUS
 66
     1
 40
0.000000
 41
0.000000
  0
VERTEX
  8
0
  6
CONTINUOUS
 10
3.332120
 20
5.147560
  0
VERTEX
  8
0
  6
CONTINUOUS
 10
3.329040
 20
5.888080
  0
VERTEX
  8
0
  6
CONTINUOUS
 10
3.572360
 20
5.865640
  0
VERTEX
  8
0
  6
CONTINUOUS
 10
3.575440
 20
5.125560
  0
VERTEX
  8
0
  6
CONTINUOUS
 10
3.332120
 20
5.147560
  0
SEQEND
  8
0
  0
SOLID
  8
0
 62
    15
 10
3.575440
 20
5.125560
 11
3.572360
 21
5.865640
 12
3.693360
 22
5.108840
 13
3.690720
 23
5.849360
  0
POLYLINE
  8
0
  6
CONTINUOUS
 66
     1
 40
0.000000
 41
0.000000
  0
VERTEX
  8
0
  6
CONTINUOUS
 10
3.575440
 20
5.125560
  0
VERTEX
  8
0
  6
CONTINUOUS
 10
3.572360
 20
5.865640
  0
VERTEX
  8
0
  6
CONTINUOUS
 10
3.690720
 20
5.849360
  0
VERTEX
  8
0
  6
CONTINUOUS
 10
3.693360
 20
5.108840
  0
VERTEX
  8
0
  6
CONTINUOUS
 10
3.575440
 20
5.125560
  0
SEQEND
  8
0
  0
SOLID
  8
0
 62
    15
 10
3.693360
 20
5.108840
 11
3.690720
 21
5.849360
 12
3.805560
 22
5.088160
 13
3.802920
 23
5.828240
  0
POLYLINE
  8
0
  6
CONTINUOUS
 66
     1
 40
0.000000
 41
0.000000
  0
VERTEX
  8
0
  6
CONTINUOUS
 10
3.693360
 20
5.108840
  0
VERTEX
  8
0
  6
CONTINUOUS
 10
3.690720
 20
5.849360
  0
VERTEX
  8
0
  6
CONTINUOUS
 10
3.802920
 20
5.828240
  0
VERTEX
  8
0
  6
CONTINUOUS
 10
3.805560
 20
5.088160
  0
VERTEX
  8
0
  6
CONTINUOUS
 10
3.693360
 20
5.108840
  0
SEQEND
  8
0
  0
SOLID
  8
0
 62
    15
 10
3.805560
 20
5.088160
 11
3.802920
 21
5.828240
 12
3.908960
 22
5.062200
 13
3.905880
 23
5.802720
  0
POLYLINE
  8
0
  6
CONTINUOUS
 66
     1
 40
0.000000
 41
0.000000
  0
VERTEX
  8
0
  6
CONTINUOUS
 10
3.805560
 20
5.088160
  0
VERTEX
  8
0
  6
CONTINUOUS
 10
3.802920
 20
5.828240
  0
VERTEX
  8
0
  6
CONTINUOUS
 10
3.905880
 20
5.802720
  0
VERTEX
  8
0
  6
CONTINUOUS
 10
3.908960
 20
5.062200
  0
VERTEX
  8
0
  6
CONTINUOUS
 10
3.805560
 20
5.088160
  0
SEQEND
  8
0
  0
SOLID
  8
0
 62
    15
 10
3.908960
 20
5.062200
 11
3.905880
 21
5.802720
 12
4.000040
 22
5.031400
 13
3.996960
 23
5.771480
  0
POLYLINE
  8
0
  6
CONTINUOUS
 66
     1
 40
0.000000
 41
0.000000
  0
VERTEX
  8
0
  6
CONTINUOUS
 10
3.908960
 20
5.062200
  0
VERTEX
  8
0
  6
CONTINUOUS
 10
3.905880
 20
5.802720
  0
VERTEX
  8
0
  6
CONTINUOUS
 10
3.996960
 20
5.771480
  0
VERTEX
  8
0
  6
CONTINUOUS
 10
4.000040
 20
5.031400
  0
VERTEX
  8
0
  6
CONTINUOUS
 10
3.908960
 20
5.062200
  0
SEQEND
  8
0
  0
SOLID
  8
0
 62
    15
 10
4.000040
 20
5.031400
 11
3.996960
 21
5.771480
 12
4.040080
 22
5.013360
 13
4.037000
 23
5.753880
  0
POLYLINE
  8
0
  6
CONTINUOUS
 66
     1
 40
0.000000
 41
0.000000
  0
VERTEX
  8
0
  6
CONTINUOUS
 10
4.000040
 20
5.031400
  0
VERTEX
  8
0
  6
CONTINUOUS
 10
3.996960
 20
5.771480
  0
VERTEX
  8
0
  6
CONTINUOUS
 10
4.037000
 20
5.753880
  0
VERTEX
  8
0
  6
CONTINUOUS
 10
4.040080
 20
5.013360
  0
VERTEX
  8
0
  6
CONTINUOUS
 10
4.000040
 20
5.031400
  0
SEQEND
  8
0
  0
SOLID
  8
0
 62
    15
 10
4.040080
 20
5.013360
 11
4.037000
 21
5.753880
 12
4.075720
 22
4.994000
 13
4.072640
 23
5.734520
  0
POLYLINE
  8
0
  6
CONTINUOUS
 66
     1
 40
0.000000
 41
0.000000
  0
VERTEX
  8
0
  6
CONTINUOUS
 10
4.040080
 20
5.013360
  0
VERTEX
  8
0
  6
CONTINUOUS
 10
4.037000
 20
5.753880
  0
VERTEX
  8
0
  6
CONTINUOUS
 10
4.072640
 20
5.734520
  0
VERTEX
  8
0
  6
CONTINUOUS
 10
4.075720
 20
4.994000
  0
VERTEX
  8
0
  6
CONTINUOUS
 10
4.040080
 20
5.013360
  0
SEQEND
  8
0
  0
SOLID
  8
0
 62
    15
 10
4.075720
 20
4.994000
 11
4.072640
 21
5.734520
 12
4.107400
 22
4.973320
 13
4.104320
 23
5.713400
  0
POLYLINE
  8
0
  6
CONTINUOUS
 66
     1
 40
0.000000
 41
0.000000
  0
VERTEX
  8
0
  6
CONTINUOUS
 10
4.075720
 20
4.994000
  0
VERTEX
  8
0
  6
CONTINUOUS
 10
4.072640
 20
5.734520
  0
VERTEX
  8
0
  6
CONTINUOUS
 10
4.104320
 20
5.713400
  0
VERTEX
  8
0
  6
CONTINUOUS
 10
4.107400
 20
4.973320
  0
VERTEX
  8
0
  6
CONTINUOUS
 10
4.075720
 20
4.994000
  0
SEQEND
  8
0
  0
SOLID
  8
0
 62
    15
 10
4.107400
 20
4.973320
 11
4.104320
 21
5.713400
 12
4.133800
 22
4.950880
 13
4.130720
 23
5.690960
  0
POLYLINE
  8
0
  6
CONTINUOUS
 66
     1
 40
0.000000
 41
0.000000
  0
VERTEX
  8
0
  6
CONTINUOUS
 10
4.107400
 20
4.973320
  0
VERTEX
  8
0
  6
CONTINUOUS
 10
4.104320
 20
5.713400
  0
VERTEX
  8
0
  6
CONTINUOUS
 10
4.130720
 20
5.690960
  0
VERTEX
  8
0
  6
CONTINUOUS
 10
4.133800
 20
4.950880
  0
VERTEX
  8
0
  6
CONTINUOUS
 10
4.107400
 20
4.973320
  0
SEQEND
  8
0
  0
SOLID
  8
0
 62
    15
 10
4.133800
 20
4.950880
 11
4.130720
 21
5.690960
 12
4.155360
 22
4.926680
 13
4.152280
 23
5.666760
  0
POLYLINE
  8
0
  6
CONTINUOUS
 66
     1
 40
0.000000
 41
0.000000
  0
VERTEX
  8
0
  6
CONTINUOUS
 10
4.133800
 20
4.950880
  0
VERTEX
  8
0
  6
CONTINUOUS
 10
4.130720
 20
5.690960
  0
VERTEX
  8
0
  6
CONTINUOUS
 10
4.152280
 20
5.666760
  0
VERTEX
  8
0
  6
CONTINUOUS
 10
4.155360
 20
4.926680
  0
VERTEX
  8
0
  6
CONTINUOUS
 10
4.133800
 20
4.950880
  0
SEQEND
  8
0
  0
SOLID
  8
0
 62
    15
 10
4.155360
 20
4.926680
 11
4.152280
 21
5.666760
 12
4.170760
 22
4.900720
 13
4.168120
 23
5.640800
  0
POLYLINE
  8
0
  6
CONTINUOUS
 66
     1
 40
0.000000
 41
0.000000
  0
VERTEX
  8
0
  6
CONTINUOUS
 10
4.155360
 20
4.926680
  0
VERTEX
  8
0
  6
CONTINUOUS
 10
4.152280
 20
5.666760
  0
VERTEX
  8
0
  6
CONTINUOUS
 10
4.168120
 20
5.640800
  0
VERTEX
  8
0
  6
CONTINUOUS
 10
4.170760
 20
4.900720
  0
VERTEX
  8
0
  6
CONTINUOUS
 10
4.155360
 20
4.926680
  0
SEQEND
  8
0
  0
SOLID
  8
0
 62
    15
 10
4.170760
 20
4.900720
 11
4.168120
 21
5.640800
 12
4.180440
 22
4.872560
 13
4.177800
 23
5.613080
  0
POLYLINE
  8
0
  6
CONTINUOUS
 66
     1
 40
0.000000
 41
0.000000
  0
VERTEX
  8
0
  6
CONTINUOUS
 10
4.170760
 20
4.900720
  0
VERTEX
  8
0
  6
CONTINUOUS
 10
4.168120
 20
5.640800
  0
VERTEX
  8
0
  6
CONTINUOUS
 10
4.177800
 20
5.613080
  0
VERTEX
  8
0
  6
CONTINUOUS
 10
4.180440
 20
4.872560
  0
VERTEX
  8
0
  6
CONTINUOUS
 10
4.170760
 20
4.900720
  0
SEQEND
  8
0
  0
SOLID
  8
0
 62
    15
 10
4.180440
 20
4.872560
 11
4.177800
 21
5.613080
 12
4.183960
 22
4.842640
 13
4.180880
 23
5.583160
  0
POLYLINE
  8
0
  6
CONTINUOUS
 66
     1
 40
0.000000
 41
0.000000
  0
VERTEX
  8
0
  6
CONTINUOUS
 10
4.180440
 20
4.872560
  0
VERTEX
  8
0
  6
CONTINUOUS
 10
4.177800
 20
5.613080
  0
VERTEX
  8
0
  6
CONTINUOUS
 10
4.180880
 20
5.583160
  0
VERTEX
  8
0
  6
CONTINUOUS
 10
4.183960
 20
4.842640
  0
VERTEX
  8
0
  6
CONTINUOUS
 10
4.180440
 20
4.872560
  0
SEQEND
  8
0
  0
SOLID
  8
0
 62
    15
 10
4.183960
 20
4.842640
 11
4.180880
 21
5.583160
 12
4.528920
 22
4.842640
 13
4.525840
 23
5.583160
  0
POLYLINE
  8
0
  6
CONTINUOUS
 66
     1
 40
0.000000
 41
0.000000
  0
VERTEX
  8
0
  6
CONTINUOUS
 10
4.183960
 20
4.842640
  0
VERTEX
  8
0
  6
CONTINUOUS
 10
4.180880
 20
5.583160
  0
VERTEX
  8
0
  6
CONTINUOUS
 10
4.525840
 20
5.583160
  0
VERTEX
  8
0
  6
CONTINUOUS
 10
4.528920
 20
4.842640
  0
VERTEX
  8
0
  6
CONTINUOUS
 10
4.183960
 20
4.842640
  0
SEQEND
  8
0
  0
SOLID
  8
0
 62
    15
 10
4.528920
 20
4.842640
 11
4.525840
 21
5.583160
 12
4.540800
 22
4.880040
 13
4.537720
 23
5.620120
  0
POLYLINE
  8
0
  6
CONTINUOUS
 66
     1
 40
0.000000
 41
0.000000
  0
VERTEX
  8
0
  6
CONTINUOUS
 10
4.528920
 20
4.842640
  0
VERTEX
  8
0
  6
CONTINUOUS
 10
4.525840
 20
5.583160
  0
VERTEX
  8
0
  6
CONTINUOUS
 10
4.537720
 20
5.620120
  0
VERTEX
  8
0
  6
CONTINUOUS
 10
4.540800
 20
4.880040
  0
VERTEX
  8
0
  6
CONTINUOUS
 10
4.528920
 20
4.842640
  0
SEQEND
  8
0
  0
SOLID
  8
0
 62
    15
 10
4.540800
 20
4.880040
 11
4.537720
 21
5.620120
 12
4.557960
 22
4.913920
 13
4.555320
 23
5.654440
  0
POLYLINE
  8
0
  6
CONTINUOUS
 66
     1
 40
0.000000
 41
0.000000
  0
VERTEX
  8
0
  6
CONTINUOUS
 10
4.540800
 20
4.880040
  0
VERTEX
  8
0
  6
CONTINUOUS
 10
4.537720
 20
5.620120
  0
VERTEX
  8
0
  6
CONTINUOUS
 10
4.555320
 20
5.654440
  0
VERTEX
  8
0
  6
CONTINUOUS
 10
4.557960
 20
4.913920
  0
VERTEX
  8
0
  6
CONTINUOUS
 10
4.540800
 20
4.880040
  0
SEQEND
  8
0
  0
SOLID
  8
0
 62
    15
 10
4.557960
 20
4.913920
 11
4.555320
 21
5.654440
 12
4.580840
 22
4.944720
 13
4.577760
 23
5.684800
  0
POLYLINE
  8
0
  6
CONTINUOUS
 66
     1
 40
0.000000
 41
0.000000
  0
VERTEX
  8
0
  6
CONTINUOUS
 10
4.557960
 20
4.913920
  0
VERTEX
  8
0
  6
CONTINUOUS
 10
4.555320
 20
5.654440
  0
VERTEX
  8
0
  6
CONTINUOUS
 10
4.577760
 20
5.684800
  0
VERTEX
  8
0
  6
CONTINUOUS
 10
4.580840
 20
4.944720
  0
VERTEX
  8
0
  6
CONTINUOUS
 10
4.557960
 20
4.913920
  0
SEQEND
  8
0
  0
SOLID
  8
0
 62
    15
 10
4.580840
 20
4.944720
 11
4.577760
 21
5.684800
 12
4.608560
 22
4.971120
 13
4.605480
 23
5.711200
  0
POLYLINE
  8
0
  6
CONTINUOUS
 66
     1
 40
0.000000
 41
0.000000
  0
VERTEX
  8
0
  6
CONTINUOUS
 10
4.580840
 20
4.944720
  0
VERTEX
  8
0
  6
CONTINUOUS
 10
4.577760
 20
5.684800
  0
VERTEX
  8
0
  6
CONTINUOUS
 10
4.605480
 20
5.711200
  0
VERTEX
  8
0
  6
CONTINUOUS
 10
4.608560
 20
4.971120
  0
VERTEX
  8
0
  6
CONTINUOUS
 10
4.580840
 20
4.944720
  0
SEQEND
  8
0
  0
SOLID
  8
0
 62
    15
 10
4.608560
 20
4.971120
 11
4.605480
 21
5.711200
 12
4.639800
 22
4.992680
 13
4.636720
 23
5.732760
  0
POLYLINE
  8
0
  6
CONTINUOUS
 66
     1
 40
0.000000
 41
0.000000
  0
VERTEX
  8
0
  6
CONTINUOUS
 10
4.608560
 20
4.971120
  0
VERTEX
  8
0
  6
CONTINUOUS
 10
4.605480
 20
5.711200
  0
VERTEX
  8
0
  6
CONTINUOUS
 10
4.636720
 20
5.732760
  0
VERTEX
  8
0
  6
CONTINUOUS
 10
4.639800
 20
4.992680
  0
VERTEX
  8
0
  6
CONTINUOUS
 10
4.608560
 20
4.971120
  0
SEQEND
  8
0
  0
SOLID
  8
0
 62
    15
 10
4.639800
 20
4.992680
 11
4.636720
 21
5.732760
 12
4.675000
 22
5.008520
 13
4.671920
 23
5.749040
  0
POLYLINE
  8
0
  6
CONTINUOUS
 66
     1
 40
0.000000
 41
0.000000
  0
VERTEX
  8
0
  6
CONTINUOUS
 10
4.639800
 20
4.992680
  0
VERTEX
  8
0
  6
CONTINUOUS
 10
4.636720
 20
5.732760
  0
VERTEX
  8
0
  6
CONTINUOUS
 10
4.671920
 20
5.749040
  0
VERTEX
  8
0
  6
CONTINUOUS
 10
4.675000
 20
5.008520
  0
VERTEX
  8
0
  6
CONTINUOUS
 10
4.639800
 20
4.992680
  0
SEQEND
  8
0
  0
SOLID
  8
0
 62
    15
 10
4.675000
 20
5.008520
 11
4.671920
 21
5.749040
 12
4.712840
 22
5.018640
 13
4.709760
 23
5.759160
  0
POLYLINE
  8
0
  6
CONTINUOUS
 66
     1
 40
0.000000
 41
0.000000
  0
VERTEX
  8
0
  6
CONTINUOUS
 10
4.675000
 20
5.008520
  0
VERTEX
  8
0
  6
CONTINUOUS
 10
4.671920
 20
5.749040
  0
VERTEX
  8
0
  6
CONTINUOUS
 10
4.709760
 20
5.759160
  0
VERTEX
  8
0
  6
CONTINUOUS
 10
4.712840
 20
5.018640
  0
VERTEX
  8
0
  6
CONTINUOUS
 10
4.675000
 20
5.008520
  0
SEQEND
  8
0
  0
SOLID
  8
0
 62
    15
 10
4.712840
 20
5.018640
 11
4.709760
 21
5.759160
 12
4.752880
 22
5.022160
 13
4.749800
 23
5.762680
  0
POLYLINE
  8
0
  6
CONTINUOUS
 66
     1
 40
0.000000
 41
0.000000
  0
VERTEX
  8
0
  6
CONTINUOUS
 10
4.712840
 20
5.018640
  0
VERTEX
  8
0
  6
CONTINUOUS
 10
4.709760
 20
5.759160
  0
VERTEX
  8
0
  6
CONTINUOUS
 10
4.749800
 20
5.762680
  0
VERTEX
  8
0
  6
CONTINUOUS
 10
4.752880
 20
5.022160
  0
VERTEX
  8
0
  6
CONTINUOUS
 10
4.712840
 20
5.018640
  0
SEQEND
  8
0
  0
SOLID
  8
0
 62
    15
 10
4.752880
 20
5.022160
 11
4.749800
 21
5.762680
 12
4.752880
 22
5.022600
 13
4.750240
 23
5.762680
  0
POLYLINE
  8
0
  6
CONTINUOUS
 66
     1
 40
0.000000
 41
0.000000
  0
VERTEX
  8
0
  6
CONTINUOUS
 10
4.752880
 20
5.022160
  0
VERTEX
  8
0
  6
CONTINUOUS
 10
4.749800
 20
5.762680
  0
VERTEX
  8
0
  6
CONTINUOUS
 10
4.750240
 20
5.762680
  0
VERTEX
  8
0
  6
CONTINUOUS
 10
4.752880
 20
5.022600
  0
VERTEX
  8
0
  6
CONTINUOUS
 10
4.752880
 20
5.022160
  0
SEQEND
  8
0
  0
SOLID
  8
0
 62
    15
 10
4.752880
 20
5.022600
 11
4.750240
 21
5.762680
 12
4.793360
 22
5.019080
 13
4.790280
 23
5.759160
  0
POLYLINE
  8
0
  6
CONTINUOUS
 66
     1
 40
0.000000
 41
0.000000
  0
VERTEX
  8
0
  6
CONTINUOUS
 10
4.752880
 20
5.022600
  0
VERTEX
  8
0
  6
CONTINUOUS
 10
4.750240
 20
5.762680
  0
VERTEX
  8
0
  6
CONTINUOUS
 10
4.790280
 20
5.759160
  0
VERTEX
  8
0
  6
CONTINUOUS
 10
4.793360
 20
5.019080
  0
VERTEX
  8
0
  6
CONTINUOUS
 10
4.752880
 20
5.022600
  0
SEQEND
  8
0
  0
SOLID
  8
0
 62
    15
 10
4.793360
 20
5.019080
 11
4.790280
 21
5.759160
 12
4.831200
 22
5.008960
 13
4.828120
 23
5.749040
  0
POLYLINE
  8
0
  6
CONTINUOUS
 66
     1
 40
0.000000
 41
0.000000
  0
VERTEX
  8
0
  6
CONTINUOUS
 10
4.793360
 20
5.019080
  0
VERTEX
  8
0
  6
CONTINUOUS
 10
4.790280
 20
5.759160
  0
VERTEX
  8
0
  6
CONTINUOUS
 10
4.828120
 20
5.749040
  0
VERTEX
  8
0
  6
CONTINUOUS
 10
4.831200
 20
5.008960
  0
VERTEX
  8
0
  6
CONTINUOUS
 10
4.793360
 20
5.019080
  0
SEQEND
  8
0
  0
SOLID
  8
0
 62
    15
 10
4.831200
 20
5.008960
 11
4.828120
 21
5.749040
 12
4.865960
 22
4.992680
 13
4.863320
 23
5.732760
  0
POLYLINE
  8
0
  6
CONTINUOUS
 66
     1
 40
0.000000
 41
0.000000
  0
VERTEX
  8
0
  6
CONTINUOUS
 10
4.831200
 20
5.008960
  0
VERTEX
  8
0
  6
CONTINUOUS
 10
4.828120
 20
5.749040
  0
VERTEX
  8
0
  6
CONTINUOUS
 10
4.863320
 20
5.732760
  0
VERTEX
  8
0
  6
CONTINUOUS
 10
4.865960
 20
4.992680
  0
VERTEX
  8
0
  6
CONTINUOUS
 10
4.831200
 20
5.008960
  0
SEQEND
  8
0
  0
SOLID
  8
0
 62
    15
 10
4.865960
 20
4.992680
 11
4.863320
 21
5.732760
 12
4.897640
 22
4.971120
 13
4.894560
 23
5.711200
  0
POLYLINE
  8
0
  6
CONTINUOUS
 66
     1
 40
0.000000
 41
0.000000
  0
VERTEX
  8
0
  6
CONTINUOUS
 10
4.865960
 20
4.992680
  0
VERTEX
  8
0
  6
CONTINUOUS
 10
4.863320
 20
5.732760
  0
VERTEX
  8
0
  6
CONTINUOUS
 10
4.894560
 20
5.711200
  0
VERTEX
  8
0
  6
CONTINUOUS
 10
4.897640
 20
4.971120
  0
VERTEX
  8
0
  6
CONTINUOUS
 10
4.865960
 20
4.992680
  0
SEQEND
  8
0
  0
SOLID
  8
0
 62
    15
 10
1.838760
 20
5.251840
 11
1.835680
 21
5.991920
 12
2.737240
 22
5.251840
 13
2.734160
 23
5.991920
  0
POLYLINE
  8
0
  6
CONTINUOUS
 66
     1
 40
0.000000
 41
0.000000
  0
VERTEX
  8
0
  6
CONTINUOUS
 10
1.838760
 20
5.251840
  0
VERTEX
  8
0
  6
CONTINUOUS
 10
1.835680
 20
5.991920
  0
VERTEX
  8
0
  6
CONTINUOUS
 10
2.734160
 20
5.991920
  0
VERTEX
  8
0
  6
CONTINUOUS
 10
2.737240
 20
5.251840
  0
VERTEX
  8
0
  6
CONTINUOUS
 10
1.838760
 20
5.251840
  0
SEQEND
  8
0
  0
SOLID
  8
0
 62
    15
 10
4.924920
 20
4.944720
 11
4.922280
 21
5.684800
 12
4.947800
 22
4.914360
 13
4.944720
 23
5.654440
  0
POLYLINE
  8
0
  6
CONTINUOUS
 66
     1
 40
0.000000
 41
0.000000
  0
VERTEX
  8
0
  6
CONTINUOUS
 10
4.924920
 20
4.944720
  0
VERTEX
  8
0
  6
CONTINUOUS
 10
4.922280
 20
5.684800
  0
VERTEX
  8
0
  6
CONTINUOUS
 10
4.944720
 20
5.654440
  0
VERTEX
  8
0
  6
CONTINUOUS
 10
4.947800
 20
4.914360
  0
VERTEX
  8
0
  6
CONTINUOUS
 10
4.924920
 20
4.944720
  0
SEQEND
  8
0
  0
SOLID
  8
0
 62
    15
 10
4.947800
 20
4.914360
 11
4.944720
 21
5.654440
 12
4.965400
 22
4.880040
 13
4.962320
 23
5.620120
  0
POLYLINE
  8
0
  6
CONTINUOUS
 66
     1
 40
0.000000
 41
0.000000
  0
VERTEX
  8
0
  6
CONTINUOUS
 10
4.947800
 20
4.914360
  0
VERTEX
  8
0
  6
CONTINUOUS
 10
4.944720
 20
5.654440
  0
VERTEX
  8
0
  6
CONTINUOUS
 10
4.962320
 20
5.620120
  0
VERTEX
  8
0
  6
CONTINUOUS
 10
4.965400
 20
4.880040
  0
VERTEX
  8
0
  6
CONTINUOUS
 10
4.947800
 20
4.914360
  0
SEQEND
  8
0
  0
SOLID
  8
0
 62
    15
 10
4.965400
 20
4.880040
 11
4.962320
 21
5.620120
 12
4.977280
 22
4.842640
 13
4.974200
 23
5.583160
  0
POLYLINE
  8
0
  6
CONTINUOUS
 66
     1
 40
0.000000
 41
0.000000
  0
VERTEX
  8
0
  6
CONTINUOUS
 10
4.965400
 20
4.880040
  0
VERTEX
  8
0
  6
CONTINUOUS
 10
4.962320
 20
5.620120
  0
VERTEX
  8
0
  6
CONTINUOUS
 10
4.974200
 20
5.583160
  0
VERTEX
  8
0
  6
CONTINUOUS
 10
4.977280
 20
4.842640
  0
VERTEX
  8
0
  6
CONTINUOUS
 10
4.965400
 20
4.880040
  0
SEQEND
  8
0
  0
SOLID
  8
0
 62
    15
 10
4.977280
 20
4.842640
 11
4.974200
 21
5.583160
 12
5.318720
 22
4.842640
 13
5.315640
 23
5.583160
  0
POLYLINE
  8
0
  6
CONTINUOUS
 66
     1
 40
0.000000
 41
0.000000
  0
VERTEX
  8
0
  6
CONTINUOUS
 10
4.977280
 20
4.842640
  0
VERTEX
  8
0
  6
CONTINUOUS
 10
4.974200
 20
5.583160
  0
VERTEX
  8
0
  6
CONTINUOUS
 10
5.315640
 20
5.583160
  0
VERTEX
  8
0
  6
CONTINUOUS
 10
5.318720
 20
4.842640
  0
VERTEX
  8
0
  6
CONTINUOUS
 10
4.977280
 20
4.842640
  0
SEQEND
  8
0
  0
SOLID
  8
0
 62
    15
 10
5.318720
 20
4.842640
 11
5.315640
 21
5.583160
 12
5.326640
 22
4.814920
 13
5.323560
 23
5.555000
  0
POLYLINE
  8
0
  6
CONTINUOUS
 66
     1
 40
0.000000
 41
0.000000
  0
VERTEX
  8
0
  6
CONTINUOUS
 10
5.318720
 20
4.842640
  0
VERTEX
  8
0
  6
CONTINUOUS
 10
5.315640
 20
5.583160
  0
VERTEX
  8
0
  6
CONTINUOUS
 10
5.323560
 20
5.555000
  0
VERTEX
  8
0
  6
CONTINUOUS
 10
5.326640
 20
4.814920
  0
VERTEX
  8
0
  6
CONTINUOUS
 10
5.318720
 20
4.842640
  0
SEQEND
  8
0
  0
SOLID
  8
0
 62
    15
 10
5.326640
 20
4.814920
 11
5.323560
 21
5.555000
 12
5.345560
 22
4.790720
 13
5.342920
 23
5.531240
  0
POLYLINE
  8
0
  6
CONTINUOUS
 66
     1
 40
0.000000
 41
0.000000
  0
VERTEX
  8
0
  6
CONTINUOUS
 10
5.326640
 20
4.814920
  0
VERTEX
  8
0
  6
CONTINUOUS
 10
5.323560
 20
5.555000
  0
VERTEX
  8
0
  6
CONTINUOUS
 10
5.342920
 20
5.531240
  0
VERTEX
  8
0
  6
CONTINUOUS
 10
5.345560
 20
4.790720
  0
VERTEX
  8
0
  6
CONTINUOUS
 10
5.326640
 20
4.814920
  0
SEQEND
  8
0
  0
SOLID
  8
0
 62
    15
 10
5.345560
 20
4.790720
 11
5.342920
 21
5.531240
 12
5.375040
 22
4.770480
 13
5.371960
 23
5.511000
  0
POLYLINE
  8
0
  6
CONTINUOUS
 66
     1
 40
0.000000
 41
0.000000
  0
VERTEX
  8
0
  6
CONTINUOUS
 10
5.345560
 20
4.790720
  0
VERTEX
  8
0
  6
CONTINUOUS
 10
5.342920
 20
5.531240
  0
VERTEX
  8
0
  6
CONTINUOUS
 10
5.371960
 20
5.511000
  0
VERTEX
  8
0
  6
CONTINUOUS
 10
5.375040
 20
4.770480
  0
VERTEX
  8
0
  6
CONTINUOUS
 10
5.345560
 20
4.790720
  0
SEQEND
  8
0
  0
SOLID
  8
0
 62
    15
 10
5.375040
 20
4.770480
 11
5.371960
 21
5.511000
 12
5.413320
 22
4.753320
 13
5.410240
 23
5.493840
  0
POLYLINE
  8
0
  6
CONTINUOUS
 66
     1
 40
0.000000
 41
0.000000
  0
VERTEX
  8
0
  6
CONTINUOUS
 10
5.375040
 20
4.770480
  0
VERTEX
  8
0
  6
CONTINUOUS
 10
5.371960
 20
5.511000
  0
VERTEX
  8
0
  6
CONTINUOUS
 10
5.410240
 20
5.493840
  0
VERTEX
  8
0
  6
CONTINUOUS
 10
5.413320
 20
4.753320
  0
VERTEX
  8
0
  6
CONTINUOUS
 10
5.375040
 20
4.770480
  0
SEQEND
  8
0
  0
SOLID
  8
0
 62
    15
 10
5.413320
 20
4.753320
 11
5.410240
 21
5.493840
 12
5.459080
 22
4.739680
 13
5.456000
 23
5.479760
  0
POLYLINE
  8
0
  6
CONTINUOUS
 66
     1
 40
0.000000
 41
0.000000
  0
VERTEX
  8
0
  6
CONTINUOUS
 10
5.413320
 20
4.753320
  0
VERTEX
  8
0
  6
CONTINUOUS
 10
5.410240
 20
5.493840
  0
VERTEX
  8
0
  6
CONTINUOUS
 10
5.456000
 20
5.479760
  0
VERTEX
  8
0
  6
CONTINUOUS
 10
5.459080
 20
4.739680
  0
VERTEX
  8
0
  6
CONTINUOUS
 10
5.413320
 20
4.753320
  0
SEQEND
  8
0
  0
SOLID
  8
0
 62
    15
 10
5.459080
 20
4.739680
 11
5.456000
 21
5.479760
 12
5.511440
 22
4.728240
 13
5.508360
 23
5.468320
  0
POLYLINE
  8
0
  6
CONTINUOUS
 66
     1
 40
0.000000
 41
0.000000
  0
VERTEX
  8
0
  6
CONTINUOUS
 10
5.459080
 20
4.739680
  0
VERTEX
  8
0
  6
CONTINUOUS
 10
5.456000
 20
5.479760
  0
VERTEX
  8
0
  6
CONTINUOUS
 10
5.508360
 20
5.468320
  0
VERTEX
  8
0
  6
CONTINUOUS
 10
5.511440
 20
4.728240
  0
VERTEX
  8
0
  6
CONTINUOUS
 10
5.459080
 20
4.739680
  0
SEQEND
  8
0
  0
SOLID
  8
0
 62
    15
 10
5.511440
 20
4.728240
 11
5.508360
 21
5.468320
 12
5.569080
 22
4.719440
 13
5.566000
 23
5.459520
  0
POLYLINE
  8
0
  6
CONTINUOUS
 66
     1
 40
0.000000
 41
0.000000
  0
VERTEX
  8
0
  6
CONTINUOUS
 10
5.511440
 20
4.728240
  0
VERTEX
  8
0
  6
CONTINUOUS
 10
5.508360
 20
5.468320
  0
VERTEX
  8
0
  6
CONTINUOUS
 10
5.566000
 20
5.459520
  0
VERTEX
  8
0
  6
CONTINUOUS
 10
5.569080
 20
4.719440
  0
VERTEX
  8
0
  6
CONTINUOUS
 10
5.511440
 20
4.728240
  0
SEQEND
  8
0
  0
SOLID
  8
0
 62
    15
 10
5.569080
 20
4.719440
 11
5.566000
 21
5.459520
 12
5.631120
 22
4.712840
 13
5.628040
 23
5.452920
  0
POLYLINE
  8
0
  6
CONTINUOUS
 66
     1
 40
0.000000
 41
0.000000
  0
VERTEX
  8
0
  6
CONTINUOUS
 10
5.569080
 20
4.719440
  0
VERTEX
  8
0
  6
CONTINUOUS
 10
5.566000
 20
5.459520
  0
VERTEX
  8
0
  6
CONTINUOUS
 10
5.628040
 20
5.452920
  0
VERTEX
  8
0
  6
CONTINUOUS
 10
5.631120
 20
4.712840
  0
VERTEX
  8
0
  6
CONTINUOUS
 10
5.569080
 20
4.719440
  0
SEQEND
  8
0
  0
SOLID
  8
0
 62
    15
 10
5.631120
 20
4.712840
 11
5.628040
 21
5.452920
 12
5.762240
 22
4.704920
 13
5.759160
 23
5.445000
  0
POLYLINE
  8
0
  6
CONTINUOUS
 66
     1
 40
0.000000
 41
0.000000
  0
VERTEX
  8
0
  6
CONTINUOUS
 10
5.631120
 20
4.712840
  0
VERTEX
  8
0
  6
CONTINUOUS
 10
5.628040
 20
5.452920
  0
VERTEX
  8
0
  6
CONTINUOUS
 10
5.759160
 20
5.445000
  0
VERTEX
  8
0
  6
CONTINUOUS
 10
5.762240
 20
4.704920
  0
VERTEX
  8
0
  6
CONTINUOUS
 10
5.631120
 20
4.712840
  0
SEQEND
  8
0
  0
SOLID
  8
0
 62
    15
 10
5.762240
 20
4.704920
 11
5.759160
 21
5.445000
 12
5.895560
 22
4.701840
 13
5.892920
 23
5.442360
  0
POLYLINE
  8
0
  6
CONTINUOUS
 66
     1
 40
0.000000
 41
0.000000
  0
VERTEX
  8
0
  6
CONTINUOUS
 10
5.762240
 20
4.704920
  0
VERTEX
  8
0
  6
CONTINUOUS
 10
5.759160
 20
5.445000
  0
VERTEX
  8
0
  6
CONTINUOUS
 10
5.892920
 20
5.442360
  0
VERTEX
  8
0
  6
CONTINUOUS
 10
5.895560
 20
4.701840
  0
VERTEX
  8
0
  6
CONTINUOUS
 10
5.762240
 20
4.704920
  0
SEQEND
  8
0
  0
SOLID
  8
0
 62
    15
 10
5.895560
 20
4.701840
 11
5.892920
 21
5.442360
 12
6.021840
 22
4.701840
 13
6.018760
 23
5.442360
  0
POLYLINE
  8
0
  6
CONTINUOUS
 66
     1
 40
0.000000
 41
0.000000
  0
VERTEX
  8
0
  6
CONTINUOUS
 10
5.895560
 20
4.701840
  0
VERTEX
  8
0
  6
CONTINUOUS
 10
5.892920
 20
5.442360
  0
VERTEX
  8
0
  6
CONTINUOUS
 10
6.018760
 20
5.442360
  0
VERTEX
  8
0
  6
CONTINUOUS
 10
6.021840
 20
4.701840
  0
VERTEX
  8
0
  6
CONTINUOUS
 10
5.895560
 20
4.701840
  0
SEQEND
  8
0
  0
SOLID
  8
0
 62
    15
 10
6.021840
 20
4.701840
 11
6.018760
 21
5.442360
 12
6.079040
 22
4.702280
 13
6.075960
 23
5.442360
  0
POLYLINE
  8
0
  6
CONTINUOUS
 66
     1
 40
0.000000
 41
0.000000
  0
VERTEX
  8
0
  6
CONTINUOUS
 10
6.021840
 20
4.701840
  0
VERTEX
  8
0
  6
CONTINUOUS
 10
6.018760
 20
5.442360
  0
VERTEX
  8
0
  6
CONTINUOUS
 10
6.075960
 20
5.442360
  0
VERTEX
  8
0
  6
CONTINUOUS
 10
6.079040
 20
4.702280
  0
VERTEX
  8
0
  6
CONTINUOUS
 10
6.021840
 20
4.701840
  0
SEQEND
  8
0
  0
SOLID
  8
0
 62
    15
 10
6.079040
 20
4.702280
 11
6.075960
 21
5.442360
 12
6.130960
 22
4.702280
 13
6.127880
 23
5.442800
  0
POLYLINE
  8
0
  6
CONTINUOUS
 66
     1
 40
0.000000
 41
0.000000
  0
VERTEX
  8
0
  6
CONTINUOUS
 10
6.079040
 20
4.702280
  0
VERTEX
  8
0
  6
CONTINUOUS
 10
6.075960
 20
5.442360
  0
VERTEX
  8
0
  6
CONTINUOUS
 10
6.127880
 20
5.442800
  0
VERTEX
  8
0
  6
CONTINUOUS
 10
6.130960
 20
4.702280
  0
VERTEX
  8
0
  6
CONTINUOUS
 10
6.079040
 20
4.702280
  0
SEQEND
  8
0
  0
SOLID
  8
0
 62
    15
 10
6.130960
 20
4.702280
 11
6.127880
 21
5.442800
 12
6.146360
 22
4.735720
 13
6.143280
 23
5.475800
  0
POLYLINE
  8
0
  6
CONTINUOUS
 66
     1
 40
0.000000
 41
0.000000
  0
VERTEX
  8
0
  6
CONTINUOUS
 10
6.130960
 20
4.702280
  0
VERTEX
  8
0
  6
CONTINUOUS
 10
6.127880
 20
5.442800
  0
VERTEX
  8
0
  6
CONTINUOUS
 10
6.143280
 20
5.475800
  0
VERTEX
  8
0
  6
CONTINUOUS
 10
6.146360
 20
4.735720
  0
VERTEX
  8
0
  6
CONTINUOUS
 10
6.130960
 20
4.702280
  0
SEQEND
  8
0
  0
SOLID
  8
0
 62
    15
 10
6.146360
 20
4.735720
 11
6.143280
 21
5.475800
 12
6.166600
 22
4.765640
 13
6.163520
 23
5.505720
  0
POLYLINE
  8
0
  6
CONTINUOUS
 66
     1
 40
0.000000
 41
0.000000
  0
VERTEX
  8
0
  6
CONTINUOUS
 10
6.146360
 20
4.735720
  0
VERTEX
  8
0
  6
CONTINUOUS
 10
6.143280
 20
5.475800
  0
VERTEX
  8
0
  6
CONTINUOUS
 10
6.163520
 20
5.505720
  0
VERTEX
  8
0
  6
CONTINUOUS
 10
6.166600
 20
4.765640
  0
VERTEX
  8
0
  6
CONTINUOUS
 10
6.146360
 20
4.735720
  0
SEQEND
  8
0
  0
SOLID
  8
0
 62
    15
 10
6.166600
 20
4.765640
 11
6.163520
 21
5.505720
 12
6.190800
 22
4.792040
 13
6.187720
 23
5.532560
  0
POLYLINE
  8
0
  6
CONTINUOUS
 66
     1
 40
0.000000
 41
0.000000
  0
VERTEX
  8
0
  6
CONTINUOUS
 10
6.166600
 20
4.765640
  0
VERTEX
  8
0
  6
CONTINUOUS
 10
6.163520
 20
5.505720
  0
VERTEX
  8
0
  6
CONTINUOUS
 10
6.187720
 20
5.532560
  0
VERTEX
  8
0
  6
CONTINUOUS
 10
6.190800
 20
4.792040
  0
VERTEX
  8
0
  6
CONTINUOUS
 10
6.166600
 20
4.765640
  0
SEQEND
  8
0
  0
SOLID
  8
0
 62
    15
 10
6.190800
 20
4.792040
 11
6.187720
 21
5.532560
 12
6.218520
 22
4.814920
 13
6.215440
 23
5.555440
  0
POLYLINE
  8
0
  6
CONTINUOUS
 66
     1
 40
0.000000
 41
0.000000
  0
VERTEX
  8
0
  6
CONTINUOUS
 10
6.190800
 20
4.792040
  0
VERTEX
  8
0
  6
CONTINUOUS
 10
6.187720
 20
5.532560
  0
VERTEX
  8
0
  6
CONTINUOUS
 10
6.215440
 20
5.555440
  0
VERTEX
  8
0
  6
CONTINUOUS
 10
6.218520
 20
4.814920
  0
VERTEX
  8
0
  6
CONTINUOUS
 10
6.190800
 20
4.792040
  0
SEQEND
  8
0
  0
SOLID
  8
0
 62
    15
 10
6.218520
 20
4.814920
 11
6.215440
 21
5.555440
 12
6.249760
 22
4.833840
 13
6.246680
 23
5.573920
  0
POLYLINE
  8
0
  6
CONTINUOUS
 66
     1
 40
0.000000
 41
0.000000
  0
VERTEX
  8
0
  6
CONTINUOUS
 10
6.218520
 20
4.814920
  0
VERTEX
  8
0
  6
CONTINUOUS
 10
6.215440
 20
5.555440
  0
VERTEX
  8
0
  6
CONTINUOUS
 10
6.246680
 20
5.573920
  0
VERTEX
  8
0
  6
CONTINUOUS
 10
6.249760
 20
4.833840
  0
VERTEX
  8
0
  6
CONTINUOUS
 10
6.218520
 20
4.814920
  0
SEQEND
  8
0
  0
SOLID
  8
0
 62
    15
 10
6.249760
 20
4.833840
 11
6.246680
 21
5.573920
 12
6.283640
 22
4.847480
 13
6.280560
 23
5.587560
  0
POLYLINE
  8
0
  6
CONTINUOUS
 66
     1
 40
0.000000
 41
0.000000
  0
VERTEX
  8
0
  6
CONTINUOUS
 10
6.249760
 20
4.833840
  0
VERTEX
  8
0
  6
CONTINUOUS
 10
6.246680
 20
5.573920
  0
VERTEX
  8
0
  6
CONTINUOUS
 10
6.280560
 20
5.587560
  0
VERTEX
  8
0
  6
CONTINUOUS
 10
6.283640
 20
4.847480
  0
VERTEX
  8
0
  6
CONTINUOUS
 10
6.249760
 20
4.833840
  0
SEQEND
  8
0
  0
SOLID
  8
0
 62
    15
 10
6.283640
 20
4.847480
 11
6.280560
 21
5.587560
 12
6.319720
 22
4.856280
 13
6.316640
 23
5.596360
  0
POLYLINE
  8
0
  6
CONTINUOUS
 66
     1
 40
0.000000
 41
0.000000
  0
VERTEX
  8
0
  6
CONTINUOUS
 10
6.283640
 20
4.847480
  0
VERTEX
  8
0
  6
CONTINUOUS
 10
6.280560
 20
5.587560
  0
VERTEX
  8
0
  6
CONTINUOUS
 10
6.316640
 20
5.596360
  0
VERTEX
  8
0
  6
CONTINUOUS
 10
6.319720
 20
4.856280
  0
VERTEX
  8
0
  6
CONTINUOUS
 10
6.283640
 20
4.847480
  0
SEQEND
  8
0
  0
SOLID
  8
0
 62
    15
 10
6.319720
 20
4.856280
 11
6.316640
 21
5.596360
 12
6.358000
 22
4.858920
 13
6.354920
 23
5.599440
  0
POLYLINE
  8
0
  6
CONTINUOUS
 66
     1
 40
0.000000
 41
0.000000
  0
VERTEX
  8
0
  6
CONTINUOUS
 10
6.319720
 20
4.856280
  0
VERTEX
  8
0
  6
CONTINUOUS
 10
6.316640
 20
5.596360
  0
VERTEX
  8
0
  6
CONTINUOUS
 10
6.354920
 20
5.599440
  0
VERTEX
  8
0
  6
CONTINUOUS
 10
6.358000
 20
4.858920
  0
VERTEX
  8
0
  6
CONTINUOUS
 10
6.319720
 20
4.856280
  0
SEQEND
  8
0
  0
SOLID
  8
0
 62
    15
 10
6.358000
 20
4.858920
 11
6.354920
 21
5.599440
 12
6.396280
 22
4.855840
 13
6.393200
 23
5.596360
  0
POLYLINE
  8
0
  6
CONTINUOUS
 66
     1
 40
0.000000
 41
0.000000
  0
VERTEX
  8
0
  6
CONTINUOUS
 10
6.358000
 20
4.858920
  0
VERTEX
  8
0
  6
CONTINUOUS
 10
6.354920
 20
5.599440
  0
VERTEX
  8
0
  6
CONTINUOUS
 10
6.393200
 20
5.596360
  0
VERTEX
  8
0
  6
CONTINUOUS
 10
6.396280
 20
4.855840
  0
VERTEX
  8
0
  6
CONTINUOUS
 10
6.358000
 20
4.858920
  0
SEQEND
  8
0
  0
SOLID
  8
0
 62
    15
 10
6.396280
 20
4.855840
 11
6.393200
 21
5.596360
 12
6.432360
 22
4.847480
 13
6.429280
 23
5.587560
  0
POLYLINE
  8
0
  6
CONTINUOUS
 66
     1
 40
0.000000
 41
0.000000
  0
VERTEX
  8
0
  6
CONTINUOUS
 10
6.396280
 20
4.855840
  0
VERTEX
  8
0
  6
CONTINUOUS
 10
6.393200
 20
5.596360
  0
VERTEX
  8
0
  6
CONTINUOUS
 10
6.429280
 20
5.587560
  0
VERTEX
  8
0
  6
CONTINUOUS
 10
6.432360
 20
4.847480
  0
VERTEX
  8
0
  6
CONTINUOUS
 10
6.396280
 20
4.855840
  0
SEQEND
  8
0
  0
SOLID
  8
0
 62
    15
 10
6.432360
 20
4.847480
 11
6.429280
 21
5.587560
 12
6.466240
 22
4.833400
 13
6.463160
 23
5.573920
  0
POLYLINE
  8
0
  6
CONTINUOUS
 66
     1
 40
0.000000
 41
0.000000
  0
VERTEX
  8
0
  6
CONTINUOUS
 10
6.432360
 20
4.847480
  0
VERTEX
  8
0
  6
CONTINUOUS
 10
6.429280
 20
5.587560
  0
VERTEX
  8
0
  6
CONTINUOUS
 10
6.463160
 20
5.573920
  0
VERTEX
  8
0
  6
CONTINUOUS
 10
6.466240
 20
4.833400
  0
VERTEX
  8
0
  6
CONTINUOUS
 10
6.432360
 20
4.847480
  0
SEQEND
  8
0
  0
SOLID
  8
0
 62
    15
 10
6.466240
 20
4.833400
 11
6.463160
 21
5.573920
 12
6.497480
 22
4.814920
 13
6.494400
 23
5.555440
  0
POLYLINE
  8
0
  6
CONTINUOUS
 66
     1
 40
0.000000
 41
0.000000
  0
VERTEX
  8
0
  6
CONTINUOUS
 10
6.466240
 20
4.833400
  0
VERTEX
  8
0
  6
CONTINUOUS
 10
6.463160
 20
5.573920
  0
VERTEX
  8
0
  6
CONTINUOUS
 10
6.494400
 20
5.555440
  0
VERTEX
  8
0
  6
CONTINUOUS
 10
6.497480
 20
4.814920
  0
VERTEX
  8
0
  6
CONTINUOUS
 10
6.466240
 20
4.833400
  0
SEQEND
  8
0
  0
SOLID
  8
0
 62
    15
 10
6.497480
 20
4.814920
 11
6.494400
 21
5.555440
 12
6.525200
 22
4.792040
 13
6.522120
 23
5.532560
  0
POLYLINE
  8
0
  6
CONTINUOUS
 66
     1
 40
0.000000
 41
0.000000
  0
VERTEX
  8
0
  6
CONTINUOUS
 10
6.497480
 20
4.814920
  0
VERTEX
  8
0
  6
CONTINUOUS
 10
6.494400
 20
5.555440
  0
VERTEX
  8
0
  6
CONTINUOUS
 10
6.522120
 20
5.532560
  0
VERTEX
  8
0
  6
CONTINUOUS
 10
6.525200
 20
4.792040
  0
VERTEX
  8
0
  6
CONTINUOUS
 10
6.497480
 20
4.814920
  0
SEQEND
  8
0
  0
SOLID
  8
0
 62
    15
 10
6.525200
 20
4.792040
 11
6.522120
 21
5.532560
 12
6.549400
 22
4.765640
 13
6.546320
 23
5.505720
  0
POLYLINE
  8
0
  6
CONTINUOUS
 66
     1
 40
0.000000
 41
0.000000
  0
VERTEX
  8
0
  6
CONTINUOUS
 10
6.525200
 20
4.792040
  0
VERTEX
  8
0
  6
CONTINUOUS
 10
6.522120
 20
5.532560
  0
VERTEX
  8
0
  6
CONTINUOUS
 10
6.546320
 20
5.505720
  0
VERTEX
  8
0
  6
CONTINUOUS
 10
6.549400
 20
4.765640
  0
VERTEX
  8
0
  6
CONTINUOUS
 10
6.525200
 20
4.792040
  0
SEQEND
  8
0
  0
SOLID
  8
0
 62
    15
 10
6.585040
 20
4.702280
 11
6.581960
 21
5.442800
 12
6.831440
 22
4.702280
 13
6.828360
 23
5.442800
  0
POLYLINE
  8
0
  6
CONTINUOUS
 66
     1
 40
0.000000
 41
0.000000
  0
VERTEX
  8
0
  6
CONTINUOUS
 10
6.585040
 20
4.702280
  0
VERTEX
  8
0
  6
CONTINUOUS
 10
6.581960
 20
5.442800
  0
VERTEX
  8
0
  6
CONTINUOUS
 10
6.828360
 20
5.442800
  0
VERTEX
  8
0
  6
CONTINUOUS
 10
6.831440
 20
4.702280
  0
VERTEX
  8
0
  6
CONTINUOUS
 10
6.585040
 20
4.702280
  0
SEQEND
  8
0
  0
SOLID
  8
0
 62
    15
 10
6.569200
 20
4.735280
 11
6.566560
 21
5.475800
 12
6.585040
 22
4.702280
 13
6.581960
 23
5.442800
  0
POLYLINE
  8
0
  6
CONTINUOUS
 66
     1
 40
0.000000
 41
0.000000
  0
VERTEX
  8
0
  6
CONTINUOUS
 10
6.569200
 20
4.735280
  0
VERTEX
  8
0
  6
CONTINUOUS
 10
6.566560
 20
5.475800
  0
VERTEX
  8
0
  6
CONTINUOUS
 10
6.581960
 20
5.442800
  0
VERTEX
  8
0
  6
CONTINUOUS
 10
6.585040
 20
4.702280
  0
VERTEX
  8
0
  6
CONTINUOUS
 10
6.569200
 20
4.735280
  0
SEQEND
  8
0
  0
SOLID
  8
0
 62
    15
 10
6.549400
 20
4.765640
 11
6.546320
 21
5.505720
 12
6.569200
 22
4.735280
 13
6.566560
 23
5.475800
  0
POLYLINE
  8
0
  6
CONTINUOUS
 66
     1
 40
0.000000
 41
0.000000
  0
VERTEX
  8
0
  6
CONTINUOUS
 10
6.549400
 20
4.765640
  0
VERTEX
  8
0
  6
CONTINUOUS
 10
6.546320
 20
5.505720
  0
VERTEX
  8
0
  6
CONTINUOUS
 10
6.566560
 20
5.475800
  0
VERTEX
  8
0
  6
CONTINUOUS
 10
6.569200
 20
4.735280
  0
VERTEX
  8
0
  6
CONTINUOUS
 10
6.549400
 20
4.765640
  0
SEQEND
  8
0
  0
SOLID
  8
0
 62
    15
 10
1.997160
 20
4.402640
 11
1.994520
 21
5.142720
 12
1.998480
 22
4.403520
 13
1.995400
 23
5.143600
  0
POLYLINE
  8
0
  6
CONTINUOUS
 66
     1
 40
0.000000
 41
0.000000
  0
VERTEX
  8
0
  6
CONTINUOUS
 10
1.997160
 20
4.402640
  0
VERTEX
  8
0
  6
CONTINUOUS
 10
1.994520
 20
5.142720
  0
VERTEX
  8
0
  6
CONTINUOUS
 10
1.995400
 20
5.143600
  0
VERTEX
  8
0
  6
CONTINUOUS
 10
1.998480
 20
4.403520
  0
VERTEX
  8
0
  6
CONTINUOUS
 10
1.997160
 20
4.402640
  0
SEQEND
  8
0
  0
POLYLINE
  8
0
  6
CONTINUOUS
 66
     1
 40
0.000000
 41
0.000000
  0
VERTEX
  8
0
  6
CONTINUOUS
 10
1.998480
 20
4.403520
  0
VERTEX
  8
0
  6
CONTINUOUS
 10
1.838760
 20
4.403520
  0
VERTEX
  8
0
  6
CONTINUOUS
 10
1.838760
 20
5.251840
  0
VERTEX
  8
0
  6
CONTINUOUS
 10
2.737240
 20
5.251840
  0
VERTEX
  8
0
  6
CONTINUOUS
 10
2.765840
 20
5.162080
  0
VERTEX
  8
0
  6
CONTINUOUS
 10
2.903560
 20
5.162080
  0
VERTEX
  8
0
  6
CONTINUOUS
 10
3.100680
 20
5.158560
  0
VERTEX
  8
0
  6
CONTINUOUS
 10
3.213320
 20
5.154160
  0
VERTEX
  8
0
  6
CONTINUOUS
 10
3.332120
 20
5.147560
  0
VERTEX
  8
0
  6
CONTINUOUS
 10
3.575440
 20
5.125560
  0
VERTEX
  8
0
  6
CONTINUOUS
 10
3.693360
 20
5.108840
  0
VERTEX
  8
0
  6
CONTINUOUS
 10
3.805560
 20
5.088160
  0
VERTEX
  8
0
  6
CONTINUOUS
 10
3.908960
 20
5.062200
  0
VERTEX
  8
0
  6
CONTINUOUS
 10
4.000040
 20
5.031400
  0
VERTEX
  8
0
  6
CONTINUOUS
 10
4.040080
 20
5.013360
  0
VERTEX
  8
0
  6
CONTINUOUS
 10
4.075720
 20
4.994000
  0
VERTEX
  8
0
  6
CONTINUOUS
 10
4.107400
 20
4.973320
  0
VERTEX
  8
0
  6
CONTINUOUS
 10
4.133800
 20
4.950880
  0
VERTEX
  8
0
  6
CONTINUOUS
 10
4.155360
 20
4.926680
  0
VERTEX
  8
0
  6
CONTINUOUS
 10
4.170760
 20
4.900720
  0
VERTEX
  8
0
  6
CONTINUOUS
 10
4.180440
 20
4.872560
  0
VERTEX
  8
0
  6
CONTINUOUS
 10
4.183960
 20
4.842640
  0
VERTEX
  8
0
  6
CONTINUOUS
 10
4.528920
 20
4.842640
  0
VERTEX
  8
0
  6
CONTINUOUS
 10
4.540800
 20
4.880040
  0
VERTEX
  8
0
  6
CONTINUOUS
 10
4.557960
 20
4.913920
  0
VERTEX
  8
0
  6
CONTINUOUS
 10
4.580840
 20
4.944720
  0
VERTEX
  8
0
  6
CONTINUOUS
 10
4.608560
 20
4.971120
  0
VERTEX
  8
0
  6
CONTINUOUS
 10
4.639800
 20
4.992680
  0
VERTEX
  8
0
  6
CONTINUOUS
 10
4.675000
 20
5.008520
  0
VERTEX
  8
0
  6
CONTINUOUS
 10
4.712840
 20
5.018640
  0
VERTEX
  8
0
  6
CONTINUOUS
 10
4.752880
 20
5.022600
  0
VERTEX
  8
0
  6
CONTINUOUS
 10
4.793360
 20
5.019080
  0
VERTEX
  8
0
  6
CONTINUOUS
 10
4.831200
 20
5.008960
  0
VERTEX
  8
0
  6
CONTINUOUS
 10
4.865960
 20
4.992680
  0
VERTEX
  8
0
  6
CONTINUOUS
 10
4.897640
 20
4.971120
  0
VERTEX
  8
0
  6
CONTINUOUS
 10
4.924920
 20
4.944720
  0
VERTEX
  8
0
  6
CONTINUOUS
 10
4.947800
 20
4.914360
  0
VERTEX
  8
0
  6
CONTINUOUS
 10
4.965400
 20
4.880040
  0
VERTEX
  8
0
  6
CONTINUOUS
 10
4.977280
 20
4.842640
  0
VERTEX
  8
0
  6
CONTINUOUS
 10
5.318720
 20
4.842640
  0
VERTEX
  8
0
  6
CONTINUOUS
 10
5.326640
 20
4.814920
  0
VERTEX
  8
0
  6
CONTINUOUS
 10
5.345560
 20
4.790720
  0
VERTEX
  8
0
  6
CONTINUOUS
 10
5.375040
 20
4.770480
  0
VERTEX
  8
0
  6
CONTINUOUS
 10
5.413320
 20
4.753320
  0
VERTEX
  8
0
  6
CONTINUOUS
 10
5.459080
 20
4.739680
  0
VERTEX
  8
0
  6
CONTINUOUS
 10
5.511440
 20
4.728240
  0
VERTEX
  8
0
  6
CONTINUOUS
 10
5.569080
 20
4.719440
  0
VERTEX
  8
0
  6
CONTINUOUS
 10
5.631120
 20
4.712840
  0
VERTEX
  8
0
  6
CONTINUOUS
 10
5.762240
 20
4.704920
  0
VERTEX
  8
0
  6
CONTINUOUS
 10
5.895560
 20
4.701840
  0
VERTEX
  8
0
  6
CONTINUOUS
 10
6.130960
 20
4.702280
  0
VERTEX
  8
0
  6
CONTINUOUS
 10
6.146360
 20
4.735720
  0
VERTEX
  8
0
  6
CONTINUOUS
 10
6.166600
 20
4.765640
  0
VERTEX
  8
0
  6
CONTINUOUS
 10
6.190800
 20
4.792040
  0
VERTEX
  8
0
  6
CONTINUOUS
 10
6.218520
 20
4.814920
  0
VERTEX
  8
0
  6
CONTINUOUS
 10
6.249760
 20
4.833840
  0
VERTEX
  8
0
  6
CONTINUOUS
 10
6.283640
 20
4.847480
  0
VERTEX
  8
0
  6
CONTINUOUS
 10
6.319720
 20
4.856280
  0
VERTEX
  8
0
  6
CONTINUOUS
 10
6.358000
 20
4.858920
  0
VERTEX
  8
0
  6
CONTINUOUS
 10
6.396280
 20
4.855840
  0
VERTEX
  8
0
  6
CONTINUOUS
 10
6.432360
 20
4.847480
  0
VERTEX
  8
0
  6
CONTINUOUS
 10
6.466240
 20
4.833400
  0
VERTEX
  8
0
  6
CONTINUOUS
 10
6.497480
 20
4.814920
  0
VERTEX
  8
0
  6
CONTINUOUS
 10
6.525200
 20
4.792040
  0
VERTEX
  8
0
  6
CONTINUOUS
 10
6.549400
 20
4.765640
  0
VERTEX
  8
0
  6
CONTINUOUS
 10
6.569200
 20
4.735280
  0
VERTEX
  8
0
  6
CONTINUOUS
 10
6.585040
 20
4.702280
  0
VERTEX
  8
0
  6
CONTINUOUS
 10
6.831440
 20
4.702280
  0
VERTEX
  8
0
  6
CONTINUOUS
 10
6.831440
 20
4.402640
  0
VERTEX
  8
0
  6
CONTINUOUS
 10
1.997160
 20
4.402640
  0
VERTEX
  8
0
  6
CONTINUOUS
 10
1.998480
 20
4.403520
  0
SEQEND
  8
0
  0
TEXT
  8
0
 10
3.955600
 20
4.122800
 40
0.138157
  1
BA  1173
 41
1.000000
  7
SN0
 71
     0
 72
     5
 11
4.638071
 21
4.122800
  0
TEXT
  8
0
 10
3.955600
 20
3.931400
 40
0.138157
  1
7/8" x 5"
 41
1.000000
  7
SN0
 71
     0
 72
     5
 11
4.570746
 21
3.931400
  0
POLYLINE
  8
0
  6
CONTINUOUS
 66
     1
 40
0.014080
 41
0.014080
  0
VERTEX
  8
0
  6
CONTINUOUS
 10
1.996720
 20
6.722760
  0
VERTEX
  8
0
  6
CONTINUOUS
 10
1.837440
 20
6.722760
  0
VERTEX
  8
0
  6
CONTINUOUS
 10
1.837440
 20
7.571080
  0
VERTEX
  8
0
  6
CONTINUOUS
 10
2.735480
 20
7.571080
  0
VERTEX
  8
0
  6
CONTINUOUS
 10
2.764080
 20
7.481320
  0
VERTEX
  8
0
  6
CONTINUOUS
 10
2.970440
 20
7.480440
  0
VERTEX
  8
0
  6
CONTINUOUS
 10
3.098920
 20
7.477800
  0
VERTEX
  8
0
  6
CONTINUOUS
 10
3.270960
 20
7.470320
  0
VERTEX
  8
0
  6
CONTINUOUS
 10
3.452240
 20
7.457560
  0
VERTEX
  8
0
  6
CONTINUOUS
 10
3.573680
 20
7.444800
  0
VERTEX
  8
0
  6
CONTINUOUS
 10
3.692040
 20
7.428520
  0
VERTEX
  8
0
  6
CONTINUOUS
 10
3.804240
 20
7.407400
  0
VERTEX
  8
0
  6
CONTINUOUS
 10
3.882560
 20
7.388480
  0
VERTEX
  8
0
  6
CONTINUOUS
 10
3.954720
 20
7.366920
  0
VERTEX
  8
0
  6
CONTINUOUS
 10
4.018960
 20
7.341840
  0
VERTEX
  8
0
  6
CONTINUOUS
 10
4.056800
 20
7.323360
  0
VERTEX
  8
0
  6
CONTINUOUS
 10
4.106080
 20
7.292560
  0
VERTEX
  8
0
  6
CONTINUOUS
 10
4.132480
 20
7.270120
  0
VERTEX
  8
0
  6
CONTINUOUS
 10
4.143920
 20
7.258240
  0
VERTEX
  8
0
  6
CONTINUOUS
 10
4.162400
 20
7.232720
  0
VERTEX
  8
0
  6
CONTINUOUS
 10
4.175160
 20
7.205880
  0
VERTEX
  8
0
  6
CONTINUOUS
 10
4.181760
 20
7.176840
  0
VERTEX
  8
0
  6
CONTINUOUS
 10
4.182640
 20
7.161880
  0
VERTEX
  8
0
  6
CONTINUOUS
 10
4.527600
 20
7.161880
  0
VERTEX
  8
0
  6
CONTINUOUS
 10
4.532440
 20
7.180800
  0
VERTEX
  8
0
  6
CONTINUOUS
 10
4.539040
 20
7.199280
  0
VERTEX
  8
0
  6
CONTINUOUS
 10
4.556640
 20
7.233160
  0
VERTEX
  8
0
  6
CONTINUOUS
 10
4.579520
 20
7.263960
  0
VERTEX
  8
0
  6
CONTINUOUS
 10
4.606800
 20
7.290360
  0
VERTEX
  8
0
  6
CONTINUOUS
 10
4.638480
 20
7.311920
  0
VERTEX
  8
0
  6
CONTINUOUS
 10
4.655640
 20
7.320720
  0
VERTEX
  8
0
  6
CONTINUOUS
 10
4.692160
 20
7.333480
  0
VERTEX
  8
0
  6
CONTINUOUS
 10
4.711520
 20
7.337880
  0
VERTEX
  8
0
  6
CONTINUOUS
 10
4.751560
 20
7.341840
  0
VERTEX
  8
0
  6
CONTINUOUS
 10
4.771800
 20
7.340960
  0
VERTEX
  8
0
  6
CONTINUOUS
 10
4.791600
 20
7.338320
  0
VERTEX
  8
0
  6
CONTINUOUS
 10
4.829440
 20
7.328200
  0
VERTEX
  8
0
  6
CONTINUOUS
 10
4.864640
 20
7.311920
  0
VERTEX
  8
0
  6
CONTINUOUS
 10
4.880920
 20
7.301800
  0
VERTEX
  8
0
  6
CONTINUOUS
 10
4.910400
 20
7.278040
  0
VERTEX
  8
0
  6
CONTINUOUS
 10
4.935480
 20
7.249440
  0
VERTEX
  8
0
  6
CONTINUOUS
 10
4.946480
 20
7.233600
  0
VERTEX
  8
0
  6
CONTINUOUS
 10
4.963640
 20
7.199280
  0
VERTEX
  8
0
  6
CONTINUOUS
 10
4.975520
 20
7.161880
  0
VERTEX
  8
0
  6
CONTINUOUS
 10
5.317400
 20
7.161880
  0
VERTEX
  8
0
  6
CONTINUOUS
 10
5.320040
 20
7.147360
  0
VERTEX
  8
0
  6
CONTINUOUS
 10
5.328840
 20
7.127560
  0
VERTEX
  8
0
  6
CONTINUOUS
 10
5.344240
 20
7.109960
  0
VERTEX
  8
0
  6
CONTINUOUS
 10
5.365360
 20
7.094560
  0
VERTEX
  8
0
  6
CONTINUOUS
 10
5.391760
 20
7.080480
  0
VERTEX
  8
0
  6
CONTINUOUS
 10
5.434000
 20
7.065080
  0
VERTEX
  8
0
  6
CONTINUOUS
 10
5.483280
 20
7.052760
  0
VERTEX
  8
0
  6
CONTINUOUS
 10
5.538280
 20
7.042640
  0
VERTEX
  8
0
  6
CONTINUOUS
 10
5.629800
 20
7.031640
  0
VERTEX
  8
0
  6
CONTINUOUS
 10
5.760920
 20
7.023720
  0
VERTEX
  8
0
  6
CONTINUOUS
 10
5.926800
 20
7.020640
  0
VERTEX
  8
0
  6
CONTINUOUS
 10
6.129640
 20
7.021520
  0
VERTEX
  8
0
  6
CONTINUOUS
 10
6.145040
 20
7.054520
  0
VERTEX
  8
0
  6
CONTINUOUS
 10
6.165280
 20
7.084880
  0
VERTEX
  8
0
  6
CONTINUOUS
 10
6.189480
 20
7.111280
  0
VERTEX
  8
0
  6
CONTINUOUS
 10
6.202680
 20
7.123600
  0
VERTEX
  8
0
  6
CONTINUOUS
 10
6.232160
 20
7.144280
  0
VERTEX
  8
0
  6
CONTINUOUS
 10
6.264720
 20
7.160560
  0
VERTEX
  8
0
  6
CONTINUOUS
 10
6.299920
 20
7.171560
  0
VERTEX
  8
0
  6
CONTINUOUS
 10
6.336880
 20
7.177280
  0
VERTEX
  8
0
  6
CONTINUOUS
 10
6.356680
 20
7.178160
  0
VERTEX
  8
0
  6
CONTINUOUS
 10
6.394520
 20
7.175080
  0
VERTEX
  8
0
  6
CONTINUOUS
 10
6.431040
 20
7.166720
  0
VERTEX
  8
0
  6
CONTINUOUS
 10
6.464480
 20
7.152640
  0
VERTEX
  8
0
  6
CONTINUOUS
 10
6.495720
 20
7.134160
  0
VERTEX
  8
0
  6
CONTINUOUS
 10
6.523440
 20
7.111280
  0
VERTEX
  8
0
  6
CONTINUOUS
 10
6.536200
 20
7.098520
  0
VERTEX
  8
0
  6
CONTINUOUS
 10
6.558200
 20
7.069920
  0
VERTEX
  8
0
  6
CONTINUOUS
 10
6.576240
 20
7.038240
  0
VERTEX
  8
0
  6
CONTINUOUS
 10
6.583280
 20
7.021520
  0
VERTEX
  8
0
  6
CONTINUOUS
 10
6.829680
 20
7.021520
  0
VERTEX
  8
0
  6
CONTINUOUS
 10
6.829680
 20
6.721880
  0
VERTEX
  8
0
  6
CONTINUOUS
 10
1.995840
 20
6.721880
  0
VERTEX
  8
0
  6
CONTINUOUS
 10
1.996720
 20
6.722760
  0
SEQEND
  8
0
  0
TEXT
  8
0
 10
2.141920
 20
7.039120
 40
0.138157
  1
BA  1173
 41
1.000000
  7
SN0
 71
     0
 72
     5
 11
2.824391
 21
7.039120
  0
TEXT
  8
0
 10
2.141920
 20
6.847720
 40
0.138157
  1
7/8" x 5"
 41
1.000000
  7
SN0
 71
     0
 72
     5
 11
2.757066
 21
6.847720
  0
ENDSEC
  0
EOF
