  0
SECTION
  2
HEADER
  9
$ACADVER
  1
AC1006
  9
$EXTMIN
 10
3.608440
 20
2.168760
  9
$EXTMAX
 10
5.380320
 20
9.638640
  9
$LTSCALE
 40
0.044000
  9
$PDMODE
 70
    35
  9
$PDSIZE
 40
0.035200
  0
ENDSEC
  0
SECTION
  2
TABLES
  0
TABLE
  2
LTYPE
 70
     9
  0
LTYPE
  2
CONTINUOUS
 70
    64
  3
Solid line
 72
    65
 73
     0
 40
0.000000
  0
LTYPE
  2
DASHED
 70
    64
  3
__ __ __ __ __ __ __ __ __ __ __ __ __ __ __
 72
    65
 73
     2
 40
0.000330
 49
0.000220
 49
-0.000110
  0
LTYPE
  2
HIDDEN
 70
    64
  3
 _ _ _ _ _ _ _ _ _ _ _ _ _ _ _ _ _ _ _ _ _ _
 72
    65
 73
     2
 40
0.000165
 49
0.000110
 49
-0.000055
  0
LTYPE
  2
CENTER
 70
    64
  3
____ _ ____ _ ____ _ ____ _ ____ _ ____ _ ____
 72
    65
 73
     4
 40
0.000880
 49
0.000550
 49
-0.000110
 49
0.000110
 49
-0.000110
  0
LTYPE
  2
PHANTOM
 70
    64
  3
_____ _ _ _____ _ _ _____ _ _ _____ _ _ ____
 72
    65
 73
     6
 40
0.001100
 49
0.000550
 49
-0.000110
 49
0.000110
 49
-0.000110
 49
0.000110
 49
-0.000110
  0
LTYPE
  2
DOT
 70
    64
  3
...............................................
 72
    65
 73
     2
 40
0.000110
 49
0.000000
 49
-0.000110
  0
LTYPE
  2
DASHDOT
 70
    64
  3
__ . __ . __ . __ . __ . __ . __ . __ . __ . __
 72
    65
 73
     4
 40
0.000440
 49
0.000220
 49
-0.000110
 49
0.000000
 49
-0.000110
  0
LTYPE
  2
BORDER
 70
    64
  3
__ __ . __ __ . __ __ . __ __ . __ __ . __ __
 72
    65
 73
     6
 40
0.000770
 49
0.000220
 49
-0.000110
 49
0.000220
 49
-0.000110
 49
0.000000
 49
-0.000110
  0
LTYPE
  2
DIVIDE
 70
    64
  3
__ . . __ . . __ . . __ . . __ . . __ . . __
 72
    65
 73
     6
 40
0.000550
 49
0.000220
 49
-0.000110
 49
0.000000
 49
-0.000110
 49
0.000000
 49
-0.000110
  0
LTYPE
  2
DOTDOT
 70
    64
  3
 . .  . .  . .  . .  . .  . . 
 72
    65
 73
     5
 40
0.000242
 49
-0.000110
 49
0.000000
 49
-0.000110
 49
0.000000
 49
-0.000110
  0
ENDTAB
  0
TABLE
  2
STYLE
 70
     2
  0
STYLE
 70
     0
  2
SN0
 40
0.000000
 41
0.000440
 50
0.000000
 71
     0
 42
0.000000
  3
ROMAND
  0
STYLE
 70
    68
  2
SV0
 40
0.000000
 41
0.000440
 50
0.000000
 71
     0
 42
0.000000
  3
ROMAND
  0
ENDTAB
  0
TABLE
  2
LAYER
 70
     3
  0
LAYER
  2
FOREGROUND
 70
    64
 62
     7
  6
CONTINUOUS
  0
LAYER
  2
BACKGROUND
 70
    65
 62
    -7
  6
CONTINUOUS
  0
LAYER
  2
0
 70
    64
 62
     7
  6
CONTINUOUS
  0
ENDTAB
  0
ENDSEC
  0
SECTION
  2
ENTITIES
  0
POLYLINE
  8
FOREGROUND
  6
CONTINUOUS
 66
     1
 40
0.000000
 41
0.000000
  0
VERTEX
  8
FOREGROUND
  6
CONTINUOUS
 10
0.000000
 20
11.807400
  0
VERTEX
  8
FOREGROUND
  6
CONTINUOUS
 10
8.499920
 20
11.807400
  0
VERTEX
  8
FOREGROUND
  6
CONTINUOUS
 10
8.499920
 20
0.807400
  0
VERTEX
  8
FOREGROUND
  6
CONTINUOUS
 10
0.000000
 20
0.807400
  0
VERTEX
  8
FOREGROUND
  6
CONTINUOUS
 10
0.000000
 20
11.807400
  0
SEQEND
  8
0
  0
POLYLINE
  8
FOREGROUND
  6
CONTINUOUS
 66
     1
 40
0.000000
 41
0.000000
  0
VERTEX
  8
FOREGROUND
  6
CONTINUOUS
 10
0.000000
 20
11.807400
  0
VERTEX
  8
FOREGROUND
  6
CONTINUOUS
 10
8.499920
 20
11.807400
  0
VERTEX
  8
FOREGROUND
  6
CONTINUOUS
 10
8.499920
 20
0.807400
  0
VERTEX
  8
FOREGROUND
  6
CONTINUOUS
 10
0.000000
 20
0.807400
  0
VERTEX
  8
FOREGROUND
  6
CONTINUOUS
 10
0.000000
 20
11.807400
  0
SEQEND
  8
0
  0
POLYLINE
  8
0
  6
CONTINUOUS
 66
     1
 40
0.000000
 41
0.000000
  0
VERTEX
  8
0
  6
CONTINUOUS
 10
4.942960
 20
3.558280
  0
VERTEX
  8
0
  6
CONTINUOUS
 10
3.941080
 20
3.558280
  0
VERTEX
  8
0
  6
CONTINUOUS
 10
3.941080
 20
3.334760
  0
VERTEX
  8
0
  6
CONTINUOUS
 10
3.941960
 20
3.326840
  0
VERTEX
  8
0
  6
CONTINUOUS
 10
3.948560
 20
3.312760
  0
VERTEX
  8
0
  6
CONTINUOUS
 10
3.960440
 20
3.301320
  0
VERTEX
  8
0
  6
CONTINUOUS
 10
3.982880
 20
3.288560
  0
VERTEX
  8
0
  6
CONTINUOUS
 10
4.018520
 20
3.277560
  0
VERTEX
  8
0
  6
CONTINUOUS
 10
4.039640
 20
3.271840
  0
VERTEX
  8
0
  6
CONTINUOUS
 10
4.064720
 20
3.261280
  0
VERTEX
  8
0
  6
CONTINUOUS
 10
4.092000
 20
3.245440
  0
VERTEX
  8
0
  6
CONTINUOUS
 10
4.123240
 20
3.221240
  0
VERTEX
  8
0
  6
CONTINUOUS
 10
4.155800
 20
3.187360
  0
VERTEX
  8
0
  6
CONTINUOUS
 10
4.180000
 20
3.154360
  0
VERTEX
  8
0
  6
CONTINUOUS
 10
4.202880
 20
3.114760
  0
VERTEX
  8
0
  6
CONTINUOUS
 10
4.223120
 20
3.067680
  0
VERTEX
  8
0
  6
CONTINUOUS
 10
4.262280
 20
2.952400
  0
VERTEX
  8
0
  6
CONTINUOUS
 10
4.283400
 20
2.899160
  0
VERTEX
  8
0
  6
CONTINUOUS
 10
4.294840
 20
2.875400
  0
VERTEX
  8
0
  6
CONTINUOUS
 10
4.307160
 20
2.854280
  0
VERTEX
  8
0
  6
CONTINUOUS
 10
4.328280
 20
2.826120
  0
VERTEX
  8
0
  6
CONTINUOUS
 10
4.352480
 20
2.802360
  0
VERTEX
  8
0
  6
CONTINUOUS
 10
4.381520
 20
2.783000
  0
VERTEX
  8
0
  6
CONTINUOUS
 10
4.403520
 20
2.772440
  0
VERTEX
  8
0
  6
CONTINUOUS
 10
4.442240
 20
2.760120
  0
VERTEX
  8
0
  6
CONTINUOUS
 10
4.488000
 20
2.751760
  0
VERTEX
  8
0
  6
CONTINUOUS
 10
4.505160
 20
2.749560
  0
VERTEX
  8
0
  6
CONTINUOUS
 10
4.505160
 20
2.602600
  0
VERTEX
  8
0
  6
CONTINUOUS
 10
4.623960
 20
2.602600
  0
VERTEX
  8
0
  6
CONTINUOUS
 10
4.623960
 20
2.457840
  0
VERTEX
  8
0
  6
CONTINUOUS
 10
4.715040
 20
2.457840
  0
VERTEX
  8
0
  6
CONTINUOUS
 10
4.733520
 20
2.395360
  0
VERTEX
  8
0
  6
CONTINUOUS
 10
4.742320
 20
2.374240
  0
VERTEX
  8
0
  6
CONTINUOUS
 10
4.757280
 20
2.351360
  0
VERTEX
  8
0
  6
CONTINUOUS
 10
4.776200
 20
2.334200
  0
VERTEX
  8
0
  6
CONTINUOUS
 10
4.825040
 20
2.305600
  0
VERTEX
  8
0
  6
CONTINUOUS
 10
4.846160
 20
2.288880
  0
VERTEX
  8
0
  6
CONTINUOUS
 10
4.873880
 20
2.258960
  0
VERTEX
  8
0
  6
CONTINUOUS
 10
4.896320
 20
2.226840
  0
VERTEX
  8
0
  6
CONTINUOUS
 10
4.911280
 20
2.196920
  0
VERTEX
  8
0
  6
CONTINUOUS
 10
4.918320
 20
2.174480
  0
VERTEX
  8
0
  6
CONTINUOUS
 10
4.918320
 20
2.169200
  0
VERTEX
  8
0
  6
CONTINUOUS
 10
5.047680
 20
2.169200
  0
VERTEX
  8
0
  6
CONTINUOUS
 10
5.047680
 20
3.559160
  0
VERTEX
  8
0
  6
CONTINUOUS
 10
4.942960
 20
3.559160
  0
VERTEX
  8
0
  6
CONTINUOUS
 10
4.942960
 20
3.558280
  0
SEQEND
  8
0
  0
POLYLINE
  8
0
  6
CONTINUOUS
 66
     1
 40
0.000000
 41
0.000000
  0
VERTEX
  8
0
  6
CONTINUOUS
 10
4.045800
 20
5.380760
  0
VERTEX
  8
0
  6
CONTINUOUS
 10
5.047680
 20
5.380760
  0
VERTEX
  8
0
  6
CONTINUOUS
 10
5.047680
 20
5.157240
  0
VERTEX
  8
0
  6
CONTINUOUS
 10
5.046800
 20
5.149320
  0
VERTEX
  8
0
  6
CONTINUOUS
 10
5.040200
 20
5.135240
  0
VERTEX
  8
0
  6
CONTINUOUS
 10
5.028320
 20
5.123800
  0
VERTEX
  8
0
  6
CONTINUOUS
 10
5.006320
 20
5.111040
  0
VERTEX
  8
0
  6
CONTINUOUS
 10
4.970680
 20
5.100040
  0
VERTEX
  8
0
  6
CONTINUOUS
 10
4.949560
 20
5.094320
  0
VERTEX
  8
0
  6
CONTINUOUS
 10
4.924040
 20
5.083760
  0
VERTEX
  8
0
  6
CONTINUOUS
 10
4.896760
 20
5.067920
  0
VERTEX
  8
0
  6
CONTINUOUS
 10
4.865520
 20
5.043720
  0
VERTEX
  8
0
  6
CONTINUOUS
 10
4.832960
 20
5.009840
  0
VERTEX
  8
0
  6
CONTINUOUS
 10
4.808760
 20
4.976840
  0
VERTEX
  8
0
  6
CONTINUOUS
 10
4.785880
 20
4.937240
  0
VERTEX
  8
0
  6
CONTINUOUS
 10
4.765640
 20
4.890160
  0
VERTEX
  8
0
  6
CONTINUOUS
 10
4.726480
 20
4.774880
  0
VERTEX
  8
0
  6
CONTINUOUS
 10
4.705360
 20
4.721640
  0
VERTEX
  8
0
  6
CONTINUOUS
 10
4.693920
 20
4.697880
  0
VERTEX
  8
0
  6
CONTINUOUS
 10
4.681600
 20
4.676760
  0
VERTEX
  8
0
  6
CONTINUOUS
 10
4.660920
 20
4.648600
  0
VERTEX
  8
0
  6
CONTINUOUS
 10
4.636280
 20
4.624840
  0
VERTEX
  8
0
  6
CONTINUOUS
 10
4.607680
 20
4.605480
  0
VERTEX
  8
0
  6
CONTINUOUS
 10
4.572920
 20
4.590520
  0
VERTEX
  8
0
  6
CONTINUOUS
 10
4.546520
 20
4.582600
  0
VERTEX
  8
0
  6
CONTINUOUS
 10
4.500760
 20
4.574240
  0
VERTEX
  8
0
  6
CONTINUOUS
 10
4.483600
 20
4.572040
  0
VERTEX
  8
0
  6
CONTINUOUS
 10
4.483600
 20
4.425080
  0
VERTEX
  8
0
  6
CONTINUOUS
 10
4.364800
 20
4.425080
  0
VERTEX
  8
0
  6
CONTINUOUS
 10
4.364800
 20
4.279880
  0
VERTEX
  8
0
  6
CONTINUOUS
 10
4.274160
 20
4.279880
  0
VERTEX
  8
0
  6
CONTINUOUS
 10
4.259640
 20
4.230160
  0
VERTEX
  8
0
  6
CONTINUOUS
 10
4.246440
 20
4.196720
  0
VERTEX
  8
0
  6
CONTINUOUS
 10
4.237200
 20
4.180440
  0
VERTEX
  8
0
  6
CONTINUOUS
 10
4.219600
 20
4.161960
  0
VERTEX
  8
0
  6
CONTINUOUS
 10
4.195840
 20
4.146120
  0
VERTEX
  8
0
  6
CONTINUOUS
 10
4.163720
 20
4.128080
  0
VERTEX
  8
0
  6
CONTINUOUS
 10
4.142600
 20
4.111360
  0
VERTEX
  8
0
  6
CONTINUOUS
 10
4.114880
 20
4.081440
  0
VERTEX
  8
0
  6
CONTINUOUS
 10
4.092440
 20
4.049320
  0
VERTEX
  8
0
  6
CONTINUOUS
 10
4.077480
 20
4.019400
  0
VERTEX
  8
0
  6
CONTINUOUS
 10
4.070440
 20
3.996960
  0
VERTEX
  8
0
  6
CONTINUOUS
 10
4.070440
 20
3.991680
  0
VERTEX
  8
0
  6
CONTINUOUS
 10
3.941080
 20
3.991680
  0
VERTEX
  8
0
  6
CONTINUOUS
 10
3.941080
 20
5.381640
  0
VERTEX
  8
0
  6
CONTINUOUS
 10
4.045800
 20
5.381640
  0
VERTEX
  8
0
  6
CONTINUOUS
 10
4.045800
 20
5.380760
  0
SEQEND
  8
0
  0
SOLID
  8
0
 62
    15
 10
4.361720
 20
7.402120
 11
5.026120
 21
7.014920
 12
4.335760
 22
7.361200
 13
5.000160
 23
6.974000
  0
POLYLINE
  8
0
  6
CONTINUOUS
 66
     1
 40
0.000000
 41
0.000000
  0
VERTEX
  8
0
  6
CONTINUOUS
 10
4.361720
 20
7.402120
  0
VERTEX
  8
0
  6
CONTINUOUS
 10
5.026120
 20
7.014920
  0
VERTEX
  8
0
  6
CONTINUOUS
 10
5.000160
 20
6.974000
  0
VERTEX
  8
0
  6
CONTINUOUS
 10
4.335760
 20
7.361200
  0
VERTEX
  8
0
  6
CONTINUOUS
 10
4.361720
 20
7.402120
  0
SEQEND
  8
0
  0
SOLID
  8
0
 62
    15
 10
4.715480
 20
7.861040
 11
5.379880
 21
7.473840
 12
4.711960
 22
7.845640
 13
5.376360
 23
7.458440
  0
POLYLINE
  8
0
  6
CONTINUOUS
 66
     1
 40
0.000000
 41
0.000000
  0
VERTEX
  8
0
  6
CONTINUOUS
 10
4.715480
 20
7.861040
  0
VERTEX
  8
0
  6
CONTINUOUS
 10
5.379880
 20
7.473840
  0
VERTEX
  8
0
  6
CONTINUOUS
 10
5.376360
 20
7.458440
  0
VERTEX
  8
0
  6
CONTINUOUS
 10
4.711960
 20
7.845640
  0
VERTEX
  8
0
  6
CONTINUOUS
 10
4.715480
 20
7.861040
  0
SEQEND
  8
0
  0
SOLID
  8
0
 62
    15
 10
4.711960
 20
7.845640
 11
5.376360
 21
7.458440
 12
4.702280
 22
7.832880
 13
5.367120
 23
7.445680
  0
POLYLINE
  8
0
  6
CONTINUOUS
 66
     1
 40
0.000000
 41
0.000000
  0
VERTEX
  8
0
  6
CONTINUOUS
 10
4.711960
 20
7.845640
  0
VERTEX
  8
0
  6
CONTINUOUS
 10
5.376360
 20
7.458440
  0
VERTEX
  8
0
  6
CONTINUOUS
 10
5.367120
 20
7.445680
  0
VERTEX
  8
0
  6
CONTINUOUS
 10
4.702280
 20
7.832880
  0
VERTEX
  8
0
  6
CONTINUOUS
 10
4.711960
 20
7.845640
  0
SEQEND
  8
0
  0
SOLID
  8
0
 62
    15
 10
4.702280
 20
7.832880
 11
5.367120
 21
7.445680
 12
4.673680
 22
7.814840
 13
5.338520
 23
7.427640
  0
POLYLINE
  8
0
  6
CONTINUOUS
 66
     1
 40
0.000000
 41
0.000000
  0
VERTEX
  8
0
  6
CONTINUOUS
 10
4.702280
 20
7.832880
  0
VERTEX
  8
0
  6
CONTINUOUS
 10
5.367120
 20
7.445680
  0
VERTEX
  8
0
  6
CONTINUOUS
 10
5.338520
 20
7.427640
  0
VERTEX
  8
0
  6
CONTINUOUS
 10
4.673680
 20
7.814840
  0
VERTEX
  8
0
  6
CONTINUOUS
 10
4.702280
 20
7.832880
  0
SEQEND
  8
0
  0
SOLID
  8
0
 62
    15
 10
4.673680
 20
7.814840
 11
5.338520
 21
7.427640
 12
4.643760
 22
7.805160
 13
5.308600
 23
7.417960
  0
POLYLINE
  8
0
  6
CONTINUOUS
 66
     1
 40
0.000000
 41
0.000000
  0
VERTEX
  8
0
  6
CONTINUOUS
 10
4.673680
 20
7.814840
  0
VERTEX
  8
0
  6
CONTINUOUS
 10
5.338520
 20
7.427640
  0
VERTEX
  8
0
  6
CONTINUOUS
 10
5.308600
 20
7.417960
  0
VERTEX
  8
0
  6
CONTINUOUS
 10
4.643760
 20
7.805160
  0
VERTEX
  8
0
  6
CONTINUOUS
 10
4.673680
 20
7.814840
  0
SEQEND
  8
0
  0
SOLID
  8
0
 62
    15
 10
4.643760
 20
7.805160
 11
5.308600
 21
7.417960
 12
4.633200
 22
7.802960
 13
5.298040
 23
7.415760
  0
POLYLINE
  8
0
  6
CONTINUOUS
 66
     1
 40
0.000000
 41
0.000000
  0
VERTEX
  8
0
  6
CONTINUOUS
 10
4.643760
 20
7.805160
  0
VERTEX
  8
0
  6
CONTINUOUS
 10
5.308600
 20
7.417960
  0
VERTEX
  8
0
  6
CONTINUOUS
 10
5.298040
 20
7.415760
  0
VERTEX
  8
0
  6
CONTINUOUS
 10
4.633200
 20
7.802960
  0
VERTEX
  8
0
  6
CONTINUOUS
 10
4.643760
 20
7.805160
  0
SEQEND
  8
0
  0
SOLID
  8
0
 62
    15
 10
4.633200
 20
7.802960
 11
5.298040
 21
7.415760
 12
4.627920
 22
7.801640
 13
5.292760
 23
7.414440
  0
POLYLINE
  8
0
  6
CONTINUOUS
 66
     1
 40
0.000000
 41
0.000000
  0
VERTEX
  8
0
  6
CONTINUOUS
 10
4.633200
 20
7.802960
  0
VERTEX
  8
0
  6
CONTINUOUS
 10
5.298040
 20
7.415760
  0
VERTEX
  8
0
  6
CONTINUOUS
 10
5.292760
 20
7.414440
  0
VERTEX
  8
0
  6
CONTINUOUS
 10
4.627920
 20
7.801640
  0
VERTEX
  8
0
  6
CONTINUOUS
 10
4.633200
 20
7.802960
  0
SEQEND
  8
0
  0
SOLID
  8
0
 62
    15
 10
4.627920
 20
7.801640
 11
5.292760
 21
7.414440
 12
4.625720
 22
7.801200
 13
5.290120
 23
7.414000
  0
POLYLINE
  8
0
  6
CONTINUOUS
 66
     1
 40
0.000000
 41
0.000000
  0
VERTEX
  8
0
  6
CONTINUOUS
 10
4.627920
 20
7.801640
  0
VERTEX
  8
0
  6
CONTINUOUS
 10
5.292760
 20
7.414440
  0
VERTEX
  8
0
  6
CONTINUOUS
 10
5.290120
 20
7.414000
  0
VERTEX
  8
0
  6
CONTINUOUS
 10
4.625720
 20
7.801200
  0
VERTEX
  8
0
  6
CONTINUOUS
 10
4.627920
 20
7.801640
  0
SEQEND
  8
0
  0
SOLID
  8
0
 62
    15
 10
4.625720
 20
7.801200
 11
5.290120
 21
7.414000
 12
4.620440
 22
7.799440
 13
5.285280
 23
7.412240
  0
POLYLINE
  8
0
  6
CONTINUOUS
 66
     1
 40
0.000000
 41
0.000000
  0
VERTEX
  8
0
  6
CONTINUOUS
 10
4.625720
 20
7.801200
  0
VERTEX
  8
0
  6
CONTINUOUS
 10
5.290120
 20
7.414000
  0
VERTEX
  8
0
  6
CONTINUOUS
 10
5.285280
 20
7.412240
  0
VERTEX
  8
0
  6
CONTINUOUS
 10
4.620440
 20
7.799440
  0
VERTEX
  8
0
  6
CONTINUOUS
 10
4.625720
 20
7.801200
  0
SEQEND
  8
0
  0
SOLID
  8
0
 62
    15
 10
4.620440
 20
7.799440
 11
5.285280
 21
7.412240
 12
4.603280
 22
7.792840
 13
5.268120
 23
7.405640
  0
POLYLINE
  8
0
  6
CONTINUOUS
 66
     1
 40
0.000000
 41
0.000000
  0
VERTEX
  8
0
  6
CONTINUOUS
 10
4.620440
 20
7.799440
  0
VERTEX
  8
0
  6
CONTINUOUS
 10
5.285280
 20
7.412240
  0
VERTEX
  8
0
  6
CONTINUOUS
 10
5.268120
 20
7.405640
  0
VERTEX
  8
0
  6
CONTINUOUS
 10
4.603280
 20
7.792840
  0
VERTEX
  8
0
  6
CONTINUOUS
 10
4.620440
 20
7.799440
  0
SEQEND
  8
0
  0
SOLID
  8
0
 62
    15
 10
4.603280
 20
7.792840
 11
5.268120
 21
7.405640
 12
4.578640
 22
7.780520
 13
5.243480
 23
7.393320
  0
POLYLINE
  8
0
  6
CONTINUOUS
 66
     1
 40
0.000000
 41
0.000000
  0
VERTEX
  8
0
  6
CONTINUOUS
 10
4.603280
 20
7.792840
  0
VERTEX
  8
0
  6
CONTINUOUS
 10
5.268120
 20
7.405640
  0
VERTEX
  8
0
  6
CONTINUOUS
 10
5.243480
 20
7.393320
  0
VERTEX
  8
0
  6
CONTINUOUS
 10
4.578640
 20
7.780520
  0
VERTEX
  8
0
  6
CONTINUOUS
 10
4.603280
 20
7.792840
  0
SEQEND
  8
0
  0
SOLID
  8
0
 62
    15
 10
4.578640
 20
7.780520
 11
5.243480
 21
7.393320
 12
4.549160
 22
7.760720
 13
5.214000
 23
7.373520
  0
POLYLINE
  8
0
  6
CONTINUOUS
 66
     1
 40
0.000000
 41
0.000000
  0
VERTEX
  8
0
  6
CONTINUOUS
 10
4.578640
 20
7.780520
  0
VERTEX
  8
0
  6
CONTINUOUS
 10
5.243480
 20
7.393320
  0
VERTEX
  8
0
  6
CONTINUOUS
 10
5.214000
 20
7.373520
  0
VERTEX
  8
0
  6
CONTINUOUS
 10
4.549160
 20
7.760720
  0
VERTEX
  8
0
  6
CONTINUOUS
 10
4.578640
 20
7.780520
  0
SEQEND
  8
0
  0
SOLID
  8
0
 62
    15
 10
4.549160
 20
7.760720
 11
5.214000
 21
7.373520
 12
4.517040
 22
7.731680
 13
5.181440
 23
7.344480
  0
POLYLINE
  8
0
  6
CONTINUOUS
 66
     1
 40
0.000000
 41
0.000000
  0
VERTEX
  8
0
  6
CONTINUOUS
 10
4.549160
 20
7.760720
  0
VERTEX
  8
0
  6
CONTINUOUS
 10
5.214000
 20
7.373520
  0
VERTEX
  8
0
  6
CONTINUOUS
 10
5.181440
 20
7.344480
  0
VERTEX
  8
0
  6
CONTINUOUS
 10
4.517040
 20
7.731680
  0
VERTEX
  8
0
  6
CONTINUOUS
 10
4.549160
 20
7.760720
  0
SEQEND
  8
0
  0
SOLID
  8
0
 62
    15
 10
4.517040
 20
7.731680
 11
5.181440
 21
7.344480
 12
4.484480
 22
7.692520
 13
5.148880
 23
7.305320
  0
POLYLINE
  8
0
  6
CONTINUOUS
 66
     1
 40
0.000000
 41
0.000000
  0
VERTEX
  8
0
  6
CONTINUOUS
 10
4.517040
 20
7.731680
  0
VERTEX
  8
0
  6
CONTINUOUS
 10
5.181440
 20
7.344480
  0
VERTEX
  8
0
  6
CONTINUOUS
 10
5.148880
 20
7.305320
  0
VERTEX
  8
0
  6
CONTINUOUS
 10
4.484480
 20
7.692520
  0
VERTEX
  8
0
  6
CONTINUOUS
 10
4.517040
 20
7.731680
  0
SEQEND
  8
0
  0
SOLID
  8
0
 62
    15
 10
4.484480
 20
7.692520
 11
5.148880
 21
7.305320
 12
4.453680
 22
7.641040
 13
5.118080
 23
7.253840
  0
POLYLINE
  8
0
  6
CONTINUOUS
 66
     1
 40
0.000000
 41
0.000000
  0
VERTEX
  8
0
  6
CONTINUOUS
 10
4.484480
 20
7.692520
  0
VERTEX
  8
0
  6
CONTINUOUS
 10
5.148880
 20
7.305320
  0
VERTEX
  8
0
  6
CONTINUOUS
 10
5.118080
 20
7.253840
  0
VERTEX
  8
0
  6
CONTINUOUS
 10
4.453680
 20
7.641040
  0
VERTEX
  8
0
  6
CONTINUOUS
 10
4.484480
 20
7.692520
  0
SEQEND
  8
0
  0
SOLID
  8
0
 62
    15
 10
4.453680
 20
7.641040
 11
5.118080
 21
7.253840
 12
4.427280
 22
7.576360
 13
5.091680
 23
7.189160
  0
POLYLINE
  8
0
  6
CONTINUOUS
 66
     1
 40
0.000000
 41
0.000000
  0
VERTEX
  8
0
  6
CONTINUOUS
 10
4.453680
 20
7.641040
  0
VERTEX
  8
0
  6
CONTINUOUS
 10
5.118080
 20
7.253840
  0
VERTEX
  8
0
  6
CONTINUOUS
 10
5.091680
 20
7.189160
  0
VERTEX
  8
0
  6
CONTINUOUS
 10
4.427280
 20
7.576360
  0
VERTEX
  8
0
  6
CONTINUOUS
 10
4.453680
 20
7.641040
  0
SEQEND
  8
0
  0
SOLID
  8
0
 62
    15
 10
4.427280
 20
7.576360
 11
5.091680
 21
7.189160
 12
4.415840
 22
7.541600
 13
5.080240
 23
7.154400
  0
POLYLINE
  8
0
  6
CONTINUOUS
 66
     1
 40
0.000000
 41
0.000000
  0
VERTEX
  8
0
  6
CONTINUOUS
 10
4.427280
 20
7.576360
  0
VERTEX
  8
0
  6
CONTINUOUS
 10
5.091680
 20
7.189160
  0
VERTEX
  8
0
  6
CONTINUOUS
 10
5.080240
 20
7.154400
  0
VERTEX
  8
0
  6
CONTINUOUS
 10
4.415840
 20
7.541600
  0
VERTEX
  8
0
  6
CONTINUOUS
 10
4.427280
 20
7.576360
  0
SEQEND
  8
0
  0
SOLID
  8
0
 62
    15
 10
4.415840
 20
7.541600
 11
5.080240
 21
7.154400
 12
4.404840
 22
7.509040
 13
5.069680
 23
7.121840
  0
POLYLINE
  8
0
  6
CONTINUOUS
 66
     1
 40
0.000000
 41
0.000000
  0
VERTEX
  8
0
  6
CONTINUOUS
 10
4.415840
 20
7.541600
  0
VERTEX
  8
0
  6
CONTINUOUS
 10
5.080240
 20
7.154400
  0
VERTEX
  8
0
  6
CONTINUOUS
 10
5.069680
 20
7.121840
  0
VERTEX
  8
0
  6
CONTINUOUS
 10
4.404840
 20
7.509040
  0
VERTEX
  8
0
  6
CONTINUOUS
 10
4.415840
 20
7.541600
  0
SEQEND
  8
0
  0
SOLID
  8
0
 62
    15
 10
4.404840
 20
7.509040
 11
5.069680
 21
7.121840
 12
4.383720
 22
7.450960
 13
5.048560
 23
7.063760
  0
POLYLINE
  8
0
  6
CONTINUOUS
 66
     1
 40
0.000000
 41
0.000000
  0
VERTEX
  8
0
  6
CONTINUOUS
 10
4.404840
 20
7.509040
  0
VERTEX
  8
0
  6
CONTINUOUS
 10
5.069680
 20
7.121840
  0
VERTEX
  8
0
  6
CONTINUOUS
 10
5.048560
 20
7.063760
  0
VERTEX
  8
0
  6
CONTINUOUS
 10
4.383720
 20
7.450960
  0
VERTEX
  8
0
  6
CONTINUOUS
 10
4.404840
 20
7.509040
  0
SEQEND
  8
0
  0
SOLID
  8
0
 62
    15
 10
4.383720
 20
7.450960
 11
5.048560
 21
7.063760
 12
4.361720
 22
7.402120
 13
5.026120
 23
7.014920
  0
POLYLINE
  8
0
  6
CONTINUOUS
 66
     1
 40
0.000000
 41
0.000000
  0
VERTEX
  8
0
  6
CONTINUOUS
 10
4.383720
 20
7.450960
  0
VERTEX
  8
0
  6
CONTINUOUS
 10
5.048560
 20
7.063760
  0
VERTEX
  8
0
  6
CONTINUOUS
 10
5.026120
 20
7.014920
  0
VERTEX
  8
0
  6
CONTINUOUS
 10
4.361720
 20
7.402120
  0
VERTEX
  8
0
  6
CONTINUOUS
 10
4.383720
 20
7.450960
  0
SEQEND
  8
0
  0
SOLID
  8
0
 62
    15
 10
4.715480
 20
8.084560
 11
5.379880
 21
7.697360
 12
4.715480
 22
7.861040
 13
5.379880
 23
7.473840
  0
POLYLINE
  8
0
  6
CONTINUOUS
 66
     1
 40
0.000000
 41
0.000000
  0
VERTEX
  8
0
  6
CONTINUOUS
 10
4.715480
 20
8.084560
  0
VERTEX
  8
0
  6
CONTINUOUS
 10
5.379880
 20
7.697360
  0
VERTEX
  8
0
  6
CONTINUOUS
 10
5.379880
 20
7.473840
  0
VERTEX
  8
0
  6
CONTINUOUS
 10
4.715480
 20
7.861040
  0
VERTEX
  8
0
  6
CONTINUOUS
 10
4.715480
 20
8.084560
  0
SEQEND
  8
0
  0
SOLID
  8
0
 62
    15
 10
4.335760
 20
7.361200
 11
5.000160
 21
6.974000
 12
4.304080
 22
7.328640
 13
4.968920
 23
6.941880
  0
POLYLINE
  8
0
  6
CONTINUOUS
 66
     1
 40
0.000000
 41
0.000000
  0
VERTEX
  8
0
  6
CONTINUOUS
 10
4.335760
 20
7.361200
  0
VERTEX
  8
0
  6
CONTINUOUS
 10
5.000160
 20
6.974000
  0
VERTEX
  8
0
  6
CONTINUOUS
 10
4.968920
 20
6.941880
  0
VERTEX
  8
0
  6
CONTINUOUS
 10
4.304080
 20
7.328640
  0
VERTEX
  8
0
  6
CONTINUOUS
 10
4.335760
 20
7.361200
  0
SEQEND
  8
0
  0
SOLID
  8
0
 62
    15
 10
4.304080
 20
7.328640
 11
4.968920
 21
6.941880
 12
4.264480
 22
7.304000
 13
4.928880
 23
6.916800
  0
POLYLINE
  8
0
  6
CONTINUOUS
 66
     1
 40
0.000000
 41
0.000000
  0
VERTEX
  8
0
  6
CONTINUOUS
 10
4.304080
 20
7.328640
  0
VERTEX
  8
0
  6
CONTINUOUS
 10
4.968920
 20
6.941880
  0
VERTEX
  8
0
  6
CONTINUOUS
 10
4.928880
 20
6.916800
  0
VERTEX
  8
0
  6
CONTINUOUS
 10
4.264480
 20
7.304000
  0
VERTEX
  8
0
  6
CONTINUOUS
 10
4.304080
 20
7.328640
  0
SEQEND
  8
0
  0
SOLID
  8
0
 62
    15
 10
4.264480
 20
7.304000
 11
4.928880
 21
6.916800
 12
4.214320
 22
7.286400
 13
4.878720
 23
6.899200
  0
POLYLINE
  8
0
  6
CONTINUOUS
 66
     1
 40
0.000000
 41
0.000000
  0
VERTEX
  8
0
  6
CONTINUOUS
 10
4.264480
 20
7.304000
  0
VERTEX
  8
0
  6
CONTINUOUS
 10
4.928880
 20
6.916800
  0
VERTEX
  8
0
  6
CONTINUOUS
 10
4.878720
 20
6.899200
  0
VERTEX
  8
0
  6
CONTINUOUS
 10
4.214320
 20
7.286400
  0
VERTEX
  8
0
  6
CONTINUOUS
 10
4.264480
 20
7.304000
  0
SEQEND
  8
0
  0
SOLID
  8
0
 62
    15
 10
4.214320
 20
7.286400
 11
4.878720
 21
6.899200
 12
4.151400
 22
7.275840
 13
4.815800
 23
6.888640
  0
POLYLINE
  8
0
  6
CONTINUOUS
 66
     1
 40
0.000000
 41
0.000000
  0
VERTEX
  8
0
  6
CONTINUOUS
 10
4.214320
 20
7.286400
  0
VERTEX
  8
0
  6
CONTINUOUS
 10
4.878720
 20
6.899200
  0
VERTEX
  8
0
  6
CONTINUOUS
 10
4.815800
 20
6.888640
  0
VERTEX
  8
0
  6
CONTINUOUS
 10
4.151400
 20
7.275840
  0
VERTEX
  8
0
  6
CONTINUOUS
 10
4.214320
 20
7.286400
  0
SEQEND
  8
0
  0
SOLID
  8
0
 62
    15
 10
4.151400
 20
7.275840
 11
4.815800
 21
6.888640
 12
4.151400
 22
7.128880
 13
4.815800
 23
6.741680
  0
POLYLINE
  8
0
  6
CONTINUOUS
 66
     1
 40
0.000000
 41
0.000000
  0
VERTEX
  8
0
  6
CONTINUOUS
 10
4.151400
 20
7.275840
  0
VERTEX
  8
0
  6
CONTINUOUS
 10
4.815800
 20
6.888640
  0
VERTEX
  8
0
  6
CONTINUOUS
 10
4.815800
 20
6.741680
  0
VERTEX
  8
0
  6
CONTINUOUS
 10
4.151400
 20
7.128880
  0
VERTEX
  8
0
  6
CONTINUOUS
 10
4.151400
 20
7.275840
  0
SEQEND
  8
0
  0
SOLID
  8
0
 62
    15
 10
4.151400
 20
7.128880
 11
4.815800
 21
6.741680
 12
4.032600
 22
7.128880
 13
4.697000
 23
6.741680
  0
POLYLINE
  8
0
  6
CONTINUOUS
 66
     1
 40
0.000000
 41
0.000000
  0
VERTEX
  8
0
  6
CONTINUOUS
 10
4.151400
 20
7.128880
  0
VERTEX
  8
0
  6
CONTINUOUS
 10
4.815800
 20
6.741680
  0
VERTEX
  8
0
  6
CONTINUOUS
 10
4.697000
 20
6.741680
  0
VERTEX
  8
0
  6
CONTINUOUS
 10
4.032600
 20
7.128880
  0
VERTEX
  8
0
  6
CONTINUOUS
 10
4.151400
 20
7.128880
  0
SEQEND
  8
0
  0
SOLID
  8
0
 62
    15
 10
4.032600
 20
7.128880
 11
4.697000
 21
6.741680
 12
4.032600
 22
6.983680
 13
4.697000
 23
6.596920
  0
POLYLINE
  8
0
  6
CONTINUOUS
 66
     1
 40
0.000000
 41
0.000000
  0
VERTEX
  8
0
  6
CONTINUOUS
 10
4.032600
 20
7.128880
  0
VERTEX
  8
0
  6
CONTINUOUS
 10
4.697000
 20
6.741680
  0
VERTEX
  8
0
  6
CONTINUOUS
 10
4.697000
 20
6.596920
  0
VERTEX
  8
0
  6
CONTINUOUS
 10
4.032600
 20
6.983680
  0
VERTEX
  8
0
  6
CONTINUOUS
 10
4.032600
 20
7.128880
  0
SEQEND
  8
0
  0
SOLID
  8
0
 62
    15
 10
4.032600
 20
6.983680
 11
4.697000
 21
6.596920
 12
3.941520
 22
6.983680
 13
4.606360
 23
6.596920
  0
POLYLINE
  8
0
  6
CONTINUOUS
 66
     1
 40
0.000000
 41
0.000000
  0
VERTEX
  8
0
  6
CONTINUOUS
 10
4.032600
 20
6.983680
  0
VERTEX
  8
0
  6
CONTINUOUS
 10
4.697000
 20
6.596920
  0
VERTEX
  8
0
  6
CONTINUOUS
 10
4.606360
 20
6.596920
  0
VERTEX
  8
0
  6
CONTINUOUS
 10
3.941520
 20
6.983680
  0
VERTEX
  8
0
  6
CONTINUOUS
 10
4.032600
 20
6.983680
  0
SEQEND
  8
0
  0
SOLID
  8
0
 62
    15
 10
3.941520
 20
6.983680
 11
4.606360
 21
6.596920
 12
3.931840
 22
6.948920
 13
4.596240
 23
6.561720
  0
POLYLINE
  8
0
  6
CONTINUOUS
 66
     1
 40
0.000000
 41
0.000000
  0
VERTEX
  8
0
  6
CONTINUOUS
 10
3.941520
 20
6.983680
  0
VERTEX
  8
0
  6
CONTINUOUS
 10
4.606360
 20
6.596920
  0
VERTEX
  8
0
  6
CONTINUOUS
 10
4.596240
 20
6.561720
  0
VERTEX
  8
0
  6
CONTINUOUS
 10
3.931840
 20
6.948920
  0
VERTEX
  8
0
  6
CONTINUOUS
 10
3.941520
 20
6.983680
  0
SEQEND
  8
0
  0
SOLID
  8
0
 62
    15
 10
3.931840
 20
6.948920
 11
4.596240
 21
6.561720
 12
3.923040
 22
6.921640
 13
4.587440
 23
6.534440
  0
POLYLINE
  8
0
  6
CONTINUOUS
 66
     1
 40
0.000000
 41
0.000000
  0
VERTEX
  8
0
  6
CONTINUOUS
 10
3.931840
 20
6.948920
  0
VERTEX
  8
0
  6
CONTINUOUS
 10
4.596240
 20
6.561720
  0
VERTEX
  8
0
  6
CONTINUOUS
 10
4.587440
 20
6.534440
  0
VERTEX
  8
0
  6
CONTINUOUS
 10
3.923040
 20
6.921640
  0
VERTEX
  8
0
  6
CONTINUOUS
 10
3.931840
 20
6.948920
  0
SEQEND
  8
0
  0
SOLID
  8
0
 62
    15
 10
3.923040
 20
6.921640
 11
4.587440
 21
6.534440
 12
3.904560
 22
6.884240
 13
4.569400
 23
6.497040
  0
POLYLINE
  8
0
  6
CONTINUOUS
 66
     1
 40
0.000000
 41
0.000000
  0
VERTEX
  8
0
  6
CONTINUOUS
 10
3.923040
 20
6.921640
  0
VERTEX
  8
0
  6
CONTINUOUS
 10
4.587440
 20
6.534440
  0
VERTEX
  8
0
  6
CONTINUOUS
 10
4.569400
 20
6.497040
  0
VERTEX
  8
0
  6
CONTINUOUS
 10
3.904560
 20
6.884240
  0
VERTEX
  8
0
  6
CONTINUOUS
 10
3.923040
 20
6.921640
  0
SEQEND
  8
0
  0
SOLID
  8
0
 62
    15
 10
3.904560
 20
6.884240
 11
4.569400
 21
6.497040
 12
3.880360
 22
6.860480
 13
4.544760
 23
6.473280
  0
POLYLINE
  8
0
  6
CONTINUOUS
 66
     1
 40
0.000000
 41
0.000000
  0
VERTEX
  8
0
  6
CONTINUOUS
 10
3.904560
 20
6.884240
  0
VERTEX
  8
0
  6
CONTINUOUS
 10
4.569400
 20
6.497040
  0
VERTEX
  8
0
  6
CONTINUOUS
 10
4.544760
 20
6.473280
  0
VERTEX
  8
0
  6
CONTINUOUS
 10
3.880360
 20
6.860480
  0
VERTEX
  8
0
  6
CONTINUOUS
 10
3.904560
 20
6.884240
  0
SEQEND
  8
0
  0
SOLID
  8
0
 62
    15
 10
3.880360
 20
6.860480
 11
4.544760
 21
6.473280
 12
3.842960
 22
6.838480
 13
4.507360
 23
6.451280
  0
POLYLINE
  8
0
  6
CONTINUOUS
 66
     1
 40
0.000000
 41
0.000000
  0
VERTEX
  8
0
  6
CONTINUOUS
 10
3.880360
 20
6.860480
  0
VERTEX
  8
0
  6
CONTINUOUS
 10
4.544760
 20
6.473280
  0
VERTEX
  8
0
  6
CONTINUOUS
 10
4.507360
 20
6.451280
  0
VERTEX
  8
0
  6
CONTINUOUS
 10
3.842960
 20
6.838480
  0
VERTEX
  8
0
  6
CONTINUOUS
 10
3.880360
 20
6.860480
  0
SEQEND
  8
0
  0
SOLID
  8
0
 62
    15
 10
3.842960
 20
6.838480
 11
4.507360
 21
6.451280
 12
3.800720
 22
6.805480
 13
4.465120
 23
6.418280
  0
POLYLINE
  8
0
  6
CONTINUOUS
 66
     1
 40
0.000000
 41
0.000000
  0
VERTEX
  8
0
  6
CONTINUOUS
 10
3.842960
 20
6.838480
  0
VERTEX
  8
0
  6
CONTINUOUS
 10
4.507360
 20
6.451280
  0
VERTEX
  8
0
  6
CONTINUOUS
 10
4.465120
 20
6.418280
  0
VERTEX
  8
0
  6
CONTINUOUS
 10
3.800720
 20
6.805480
  0
VERTEX
  8
0
  6
CONTINUOUS
 10
3.842960
 20
6.838480
  0
SEQEND
  8
0
  0
SOLID
  8
0
 62
    15
 10
3.800720
 20
6.805480
 11
4.465120
 21
6.418280
 12
3.766840
 22
6.763680
 13
4.431680
 23
6.376480
  0
POLYLINE
  8
0
  6
CONTINUOUS
 66
     1
 40
0.000000
 41
0.000000
  0
VERTEX
  8
0
  6
CONTINUOUS
 10
3.800720
 20
6.805480
  0
VERTEX
  8
0
  6
CONTINUOUS
 10
4.465120
 20
6.418280
  0
VERTEX
  8
0
  6
CONTINUOUS
 10
4.431680
 20
6.376480
  0
VERTEX
  8
0
  6
CONTINUOUS
 10
3.766840
 20
6.763680
  0
VERTEX
  8
0
  6
CONTINUOUS
 10
3.800720
 20
6.805480
  0
SEQEND
  8
0
  0
SOLID
  8
0
 62
    15
 10
3.766840
 20
6.763680
 11
4.431680
 21
6.376480
 12
3.745280
 22
6.723200
 13
4.409680
 23
6.336000
  0
POLYLINE
  8
0
  6
CONTINUOUS
 66
     1
 40
0.000000
 41
0.000000
  0
VERTEX
  8
0
  6
CONTINUOUS
 10
3.766840
 20
6.763680
  0
VERTEX
  8
0
  6
CONTINUOUS
 10
4.431680
 20
6.376480
  0
VERTEX
  8
0
  6
CONTINUOUS
 10
4.409680
 20
6.336000
  0
VERTEX
  8
0
  6
CONTINUOUS
 10
3.745280
 20
6.723200
  0
VERTEX
  8
0
  6
CONTINUOUS
 10
3.766840
 20
6.763680
  0
SEQEND
  8
0
  0
SOLID
  8
0
 62
    15
 10
3.745280
 20
6.723200
 11
4.409680
 21
6.336000
 12
3.739560
 22
6.706920
 13
4.404400
 23
6.320160
  0
POLYLINE
  8
0
  6
CONTINUOUS
 66
     1
 40
0.000000
 41
0.000000
  0
VERTEX
  8
0
  6
CONTINUOUS
 10
3.745280
 20
6.723200
  0
VERTEX
  8
0
  6
CONTINUOUS
 10
4.409680
 20
6.336000
  0
VERTEX
  8
0
  6
CONTINUOUS
 10
4.404400
 20
6.320160
  0
VERTEX
  8
0
  6
CONTINUOUS
 10
3.739560
 20
6.706920
  0
VERTEX
  8
0
  6
CONTINUOUS
 10
3.745280
 20
6.723200
  0
SEQEND
  8
0
  0
SOLID
  8
0
 62
    15
 10
3.739560
 20
6.706920
 11
4.404400
 21
6.320160
 12
3.738240
 22
6.695480
 13
4.402640
 23
6.308280
  0
POLYLINE
  8
0
  6
CONTINUOUS
 66
     1
 40
0.000000
 41
0.000000
  0
VERTEX
  8
0
  6
CONTINUOUS
 10
3.739560
 20
6.706920
  0
VERTEX
  8
0
  6
CONTINUOUS
 10
4.404400
 20
6.320160
  0
VERTEX
  8
0
  6
CONTINUOUS
 10
4.402640
 20
6.308280
  0
VERTEX
  8
0
  6
CONTINUOUS
 10
3.738240
 20
6.695480
  0
VERTEX
  8
0
  6
CONTINUOUS
 10
3.739560
 20
6.706920
  0
SEQEND
  8
0
  0
SOLID
  8
0
 62
    15
 10
3.738240
 20
6.695480
 11
4.402640
 21
6.308280
 12
3.608880
 22
6.695480
 13
4.273720
 23
6.308280
  0
POLYLINE
  8
0
  6
CONTINUOUS
 66
     1
 40
0.000000
 41
0.000000
  0
VERTEX
  8
0
  6
CONTINUOUS
 10
3.738240
 20
6.695480
  0
VERTEX
  8
0
  6
CONTINUOUS
 10
4.402640
 20
6.308280
  0
VERTEX
  8
0
  6
CONTINUOUS
 10
4.273720
 20
6.308280
  0
VERTEX
  8
0
  6
CONTINUOUS
 10
3.608880
 20
6.695480
  0
VERTEX
  8
0
  6
CONTINUOUS
 10
3.738240
 20
6.695480
  0
SEQEND
  8
0
  0
SOLID
  8
0
 62
    15
 10
3.713600
 20
8.085440
 11
4.378000
 21
7.698240
 12
3.713600
 22
8.084560
 13
4.378000
 23
7.697360
  0
POLYLINE
  8
0
  6
CONTINUOUS
 66
     1
 40
0.000000
 41
0.000000
  0
VERTEX
  8
0
  6
CONTINUOUS
 10
3.713600
 20
8.085440
  0
VERTEX
  8
0
  6
CONTINUOUS
 10
4.378000
 20
7.698240
  0
VERTEX
  8
0
  6
CONTINUOUS
 10
4.378000
 20
7.697360
  0
VERTEX
  8
0
  6
CONTINUOUS
 10
3.713600
 20
8.084560
  0
VERTEX
  8
0
  6
CONTINUOUS
 10
3.713600
 20
8.085440
  0
SEQEND
  8
0
  0
POLYLINE
  8
0
  6
CONTINUOUS
 66
     1
 40
0.000000
 41
0.000000
  0
VERTEX
  8
0
  6
CONTINUOUS
 10
3.713600
 20
8.084560
  0
VERTEX
  8
0
  6
CONTINUOUS
 10
4.715480
 20
8.084560
  0
VERTEX
  8
0
  6
CONTINUOUS
 10
4.715480
 20
7.861040
  0
VERTEX
  8
0
  6
CONTINUOUS
 10
4.711960
 20
7.845640
  0
VERTEX
  8
0
  6
CONTINUOUS
 10
4.702280
 20
7.832880
  0
VERTEX
  8
0
  6
CONTINUOUS
 10
4.673680
 20
7.814840
  0
VERTEX
  8
0
  6
CONTINUOUS
 10
4.643760
 20
7.805160
  0
VERTEX
  8
0
  6
CONTINUOUS
 10
4.633200
 20
7.802960
  0
VERTEX
  8
0
  6
CONTINUOUS
 10
4.627920
 20
7.801640
  0
VERTEX
  8
0
  6
CONTINUOUS
 10
4.625720
 20
7.801200
  0
VERTEX
  8
0
  6
CONTINUOUS
 10
4.620440
 20
7.799440
  0
VERTEX
  8
0
  6
CONTINUOUS
 10
4.603280
 20
7.792840
  0
VERTEX
  8
0
  6
CONTINUOUS
 10
4.578640
 20
7.780520
  0
VERTEX
  8
0
  6
CONTINUOUS
 10
4.549160
 20
7.760720
  0
VERTEX
  8
0
  6
CONTINUOUS
 10
4.517040
 20
7.731680
  0
VERTEX
  8
0
  6
CONTINUOUS
 10
4.484480
 20
7.692520
  0
VERTEX
  8
0
  6
CONTINUOUS
 10
4.453680
 20
7.641040
  0
VERTEX
  8
0
  6
CONTINUOUS
 10
4.427280
 20
7.576360
  0
VERTEX
  8
0
  6
CONTINUOUS
 10
4.415840
 20
7.541600
  0
VERTEX
  8
0
  6
CONTINUOUS
 10
4.404840
 20
7.509040
  0
VERTEX
  8
0
  6
CONTINUOUS
 10
4.383720
 20
7.450960
  0
VERTEX
  8
0
  6
CONTINUOUS
 10
4.361720
 20
7.402120
  0
VERTEX
  8
0
  6
CONTINUOUS
 10
4.335760
 20
7.361200
  0
VERTEX
  8
0
  6
CONTINUOUS
 10
4.304080
 20
7.328640
  0
VERTEX
  8
0
  6
CONTINUOUS
 10
4.264480
 20
7.304000
  0
VERTEX
  8
0
  6
CONTINUOUS
 10
4.214320
 20
7.286400
  0
VERTEX
  8
0
  6
CONTINUOUS
 10
4.151400
 20
7.275840
  0
VERTEX
  8
0
  6
CONTINUOUS
 10
4.151400
 20
7.128880
  0
VERTEX
  8
0
  6
CONTINUOUS
 10
4.032600
 20
7.128880
  0
VERTEX
  8
0
  6
CONTINUOUS
 10
4.032600
 20
6.983680
  0
VERTEX
  8
0
  6
CONTINUOUS
 10
3.941520
 20
6.983680
  0
VERTEX
  8
0
  6
CONTINUOUS
 10
3.931840
 20
6.948920
  0
VERTEX
  8
0
  6
CONTINUOUS
 10
3.923040
 20
6.921640
  0
VERTEX
  8
0
  6
CONTINUOUS
 10
3.904560
 20
6.884240
  0
VERTEX
  8
0
  6
CONTINUOUS
 10
3.880360
 20
6.860480
  0
VERTEX
  8
0
  6
CONTINUOUS
 10
3.842960
 20
6.838480
  0
VERTEX
  8
0
  6
CONTINUOUS
 10
3.800720
 20
6.805480
  0
VERTEX
  8
0
  6
CONTINUOUS
 10
3.766840
 20
6.763680
  0
VERTEX
  8
0
  6
CONTINUOUS
 10
3.745280
 20
6.723200
  0
VERTEX
  8
0
  6
CONTINUOUS
 10
3.739560
 20
6.706920
  0
VERTEX
  8
0
  6
CONTINUOUS
 10
3.738240
 20
6.695480
  0
VERTEX
  8
0
  6
CONTINUOUS
 10
3.608880
 20
6.695480
  0
VERTEX
  8
0
  6
CONTINUOUS
 10
3.608880
 20
8.085440
  0
VERTEX
  8
0
  6
CONTINUOUS
 10
3.713600
 20
8.085440
  0
VERTEX
  8
0
  6
CONTINUOUS
 10
3.713600
 20
8.084560
  0
SEQEND
  8
0
  0
TEXT
  8
0
 10
4.152720
 20
6.049560
 40
0.138322
  1
BA  1172
 41
1.000000
  7
SN0
 71
     0
 72
     5
 11
4.835094
 21
6.049560
  0
TEXT
  8
0
 10
3.969240
 20
5.857720
 40
0.138322
  1
1-1/8" x 1-3/8"
 41
1.000000
  7
SN0
 71
     0
 72
     5
 11
5.017638
 21
5.857720
  0
POLYLINE
  8
0
  6
CONTINUOUS
 66
     1
 40
0.014080
 41
0.014080
  0
VERTEX
  8
0
  6
CONTINUOUS
 10
3.802040
 20
8.629280
  0
VERTEX
  8
0
  6
CONTINUOUS
 10
3.802040
 20
9.631160
  0
VERTEX
  8
0
  6
CONTINUOUS
 10
4.025560
 20
9.631160
  0
VERTEX
  8
0
  6
CONTINUOUS
 10
4.033480
 20
9.630280
  0
VERTEX
  8
0
  6
CONTINUOUS
 10
4.047560
 20
9.623680
  0
VERTEX
  8
0
  6
CONTINUOUS
 10
4.059000
 20
9.611800
  0
VERTEX
  8
0
  6
CONTINUOUS
 10
4.071760
 20
9.589360
  0
VERTEX
  8
0
  6
CONTINUOUS
 10
4.082760
 20
9.553720
  0
VERTEX
  8
0
  6
CONTINUOUS
 10
4.088480
 20
9.533040
  0
VERTEX
  8
0
  6
CONTINUOUS
 10
4.099040
 20
9.507520
  0
VERTEX
  8
0
  6
CONTINUOUS
 10
4.114880
 20
9.480240
  0
VERTEX
  8
0
  6
CONTINUOUS
 10
4.139080
 20
9.449000
  0
VERTEX
  8
0
  6
CONTINUOUS
 10
4.172960
 20
9.416440
  0
VERTEX
  8
0
  6
CONTINUOUS
 10
4.205960
 20
9.392240
  0
VERTEX
  8
0
  6
CONTINUOUS
 10
4.245560
 20
9.369360
  0
VERTEX
  8
0
  6
CONTINUOUS
 10
4.292640
 20
9.349120
  0
VERTEX
  8
0
  6
CONTINUOUS
 10
4.407920
 20
9.309960
  0
VERTEX
  8
0
  6
CONTINUOUS
 10
4.461160
 20
9.288840
  0
VERTEX
  8
0
  6
CONTINUOUS
 10
4.484920
 20
9.277400
  0
VERTEX
  8
0
  6
CONTINUOUS
 10
4.506040
 20
9.265080
  0
VERTEX
  8
0
  6
CONTINUOUS
 10
4.534200
 20
9.244400
  0
VERTEX
  8
0
  6
CONTINUOUS
 10
4.557960
 20
9.219760
  0
VERTEX
  8
0
  6
CONTINUOUS
 10
4.577320
 20
9.191160
  0
VERTEX
  8
0
  6
CONTINUOUS
 10
4.592280
 20
9.156400
  0
VERTEX
  8
0
  6
CONTINUOUS
 10
4.600200
 20
9.130000
  0
VERTEX
  8
0
  6
CONTINUOUS
 10
4.608560
 20
9.084240
  0
VERTEX
  8
0
  6
CONTINUOUS
 10
4.610760
 20
9.067080
  0
VERTEX
  8
0
  6
CONTINUOUS
 10
4.757720
 20
9.067080
  0
VERTEX
  8
0
  6
CONTINUOUS
 10
4.757720
 20
8.948280
  0
VERTEX
  8
0
  6
CONTINUOUS
 10
4.902920
 20
8.948280
  0
VERTEX
  8
0
  6
CONTINUOUS
 10
4.902920
 20
8.857640
  0
VERTEX
  8
0
  6
CONTINUOUS
 10
4.965400
 20
8.838720
  0
VERTEX
  8
0
  6
CONTINUOUS
 10
4.986520
 20
8.829920
  0
VERTEX
  8
0
  6
CONTINUOUS
 10
5.009400
 20
8.814960
  0
VERTEX
  8
0
  6
CONTINUOUS
 10
5.026120
 20
8.796040
  0
VERTEX
  8
0
  6
CONTINUOUS
 10
5.054720
 20
8.747200
  0
VERTEX
  8
0
  6
CONTINUOUS
 10
5.071440
 20
8.726080
  0
VERTEX
  8
0
  6
CONTINUOUS
 10
5.101360
 20
8.698360
  0
VERTEX
  8
0
  6
CONTINUOUS
 10
5.133480
 20
8.675920
  0
VERTEX
  8
0
  6
CONTINUOUS
 10
5.163400
 20
8.660960
  0
VERTEX
  8
0
  6
CONTINUOUS
 10
5.185840
 20
8.653920
  0
VERTEX
  8
0
  6
CONTINUOUS
 10
5.191120
 20
8.653920
  0
VERTEX
  8
0
  6
CONTINUOUS
 10
5.191120
 20
8.524560
  0
VERTEX
  8
0
  6
CONTINUOUS
 10
3.801160
 20
8.524560
  0
VERTEX
  8
0
  6
CONTINUOUS
 10
3.801160
 20
8.629280
  0
VERTEX
  8
0
  6
CONTINUOUS
 10
3.802040
 20
8.629280
  0
SEQEND
  8
0
  0
TEXT
  8
0
 10
4.120160
 20
8.770960
 40
0.138322
  1
BA  1172
 41
1.000000
  7
SN0
 71
     0
 72
     5
 11
4.802534
 21
8.770960
  0
TEXT
  8
0
 10
3.936680
 20
8.579560
 40
0.138322
  1
1-1/8" x 1-3/8"
 41
1.000000
  7
SN0
 71
     0
 72
     5
 11
4.985078
 21
8.579560
  0
ENDSEC
  0
EOF
