  0
SECTION
  2
HEADER
  9
$ACADVER
  1
AC1006
  9
$EXTMIN
 10
3.414840
 20
2.898280
  9
$EXTMAX
 10
5.412440
 20
8.601560
  9
$LTSCALE
 40
0.044000
  9
$PDMODE
 70
    35
  9
$PDSIZE
 40
0.035200
  0
ENDSEC
  0
SECTION
  2
TABLES
  0
TABLE
  2
LTYPE
 70
     9
  0
LTYPE
  2
CONTINUOUS
 70
    64
  3
Solid line
 72
    65
 73
     0
 40
0.000000
  0
LTYPE
  2
DASHED
 70
    64
  3
__ __ __ __ __ __ __ __ __ __ __ __ __ __ __
 72
    65
 73
     2
 40
0.000330
 49
0.000220
 49
-0.000110
  0
LTYPE
  2
HIDDEN
 70
    64
  3
 _ _ _ _ _ _ _ _ _ _ _ _ _ _ _ _ _ _ _ _ _ _
 72
    65
 73
     2
 40
0.000165
 49
0.000110
 49
-0.000055
  0
LTYPE
  2
CENTER
 70
    64
  3
____ _ ____ _ ____ _ ____ _ ____ _ ____ _ ____
 72
    65
 73
     4
 40
0.000880
 49
0.000550
 49
-0.000110
 49
0.000110
 49
-0.000110
  0
LTYPE
  2
PHANTOM
 70
    64
  3
_____ _ _ _____ _ _ _____ _ _ _____ _ _ ____
 72
    65
 73
     6
 40
0.001100
 49
0.000550
 49
-0.000110
 49
0.000110
 49
-0.000110
 49
0.000110
 49
-0.000110
  0
LTYPE
  2
DOT
 70
    64
  3
...............................................
 72
    65
 73
     2
 40
0.000110
 49
0.000000
 49
-0.000110
  0
LTYPE
  2
DASHDOT
 70
    64
  3
__ . __ . __ . __ . __ . __ . __ . __ . __ . __
 72
    65
 73
     4
 40
0.000440
 49
0.000220
 49
-0.000110
 49
0.000000
 49
-0.000110
  0
LTYPE
  2
BORDER
 70
    64
  3
__ __ . __ __ . __ __ . __ __ . __ __ . __ __
 72
    65
 73
     6
 40
0.000770
 49
0.000220
 49
-0.000110
 49
0.000220
 49
-0.000110
 49
0.000000
 49
-0.000110
  0
LTYPE
  2
DIVIDE
 70
    64
  3
__ . . __ . . __ . . __ . . __ . . __ . . __
 72
    65
 73
     6
 40
0.000550
 49
0.000220
 49
-0.000110
 49
0.000000
 49
-0.000110
 49
0.000000
 49
-0.000110
  0
LTYPE
  2
DOTDOT
 70
    64
  3
 . .  . .  . .  . .  . .  . . 
 72
    65
 73
     5
 40
0.000242
 49
-0.000110
 49
0.000000
 49
-0.000110
 49
0.000000
 49
-0.000110
  0
ENDTAB
  0
TABLE
  2
STYLE
 70
     2
  0
STYLE
 70
     0
  2
SN0
 40
0.000000
 41
0.000440
 50
0.000000
 71
     0
 42
0.000000
  3
ROMAND
  0
STYLE
 70
    68
  2
SV0
 40
0.000000
 41
0.000440
 50
0.000000
 71
     0
 42
0.000000
  3
ROMAND
  0
ENDTAB
  0
TABLE
  2
LAYER
 70
     3
  0
LAYER
  2
FOREGROUND
 70
    64
 62
     7
  6
CONTINUOUS
  0
LAYER
  2
BACKGROUND
 70
    65
 62
    -7
  6
CONTINUOUS
  0
LAYER
  2
0
 70
    64
 62
     7
  6
CONTINUOUS
  0
ENDTAB
  0
ENDSEC
  0
SECTION
  2
ENTITIES
  0
POLYLINE
  8
FOREGROUND
  6
CONTINUOUS
 66
     1
 40
0.000000
 41
0.000000
  0
VERTEX
  8
FOREGROUND
  6
CONTINUOUS
 10
0.000000
 20
11.499840
  0
VERTEX
  8
FOREGROUND
  6
CONTINUOUS
 10
8.499920
 20
11.499840
  0
VERTEX
  8
FOREGROUND
  6
CONTINUOUS
 10
8.499920
 20
0.499840
  0
VERTEX
  8
FOREGROUND
  6
CONTINUOUS
 10
0.000000
 20
0.499840
  0
VERTEX
  8
FOREGROUND
  6
CONTINUOUS
 10
0.000000
 20
11.499840
  0
SEQEND
  8
0
  0
POLYLINE
  8
FOREGROUND
  6
CONTINUOUS
 66
     1
 40
0.000000
 41
0.000000
  0
VERTEX
  8
FOREGROUND
  6
CONTINUOUS
 10
0.000000
 20
11.499840
  0
VERTEX
  8
FOREGROUND
  6
CONTINUOUS
 10
8.499920
 20
11.499840
  0
VERTEX
  8
FOREGROUND
  6
CONTINUOUS
 10
8.499920
 20
0.499840
  0
VERTEX
  8
FOREGROUND
  6
CONTINUOUS
 10
0.000000
 20
0.499840
  0
VERTEX
  8
FOREGROUND
  6
CONTINUOUS
 10
0.000000
 20
11.499840
  0
SEQEND
  8
0
  0
POLYLINE
  8
0
  6
CONTINUOUS
 66
     1
 40
0.000000
 41
0.000000
  0
VERTEX
  8
0
  6
CONTINUOUS
 10
5.341600
 20
2.898720
  0
VERTEX
  8
0
  6
CONTINUOUS
 10
3.422320
 20
2.898720
  0
VERTEX
  8
0
  6
CONTINUOUS
 10
3.422320
 20
3.074720
  0
VERTEX
  8
0
  6
CONTINUOUS
 10
3.578960
 20
3.105960
  0
VERTEX
  8
0
  6
CONTINUOUS
 10
3.590840
 20
3.151280
  0
VERTEX
  8
0
  6
CONTINUOUS
 10
3.605360
 20
3.191320
  0
VERTEX
  8
0
  6
CONTINUOUS
 10
3.622520
 20
3.226080
  0
VERTEX
  8
0
  6
CONTINUOUS
 10
3.641880
 20
3.255560
  0
VERTEX
  8
0
  6
CONTINUOUS
 10
3.655520
 20
3.272720
  0
VERTEX
  8
0
  6
CONTINUOUS
 10
3.670480
 20
3.288120
  0
VERTEX
  8
0
  6
CONTINUOUS
 10
3.685880
 20
3.301320
  0
VERTEX
  8
0
  6
CONTINUOUS
 10
3.718440
 20
3.321560
  0
VERTEX
  8
0
  6
CONTINUOUS
 10
3.752760
 20
3.335200
  0
VERTEX
  8
0
  6
CONTINUOUS
 10
3.787960
 20
3.341800
  0
VERTEX
  8
0
  6
CONTINUOUS
 10
3.823600
 20
3.342240
  0
VERTEX
  8
0
  6
CONTINUOUS
 10
3.858360
 20
3.337400
  0
VERTEX
  8
0
  6
CONTINUOUS
 10
3.892240
 20
3.327720
  0
VERTEX
  8
0
  6
CONTINUOUS
 10
3.923920
 20
3.313200
  0
VERTEX
  8
0
  6
CONTINUOUS
 10
3.952960
 20
3.294720
  0
VERTEX
  8
0
  6
CONTINUOUS
 10
3.978480
 20
3.273160
  0
VERTEX
  8
0
  6
CONTINUOUS
 10
4.000040
 20
3.248520
  0
VERTEX
  8
0
  6
CONTINUOUS
 10
4.016760
 20
3.221240
  0
VERTEX
  8
0
  6
CONTINUOUS
 10
4.022920
 20
3.207160
  0
VERTEX
  8
0
  6
CONTINUOUS
 10
4.040080
 20
3.207160
  0
VERTEX
  8
0
  6
CONTINUOUS
 10
4.473920
 20
3.448280
  0
VERTEX
  8
0
  6
CONTINUOUS
 10
4.627040
 20
3.388440
  0
VERTEX
  8
0
  6
CONTINUOUS
 10
4.650800
 20
3.388000
  0
VERTEX
  8
0
  6
CONTINUOUS
 10
4.660040
 20
3.412640
  0
VERTEX
  8
0
  6
CONTINUOUS
 10
4.671480
 20
3.436840
  0
VERTEX
  8
0
  6
CONTINUOUS
 10
4.684240
 20
3.459720
  0
VERTEX
  8
0
  6
CONTINUOUS
 10
4.699200
 20
3.481720
  0
VERTEX
  8
0
  6
CONTINUOUS
 10
4.715480
 20
3.502400
  0
VERTEX
  8
0
  6
CONTINUOUS
 10
4.733080
 20
3.521760
  0
VERTEX
  8
0
  6
CONTINUOUS
 10
4.752000
 20
3.539800
  0
VERTEX
  8
0
  6
CONTINUOUS
 10
4.772680
 20
3.556520
  0
VERTEX
  8
0
  6
CONTINUOUS
 10
4.794240
 20
3.571480
  0
VERTEX
  8
0
  6
CONTINUOUS
 10
4.817120
 20
3.585120
  0
VERTEX
  8
0
  6
CONTINUOUS
 10
4.841320
 20
3.596560
  0
VERTEX
  8
0
  6
CONTINUOUS
 10
4.865960
 20
3.606240
  0
VERTEX
  8
0
  6
CONTINUOUS
 10
4.891920
 20
3.614160
  0
VERTEX
  8
0
  6
CONTINUOUS
 10
4.918320
 20
3.619440
  0
VERTEX
  8
0
  6
CONTINUOUS
 10
4.946040
 20
3.622960
  0
VERTEX
  8
0
  6
CONTINUOUS
 10
4.973760
 20
3.624280
  0
VERTEX
  8
0
  6
CONTINUOUS
 10
5.003680
 20
3.622960
  0
VERTEX
  8
0
  6
CONTINUOUS
 10
5.047680
 20
3.615920
  0
VERTEX
  8
0
  6
CONTINUOUS
 10
5.089480
 20
3.603600
  0
VERTEX
  8
0
  6
CONTINUOUS
 10
5.115880
 20
3.592160
  0
VERTEX
  8
0
  6
CONTINUOUS
 10
5.140960
 20
3.578960
  0
VERTEX
  8
0
  6
CONTINUOUS
 10
5.165160
 20
3.564000
  0
VERTEX
  8
0
  6
CONTINUOUS
 10
5.188040
 20
3.546840
  0
VERTEX
  8
0
  6
CONTINUOUS
 10
5.209160
 20
3.527920
  0
VERTEX
  8
0
  6
CONTINUOUS
 10
5.228520
 20
3.507240
  0
VERTEX
  8
0
  6
CONTINUOUS
 10
5.246560
 20
3.485240
  0
VERTEX
  8
0
  6
CONTINUOUS
 10
5.262400
 20
3.461920
  0
VERTEX
  8
0
  6
CONTINUOUS
 10
5.276480
 20
3.437280
  0
VERTEX
  8
0
  6
CONTINUOUS
 10
5.288360
 20
3.411320
  0
VERTEX
  8
0
  6
CONTINUOUS
 10
5.302440
 20
3.371280
  0
VERTEX
  8
0
  6
CONTINUOUS
 10
5.305960
 20
3.357200
  0
VERTEX
  8
0
  6
CONTINUOUS
 10
5.404960
 20
3.357200
  0
VERTEX
  8
0
  6
CONTINUOUS
 10
5.404960
 20
2.898720
  0
VERTEX
  8
0
  6
CONTINUOUS
 10
5.341600
 20
2.898720
  0
SEQEND
  8
0
  0
POLYLINE
  8
0
  6
CONTINUOUS
 66
     1
 40
0.000000
 41
0.000000
  0
VERTEX
  8
0
  6
CONTINUOUS
 10
3.485680
 20
3.843400
  0
VERTEX
  8
0
  6
CONTINUOUS
 10
5.404960
 20
3.843400
  0
VERTEX
  8
0
  6
CONTINUOUS
 10
5.404960
 20
4.019400
  0
VERTEX
  8
0
  6
CONTINUOUS
 10
5.248320
 20
4.050640
  0
VERTEX
  8
0
  6
CONTINUOUS
 10
5.236880
 20
4.095960
  0
VERTEX
  8
0
  6
CONTINUOUS
 10
5.222360
 20
4.136000
  0
VERTEX
  8
0
  6
CONTINUOUS
 10
5.199040
 20
4.181320
  0
VERTEX
  8
0
  6
CONTINUOUS
 10
5.185840
 20
4.200680
  0
VERTEX
  8
0
  6
CONTINUOUS
 10
5.171760
 20
4.217840
  0
VERTEX
  8
0
  6
CONTINUOUS
 10
5.141400
 20
4.246000
  0
VERTEX
  8
0
  6
CONTINUOUS
 10
5.125560
 20
4.257440
  0
VERTEX
  8
0
  6
CONTINUOUS
 10
5.092120
 20
4.274160
  0
VERTEX
  8
0
  6
CONTINUOUS
 10
5.056920
 20
4.284280
  0
VERTEX
  8
0
  6
CONTINUOUS
 10
5.039320
 20
4.286920
  0
VERTEX
  8
0
  6
CONTINUOUS
 10
5.004120
 20
4.287360
  0
VERTEX
  8
0
  6
CONTINUOUS
 10
4.968920
 20
4.282520
  0
VERTEX
  8
0
  6
CONTINUOUS
 10
4.935480
 20
4.272400
  0
VERTEX
  8
0
  6
CONTINUOUS
 10
4.903800
 20
4.258320
  0
VERTEX
  8
0
  6
CONTINUOUS
 10
4.874760
 20
4.239840
  0
VERTEX
  8
0
  6
CONTINUOUS
 10
4.848800
 20
4.217840
  0
VERTEX
  8
0
  6
CONTINUOUS
 10
4.827680
 20
4.193200
  0
VERTEX
  8
0
  6
CONTINUOUS
 10
4.818440
 20
4.180000
  0
VERTEX
  8
0
  6
CONTINUOUS
 10
4.804800
 20
4.151840
  0
VERTEX
  8
0
  6
CONTINUOUS
 10
4.787200
 20
4.151840
  0
VERTEX
  8
0
  6
CONTINUOUS
 10
4.353800
 20
4.392960
  0
VERTEX
  8
0
  6
CONTINUOUS
 10
4.200240
 20
4.333560
  0
VERTEX
  8
0
  6
CONTINUOUS
 10
4.176480
 20
4.332680
  0
VERTEX
  8
0
  6
CONTINUOUS
 10
4.167240
 20
4.357320
  0
VERTEX
  8
0
  6
CONTINUOUS
 10
4.143040
 20
4.404400
  0
VERTEX
  8
0
  6
CONTINUOUS
 10
4.128520
 20
4.426400
  0
VERTEX
  8
0
  6
CONTINUOUS
 10
4.094640
 20
4.466440
  0
VERTEX
  8
0
  6
CONTINUOUS
 10
4.054600
 20
4.501200
  0
VERTEX
  8
0
  6
CONTINUOUS
 10
4.033040
 20
4.516600
  0
VERTEX
  8
0
  6
CONTINUOUS
 10
3.985960
 20
4.541680
  0
VERTEX
  8
0
  6
CONTINUOUS
 10
3.961320
 20
4.551360
  0
VERTEX
  8
0
  6
CONTINUOUS
 10
3.935360
 20
4.558840
  0
VERTEX
  8
0
  6
CONTINUOUS
 10
3.908960
 20
4.564560
  0
VERTEX
  8
0
  6
CONTINUOUS
 10
3.881240
 20
4.568080
  0
VERTEX
  8
0
  6
CONTINUOUS
 10
3.853520
 20
4.569400
  0
VERTEX
  8
0
  6
CONTINUOUS
 10
3.823600
 20
4.568080
  0
VERTEX
  8
0
  6
CONTINUOUS
 10
3.779600
 20
4.561040
  0
VERTEX
  8
0
  6
CONTINUOUS
 10
3.737800
 20
4.548720
  0
VERTEX
  8
0
  6
CONTINUOUS
 10
3.711400
 20
4.537280
  0
VERTEX
  8
0
  6
CONTINUOUS
 10
3.686320
 20
4.524080
  0
VERTEX
  8
0
  6
CONTINUOUS
 10
3.662120
 20
4.508680
  0
VERTEX
  8
0
  6
CONTINUOUS
 10
3.639680
 20
4.491520
  0
VERTEX
  8
0
  6
CONTINUOUS
 10
3.618120
 20
4.472600
  0
VERTEX
  8
0
  6
CONTINUOUS
 10
3.598760
 20
4.451920
  0
VERTEX
  8
0
  6
CONTINUOUS
 10
3.564880
 20
4.406600
  0
VERTEX
  8
0
  6
CONTINUOUS
 10
3.538920
 20
4.356000
  0
VERTEX
  8
0
  6
CONTINUOUS
 10
3.525280
 20
4.315960
  0
VERTEX
  8
0
  6
CONTINUOUS
 10
3.521760
 20
4.301880
  0
VERTEX
  8
0
  6
CONTINUOUS
 10
3.422320
 20
4.301880
  0
VERTEX
  8
0
  6
CONTINUOUS
 10
3.422320
 20
3.843400
  0
VERTEX
  8
0
  6
CONTINUOUS
 10
3.485680
 20
3.843400
  0
SEQEND
  8
0
  0
SOLID
  8
0
 62
    15
 10
4.037440
 20
6.651040
 11
4.681160
 21
7.024600
 12
4.278560
 22
6.217640
 13
4.922280
 23
6.591200
  0
POLYLINE
  8
0
  6
CONTINUOUS
 66
     1
 40
0.000000
 41
0.000000
  0
VERTEX
  8
0
  6
CONTINUOUS
 10
4.037440
 20
6.651040
  0
VERTEX
  8
0
  6
CONTINUOUS
 10
4.681160
 20
7.024600
  0
VERTEX
  8
0
  6
CONTINUOUS
 10
4.922280
 20
6.591200
  0
VERTEX
  8
0
  6
CONTINUOUS
 10
4.278560
 20
6.217640
  0
VERTEX
  8
0
  6
CONTINUOUS
 10
4.037440
 20
6.651040
  0
SEQEND
  8
0
  0
SOLID
  8
0
 62
    15
 10
3.905440
 20
7.268800
 11
4.548720
 21
7.642360
 12
3.936680
 22
7.112160
 13
4.579960
 23
7.485720
  0
POLYLINE
  8
0
  6
CONTINUOUS
 66
     1
 40
0.000000
 41
0.000000
  0
VERTEX
  8
0
  6
CONTINUOUS
 10
3.905440
 20
7.268800
  0
VERTEX
  8
0
  6
CONTINUOUS
 10
4.548720
 20
7.642360
  0
VERTEX
  8
0
  6
CONTINUOUS
 10
4.579960
 20
7.485720
  0
VERTEX
  8
0
  6
CONTINUOUS
 10
3.936680
 20
7.112160
  0
VERTEX
  8
0
  6
CONTINUOUS
 10
3.905440
 20
7.268800
  0
SEQEND
  8
0
  0
SOLID
  8
0
 62
    15
 10
3.936680
 20
7.112160
 11
4.579960
 21
7.485720
 12
3.996080
 22
7.095880
 13
4.639360
 23
7.469440
  0
POLYLINE
  8
0
  6
CONTINUOUS
 66
     1
 40
0.000000
 41
0.000000
  0
VERTEX
  8
0
  6
CONTINUOUS
 10
3.936680
 20
7.112160
  0
VERTEX
  8
0
  6
CONTINUOUS
 10
4.579960
 20
7.485720
  0
VERTEX
  8
0
  6
CONTINUOUS
 10
4.639360
 20
7.469440
  0
VERTEX
  8
0
  6
CONTINUOUS
 10
3.996080
 20
7.095880
  0
VERTEX
  8
0
  6
CONTINUOUS
 10
3.936680
 20
7.112160
  0
SEQEND
  8
0
  0
SOLID
  8
0
 62
    15
 10
3.996080
 20
7.095880
 11
4.639360
 21
7.469440
 12
4.045800
 22
7.074760
 13
4.689080
 23
7.448320
  0
POLYLINE
  8
0
  6
CONTINUOUS
 66
     1
 40
0.000000
 41
0.000000
  0
VERTEX
  8
0
  6
CONTINUOUS
 10
3.996080
 20
7.095880
  0
VERTEX
  8
0
  6
CONTINUOUS
 10
4.639360
 20
7.469440
  0
VERTEX
  8
0
  6
CONTINUOUS
 10
4.689080
 20
7.448320
  0
VERTEX
  8
0
  6
CONTINUOUS
 10
4.045800
 20
7.074760
  0
VERTEX
  8
0
  6
CONTINUOUS
 10
3.996080
 20
7.095880
  0
SEQEND
  8
0
  0
SOLID
  8
0
 62
    15
 10
4.045800
 20
7.074760
 11
4.689080
 21
7.448320
 12
4.086280
 22
7.049680
 13
4.730000
 23
7.423240
  0
POLYLINE
  8
0
  6
CONTINUOUS
 66
     1
 40
0.000000
 41
0.000000
  0
VERTEX
  8
0
  6
CONTINUOUS
 10
4.045800
 20
7.074760
  0
VERTEX
  8
0
  6
CONTINUOUS
 10
4.689080
 20
7.448320
  0
VERTEX
  8
0
  6
CONTINUOUS
 10
4.730000
 20
7.423240
  0
VERTEX
  8
0
  6
CONTINUOUS
 10
4.086280
 20
7.049680
  0
VERTEX
  8
0
  6
CONTINUOUS
 10
4.045800
 20
7.074760
  0
SEQEND
  8
0
  0
SOLID
  8
0
 62
    15
 10
4.086280
 20
7.049680
 11
4.730000
 21
7.423240
 12
4.118840
 22
7.020640
 13
4.762120
 23
7.394200
  0
POLYLINE
  8
0
  6
CONTINUOUS
 66
     1
 40
0.000000
 41
0.000000
  0
VERTEX
  8
0
  6
CONTINUOUS
 10
4.086280
 20
7.049680
  0
VERTEX
  8
0
  6
CONTINUOUS
 10
4.730000
 20
7.423240
  0
VERTEX
  8
0
  6
CONTINUOUS
 10
4.762120
 20
7.394200
  0
VERTEX
  8
0
  6
CONTINUOUS
 10
4.118840
 20
7.020640
  0
VERTEX
  8
0
  6
CONTINUOUS
 10
4.086280
 20
7.049680
  0
SEQEND
  8
0
  0
SOLID
  8
0
 62
    15
 10
4.118840
 20
7.020640
 11
4.762120
 21
7.394200
 12
4.143040
 22
6.988960
 13
4.786320
 23
7.362960
  0
POLYLINE
  8
0
  6
CONTINUOUS
 66
     1
 40
0.000000
 41
0.000000
  0
VERTEX
  8
0
  6
CONTINUOUS
 10
4.118840
 20
7.020640
  0
VERTEX
  8
0
  6
CONTINUOUS
 10
4.762120
 20
7.394200
  0
VERTEX
  8
0
  6
CONTINUOUS
 10
4.786320
 20
7.362960
  0
VERTEX
  8
0
  6
CONTINUOUS
 10
4.143040
 20
6.988960
  0
VERTEX
  8
0
  6
CONTINUOUS
 10
4.118840
 20
7.020640
  0
SEQEND
  8
0
  0
SOLID
  8
0
 62
    15
 10
4.143040
 20
6.988960
 11
4.786320
 21
7.362960
 12
4.159760
 22
6.955520
 13
4.803480
 23
7.329080
  0
POLYLINE
  8
0
  6
CONTINUOUS
 66
     1
 40
0.000000
 41
0.000000
  0
VERTEX
  8
0
  6
CONTINUOUS
 10
4.143040
 20
6.988960
  0
VERTEX
  8
0
  6
CONTINUOUS
 10
4.786320
 20
7.362960
  0
VERTEX
  8
0
  6
CONTINUOUS
 10
4.803480
 20
7.329080
  0
VERTEX
  8
0
  6
CONTINUOUS
 10
4.159760
 20
6.955520
  0
VERTEX
  8
0
  6
CONTINUOUS
 10
4.143040
 20
6.988960
  0
SEQEND
  8
0
  0
SOLID
  8
0
 62
    15
 10
4.159760
 20
6.955520
 11
4.803480
 21
7.329080
 12
4.169880
 22
6.920760
 13
4.813160
 23
7.294320
  0
POLYLINE
  8
0
  6
CONTINUOUS
 66
     1
 40
0.000000
 41
0.000000
  0
VERTEX
  8
0
  6
CONTINUOUS
 10
4.159760
 20
6.955520
  0
VERTEX
  8
0
  6
CONTINUOUS
 10
4.803480
 20
7.329080
  0
VERTEX
  8
0
  6
CONTINUOUS
 10
4.813160
 20
7.294320
  0
VERTEX
  8
0
  6
CONTINUOUS
 10
4.169880
 20
6.920760
  0
VERTEX
  8
0
  6
CONTINUOUS
 10
4.159760
 20
6.955520
  0
SEQEND
  8
0
  0
SOLID
  8
0
 62
    15
 10
4.169880
 20
6.920760
 11
4.813160
 21
7.294320
 12
4.173400
 22
6.885120
 13
4.816680
 23
7.258680
  0
POLYLINE
  8
0
  6
CONTINUOUS
 66
     1
 40
0.000000
 41
0.000000
  0
VERTEX
  8
0
  6
CONTINUOUS
 10
4.169880
 20
6.920760
  0
VERTEX
  8
0
  6
CONTINUOUS
 10
4.813160
 20
7.294320
  0
VERTEX
  8
0
  6
CONTINUOUS
 10
4.816680
 20
7.258680
  0
VERTEX
  8
0
  6
CONTINUOUS
 10
4.173400
 20
6.885120
  0
VERTEX
  8
0
  6
CONTINUOUS
 10
4.169880
 20
6.920760
  0
SEQEND
  8
0
  0
SOLID
  8
0
 62
    15
 10
4.173400
 20
6.885120
 11
4.816680
 21
7.258680
 12
4.171200
 22
6.849920
 13
4.814480
 23
7.223480
  0
POLYLINE
  8
0
  6
CONTINUOUS
 66
     1
 40
0.000000
 41
0.000000
  0
VERTEX
  8
0
  6
CONTINUOUS
 10
4.173400
 20
6.885120
  0
VERTEX
  8
0
  6
CONTINUOUS
 10
4.816680
 20
7.258680
  0
VERTEX
  8
0
  6
CONTINUOUS
 10
4.814480
 20
7.223480
  0
VERTEX
  8
0
  6
CONTINUOUS
 10
4.171200
 20
6.849920
  0
VERTEX
  8
0
  6
CONTINUOUS
 10
4.173400
 20
6.885120
  0
SEQEND
  8
0
  0
SOLID
  8
0
 62
    15
 10
4.171200
 20
6.849920
 11
4.814480
 21
7.223480
 12
4.163720
 22
6.815600
 13
4.807000
 23
7.189160
  0
POLYLINE
  8
0
  6
CONTINUOUS
 66
     1
 40
0.000000
 41
0.000000
  0
VERTEX
  8
0
  6
CONTINUOUS
 10
4.171200
 20
6.849920
  0
VERTEX
  8
0
  6
CONTINUOUS
 10
4.814480
 20
7.223480
  0
VERTEX
  8
0
  6
CONTINUOUS
 10
4.807000
 20
7.189160
  0
VERTEX
  8
0
  6
CONTINUOUS
 10
4.163720
 20
6.815600
  0
VERTEX
  8
0
  6
CONTINUOUS
 10
4.171200
 20
6.849920
  0
SEQEND
  8
0
  0
SOLID
  8
0
 62
    15
 10
4.163720
 20
6.815600
 11
4.807000
 21
7.189160
 12
4.151400
 22
6.782600
 13
4.795120
 23
7.156160
  0
POLYLINE
  8
0
  6
CONTINUOUS
 66
     1
 40
0.000000
 41
0.000000
  0
VERTEX
  8
0
  6
CONTINUOUS
 10
4.163720
 20
6.815600
  0
VERTEX
  8
0
  6
CONTINUOUS
 10
4.807000
 20
7.189160
  0
VERTEX
  8
0
  6
CONTINUOUS
 10
4.795120
 20
7.156160
  0
VERTEX
  8
0
  6
CONTINUOUS
 10
4.151400
 20
6.782600
  0
VERTEX
  8
0
  6
CONTINUOUS
 10
4.163720
 20
6.815600
  0
SEQEND
  8
0
  0
SOLID
  8
0
 62
    15
 10
4.151400
 20
6.782600
 11
4.795120
 21
7.156160
 12
4.135120
 22
6.752240
 13
4.778400
 23
7.125800
  0
POLYLINE
  8
0
  6
CONTINUOUS
 66
     1
 40
0.000000
 41
0.000000
  0
VERTEX
  8
0
  6
CONTINUOUS
 10
4.151400
 20
6.782600
  0
VERTEX
  8
0
  6
CONTINUOUS
 10
4.795120
 20
7.156160
  0
VERTEX
  8
0
  6
CONTINUOUS
 10
4.778400
 20
7.125800
  0
VERTEX
  8
0
  6
CONTINUOUS
 10
4.135120
 20
6.752240
  0
VERTEX
  8
0
  6
CONTINUOUS
 10
4.151400
 20
6.782600
  0
SEQEND
  8
0
  0
SOLID
  8
0
 62
    15
 10
4.135120
 20
6.752240
 11
4.778400
 21
7.125800
 12
4.114880
 22
6.724960
 13
4.758160
 23
7.098520
  0
POLYLINE
  8
0
  6
CONTINUOUS
 66
     1
 40
0.000000
 41
0.000000
  0
VERTEX
  8
0
  6
CONTINUOUS
 10
4.135120
 20
6.752240
  0
VERTEX
  8
0
  6
CONTINUOUS
 10
4.778400
 20
7.125800
  0
VERTEX
  8
0
  6
CONTINUOUS
 10
4.758160
 20
7.098520
  0
VERTEX
  8
0
  6
CONTINUOUS
 10
4.114880
 20
6.724960
  0
VERTEX
  8
0
  6
CONTINUOUS
 10
4.135120
 20
6.752240
  0
SEQEND
  8
0
  0
SOLID
  8
0
 62
    15
 10
4.114880
 20
6.724960
 11
4.758160
 21
7.098520
 12
4.091560
 22
6.701200
 13
4.734840
 23
7.074760
  0
POLYLINE
  8
0
  6
CONTINUOUS
 66
     1
 40
0.000000
 41
0.000000
  0
VERTEX
  8
0
  6
CONTINUOUS
 10
4.114880
 20
6.724960
  0
VERTEX
  8
0
  6
CONTINUOUS
 10
4.758160
 20
7.098520
  0
VERTEX
  8
0
  6
CONTINUOUS
 10
4.734840
 20
7.074760
  0
VERTEX
  8
0
  6
CONTINUOUS
 10
4.091560
 20
6.701200
  0
VERTEX
  8
0
  6
CONTINUOUS
 10
4.114880
 20
6.724960
  0
SEQEND
  8
0
  0
SOLID
  8
0
 62
    15
 10
4.037440
 20
6.668200
 11
4.681160
 21
7.041760
 12
4.037440
 22
6.651040
 13
4.681160
 23
7.024600
  0
POLYLINE
  8
0
  6
CONTINUOUS
 66
     1
 40
0.000000
 41
0.000000
  0
VERTEX
  8
0
  6
CONTINUOUS
 10
4.037440
 20
6.668200
  0
VERTEX
  8
0
  6
CONTINUOUS
 10
4.681160
 20
7.041760
  0
VERTEX
  8
0
  6
CONTINUOUS
 10
4.681160
 20
7.024600
  0
VERTEX
  8
0
  6
CONTINUOUS
 10
4.037440
 20
6.651040
  0
VERTEX
  8
0
  6
CONTINUOUS
 10
4.037440
 20
6.668200
  0
SEQEND
  8
0
  0
SOLID
  8
0
 62
    15
 10
4.091560
 20
6.701200
 11
4.734840
 21
7.074760
 12
4.065600
 22
6.682280
 13
4.708880
 23
7.055840
  0
POLYLINE
  8
0
  6
CONTINUOUS
 66
     1
 40
0.000000
 41
0.000000
  0
VERTEX
  8
0
  6
CONTINUOUS
 10
4.091560
 20
6.701200
  0
VERTEX
  8
0
  6
CONTINUOUS
 10
4.734840
 20
7.074760
  0
VERTEX
  8
0
  6
CONTINUOUS
 10
4.708880
 20
7.055840
  0
VERTEX
  8
0
  6
CONTINUOUS
 10
4.065600
 20
6.682280
  0
VERTEX
  8
0
  6
CONTINUOUS
 10
4.091560
 20
6.701200
  0
SEQEND
  8
0
  0
SOLID
  8
0
 62
    15
 10
3.729000
 20
7.268800
 11
4.372280
 21
7.642360
 12
3.905440
 22
7.268800
 13
4.548720
 23
7.642360
  0
POLYLINE
  8
0
  6
CONTINUOUS
 66
     1
 40
0.000000
 41
0.000000
  0
VERTEX
  8
0
  6
CONTINUOUS
 10
3.729000
 20
7.268800
  0
VERTEX
  8
0
  6
CONTINUOUS
 10
4.372280
 20
7.642360
  0
VERTEX
  8
0
  6
CONTINUOUS
 10
4.548720
 20
7.642360
  0
VERTEX
  8
0
  6
CONTINUOUS
 10
3.905440
 20
7.268800
  0
VERTEX
  8
0
  6
CONTINUOUS
 10
3.729000
 20
7.268800
  0
SEQEND
  8
0
  0
SOLID
  8
0
 62
    15
 10
4.278560
 20
6.217640
 11
4.922280
 21
6.591200
 12
4.219160
 22
6.064080
 13
4.862440
 23
6.437640
  0
POLYLINE
  8
0
  6
CONTINUOUS
 66
     1
 40
0.000000
 41
0.000000
  0
VERTEX
  8
0
  6
CONTINUOUS
 10
4.278560
 20
6.217640
  0
VERTEX
  8
0
  6
CONTINUOUS
 10
4.922280
 20
6.591200
  0
VERTEX
  8
0
  6
CONTINUOUS
 10
4.862440
 20
6.437640
  0
VERTEX
  8
0
  6
CONTINUOUS
 10
4.219160
 20
6.064080
  0
VERTEX
  8
0
  6
CONTINUOUS
 10
4.278560
 20
6.217640
  0
SEQEND
  8
0
  0
SOLID
  8
0
 62
    15
 10
4.219160
 20
6.064080
 11
4.862440
 21
6.437640
 12
4.218720
 22
6.040320
 13
4.862000
 23
6.413880
  0
POLYLINE
  8
0
  6
CONTINUOUS
 66
     1
 40
0.000000
 41
0.000000
  0
VERTEX
  8
0
  6
CONTINUOUS
 10
4.219160
 20
6.064080
  0
VERTEX
  8
0
  6
CONTINUOUS
 10
4.862440
 20
6.437640
  0
VERTEX
  8
0
  6
CONTINUOUS
 10
4.862000
 20
6.413880
  0
VERTEX
  8
0
  6
CONTINUOUS
 10
4.218720
 20
6.040320
  0
VERTEX
  8
0
  6
CONTINUOUS
 10
4.219160
 20
6.064080
  0
SEQEND
  8
0
  0
SOLID
  8
0
 62
    15
 10
4.218720
 20
6.040320
 11
4.862000
 21
6.413880
 12
4.267120
 22
6.019640
 13
4.910840
 23
6.393200
  0
POLYLINE
  8
0
  6
CONTINUOUS
 66
     1
 40
0.000000
 41
0.000000
  0
VERTEX
  8
0
  6
CONTINUOUS
 10
4.218720
 20
6.040320
  0
VERTEX
  8
0
  6
CONTINUOUS
 10
4.862000
 20
6.413880
  0
VERTEX
  8
0
  6
CONTINUOUS
 10
4.910840
 20
6.393200
  0
VERTEX
  8
0
  6
CONTINUOUS
 10
4.267120
 20
6.019640
  0
VERTEX
  8
0
  6
CONTINUOUS
 10
4.218720
 20
6.040320
  0
SEQEND
  8
0
  0
SOLID
  8
0
 62
    15
 10
4.267120
 20
6.019640
 11
4.910840
 21
6.393200
 12
4.312000
 22
5.991920
 13
4.955280
 23
6.365920
  0
POLYLINE
  8
0
  6
CONTINUOUS
 66
     1
 40
0.000000
 41
0.000000
  0
VERTEX
  8
0
  6
CONTINUOUS
 10
4.267120
 20
6.019640
  0
VERTEX
  8
0
  6
CONTINUOUS
 10
4.910840
 20
6.393200
  0
VERTEX
  8
0
  6
CONTINUOUS
 10
4.955280
 20
6.365920
  0
VERTEX
  8
0
  6
CONTINUOUS
 10
4.312000
 20
5.991920
  0
VERTEX
  8
0
  6
CONTINUOUS
 10
4.267120
 20
6.019640
  0
SEQEND
  8
0
  0
SOLID
  8
0
 62
    15
 10
4.312000
 20
5.991920
 11
4.955280
 21
6.365920
 12
4.352480
 22
5.958040
 13
4.995760
 23
6.331600
  0
POLYLINE
  8
0
  6
CONTINUOUS
 66
     1
 40
0.000000
 41
0.000000
  0
VERTEX
  8
0
  6
CONTINUOUS
 10
4.312000
 20
5.991920
  0
VERTEX
  8
0
  6
CONTINUOUS
 10
4.955280
 20
6.365920
  0
VERTEX
  8
0
  6
CONTINUOUS
 10
4.995760
 20
6.331600
  0
VERTEX
  8
0
  6
CONTINUOUS
 10
4.352480
 20
5.958040
  0
VERTEX
  8
0
  6
CONTINUOUS
 10
4.312000
 20
5.991920
  0
SEQEND
  8
0
  0
SOLID
  8
0
 62
    15
 10
4.352480
 20
5.958040
 11
4.995760
 21
6.331600
 12
4.387240
 22
5.918440
 13
5.030520
 23
6.292000
  0
POLYLINE
  8
0
  6
CONTINUOUS
 66
     1
 40
0.000000
 41
0.000000
  0
VERTEX
  8
0
  6
CONTINUOUS
 10
4.352480
 20
5.958040
  0
VERTEX
  8
0
  6
CONTINUOUS
 10
4.995760
 20
6.331600
  0
VERTEX
  8
0
  6
CONTINUOUS
 10
5.030520
 20
6.292000
  0
VERTEX
  8
0
  6
CONTINUOUS
 10
4.387240
 20
5.918440
  0
VERTEX
  8
0
  6
CONTINUOUS
 10
4.352480
 20
5.958040
  0
SEQEND
  8
0
  0
SOLID
  8
0
 62
    15
 10
4.387240
 20
5.918440
 11
5.030520
 21
6.292000
 12
4.415400
 22
5.874000
 13
5.059120
 23
6.247560
  0
POLYLINE
  8
0
  6
CONTINUOUS
 66
     1
 40
0.000000
 41
0.000000
  0
VERTEX
  8
0
  6
CONTINUOUS
 10
4.387240
 20
5.918440
  0
VERTEX
  8
0
  6
CONTINUOUS
 10
5.030520
 20
6.292000
  0
VERTEX
  8
0
  6
CONTINUOUS
 10
5.059120
 20
6.247560
  0
VERTEX
  8
0
  6
CONTINUOUS
 10
4.415400
 20
5.874000
  0
VERTEX
  8
0
  6
CONTINUOUS
 10
4.387240
 20
5.918440
  0
SEQEND
  8
0
  0
SOLID
  8
0
 62
    15
 10
4.415400
 20
5.874000
 11
5.059120
 21
6.247560
 12
4.436960
 22
5.824720
 13
5.080240
 23
6.198720
  0
POLYLINE
  8
0
  6
CONTINUOUS
 66
     1
 40
0.000000
 41
0.000000
  0
VERTEX
  8
0
  6
CONTINUOUS
 10
4.415400
 20
5.874000
  0
VERTEX
  8
0
  6
CONTINUOUS
 10
5.059120
 20
6.247560
  0
VERTEX
  8
0
  6
CONTINUOUS
 10
5.080240
 20
6.198720
  0
VERTEX
  8
0
  6
CONTINUOUS
 10
4.436960
 20
5.824720
  0
VERTEX
  8
0
  6
CONTINUOUS
 10
4.415400
 20
5.874000
  0
SEQEND
  8
0
  0
SOLID
  8
0
 62
    15
 10
4.436960
 20
5.824720
 11
5.080240
 21
6.198720
 12
4.450160
 22
5.772360
 13
5.093880
 23
6.145920
  0
POLYLINE
  8
0
  6
CONTINUOUS
 66
     1
 40
0.000000
 41
0.000000
  0
VERTEX
  8
0
  6
CONTINUOUS
 10
4.436960
 20
5.824720
  0
VERTEX
  8
0
  6
CONTINUOUS
 10
5.080240
 20
6.198720
  0
VERTEX
  8
0
  6
CONTINUOUS
 10
5.093880
 20
6.145920
  0
VERTEX
  8
0
  6
CONTINUOUS
 10
4.450160
 20
5.772360
  0
VERTEX
  8
0
  6
CONTINUOUS
 10
4.436960
 20
5.824720
  0
SEQEND
  8
0
  0
SOLID
  8
0
 62
    15
 10
4.450160
 20
5.772360
 11
5.093880
 21
6.145920
 12
4.455000
 22
5.717360
 13
5.098280
 23
6.090920
  0
POLYLINE
  8
0
  6
CONTINUOUS
 66
     1
 40
0.000000
 41
0.000000
  0
VERTEX
  8
0
  6
CONTINUOUS
 10
4.450160
 20
5.772360
  0
VERTEX
  8
0
  6
CONTINUOUS
 10
5.093880
 20
6.145920
  0
VERTEX
  8
0
  6
CONTINUOUS
 10
5.098280
 20
6.090920
  0
VERTEX
  8
0
  6
CONTINUOUS
 10
4.455000
 20
5.717360
  0
VERTEX
  8
0
  6
CONTINUOUS
 10
4.450160
 20
5.772360
  0
SEQEND
  8
0
  0
SOLID
  8
0
 62
    15
 10
4.455000
 20
5.717360
 11
5.098280
 21
6.090920
 12
4.449720
 22
5.657520
 13
5.093000
 23
6.031080
  0
POLYLINE
  8
0
  6
CONTINUOUS
 66
     1
 40
0.000000
 41
0.000000
  0
VERTEX
  8
0
  6
CONTINUOUS
 10
4.455000
 20
5.717360
  0
VERTEX
  8
0
  6
CONTINUOUS
 10
5.098280
 20
6.090920
  0
VERTEX
  8
0
  6
CONTINUOUS
 10
5.093000
 20
6.031080
  0
VERTEX
  8
0
  6
CONTINUOUS
 10
4.449720
 20
5.657520
  0
VERTEX
  8
0
  6
CONTINUOUS
 10
4.455000
 20
5.717360
  0
SEQEND
  8
0
  0
SOLID
  8
0
 62
    15
 10
4.449720
 20
5.657520
 11
5.093000
 21
6.031080
 12
4.434320
 22
5.601640
 13
5.077600
 23
5.975200
  0
POLYLINE
  8
0
  6
CONTINUOUS
 66
     1
 40
0.000000
 41
0.000000
  0
VERTEX
  8
0
  6
CONTINUOUS
 10
4.449720
 20
5.657520
  0
VERTEX
  8
0
  6
CONTINUOUS
 10
5.093000
 20
6.031080
  0
VERTEX
  8
0
  6
CONTINUOUS
 10
5.077600
 20
5.975200
  0
VERTEX
  8
0
  6
CONTINUOUS
 10
4.434320
 20
5.601640
  0
VERTEX
  8
0
  6
CONTINUOUS
 10
4.449720
 20
5.657520
  0
SEQEND
  8
0
  0
SOLID
  8
0
 62
    15
 10
4.434320
 20
5.601640
 11
5.077600
 21
5.975200
 12
4.409680
 22
5.549720
 13
5.052960
 23
5.923280
  0
POLYLINE
  8
0
  6
CONTINUOUS
 66
     1
 40
0.000000
 41
0.000000
  0
VERTEX
  8
0
  6
CONTINUOUS
 10
4.434320
 20
5.601640
  0
VERTEX
  8
0
  6
CONTINUOUS
 10
5.077600
 20
5.975200
  0
VERTEX
  8
0
  6
CONTINUOUS
 10
5.052960
 20
5.923280
  0
VERTEX
  8
0
  6
CONTINUOUS
 10
4.409680
 20
5.549720
  0
VERTEX
  8
0
  6
CONTINUOUS
 10
4.434320
 20
5.601640
  0
SEQEND
  8
0
  0
SOLID
  8
0
 62
    15
 10
4.409680
 20
5.549720
 11
5.052960
 21
5.923280
 12
4.377120
 22
5.503080
 13
5.020840
 23
5.876640
  0
POLYLINE
  8
0
  6
CONTINUOUS
 66
     1
 40
0.000000
 41
0.000000
  0
VERTEX
  8
0
  6
CONTINUOUS
 10
4.409680
 20
5.549720
  0
VERTEX
  8
0
  6
CONTINUOUS
 10
5.052960
 20
5.923280
  0
VERTEX
  8
0
  6
CONTINUOUS
 10
5.020840
 20
5.876640
  0
VERTEX
  8
0
  6
CONTINUOUS
 10
4.377120
 20
5.503080
  0
VERTEX
  8
0
  6
CONTINUOUS
 10
4.409680
 20
5.549720
  0
SEQEND
  8
0
  0
SOLID
  8
0
 62
    15
 10
4.187920
 20
5.385160
 11
4.831200
 21
5.758720
 12
4.187920
 22
5.286160
 13
4.831200
 23
5.659720
  0
POLYLINE
  8
0
  6
CONTINUOUS
 66
     1
 40
0.000000
 41
0.000000
  0
VERTEX
  8
0
  6
CONTINUOUS
 10
4.187920
 20
5.385160
  0
VERTEX
  8
0
  6
CONTINUOUS
 10
4.831200
 20
5.758720
  0
VERTEX
  8
0
  6
CONTINUOUS
 10
4.831200
 20
5.659720
  0
VERTEX
  8
0
  6
CONTINUOUS
 10
4.187920
 20
5.286160
  0
VERTEX
  8
0
  6
CONTINUOUS
 10
4.187920
 20
5.385160
  0
SEQEND
  8
0
  0
SOLID
  8
0
 62
    15
 10
4.337960
 20
5.462600
 11
4.981240
 21
5.836160
 12
4.292200
 22
5.428720
 13
4.935920
 23
5.802280
  0
POLYLINE
  8
0
  6
CONTINUOUS
 66
     1
 40
0.000000
 41
0.000000
  0
VERTEX
  8
0
  6
CONTINUOUS
 10
4.337960
 20
5.462600
  0
VERTEX
  8
0
  6
CONTINUOUS
 10
4.981240
 20
5.836160
  0
VERTEX
  8
0
  6
CONTINUOUS
 10
4.935920
 20
5.802280
  0
VERTEX
  8
0
  6
CONTINUOUS
 10
4.292200
 20
5.428720
  0
VERTEX
  8
0
  6
CONTINUOUS
 10
4.337960
 20
5.462600
  0
SEQEND
  8
0
  0
SOLID
  8
0
 62
    15
 10
4.377120
 20
5.503080
 11
5.020840
 21
5.876640
 12
4.337960
 22
5.462600
 13
4.981240
 23
5.836160
  0
POLYLINE
  8
0
  6
CONTINUOUS
 66
     1
 40
0.000000
 41
0.000000
  0
VERTEX
  8
0
  6
CONTINUOUS
 10
4.377120
 20
5.503080
  0
VERTEX
  8
0
  6
CONTINUOUS
 10
5.020840
 20
5.876640
  0
VERTEX
  8
0
  6
CONTINUOUS
 10
4.981240
 20
5.836160
  0
VERTEX
  8
0
  6
CONTINUOUS
 10
4.337960
 20
5.462600
  0
VERTEX
  8
0
  6
CONTINUOUS
 10
4.377120
 20
5.503080
  0
SEQEND
  8
0
  0
POLYLINE
  8
0
  6
CONTINUOUS
 66
     1
 40
0.000000
 41
0.000000
  0
VERTEX
  8
0
  6
CONTINUOUS
 10
3.729000
 20
5.349520
  0
VERTEX
  8
0
  6
CONTINUOUS
 10
3.729000
 20
7.268800
  0
VERTEX
  8
0
  6
CONTINUOUS
 10
3.905440
 20
7.268800
  0
VERTEX
  8
0
  6
CONTINUOUS
 10
3.936680
 20
7.112160
  0
VERTEX
  8
0
  6
CONTINUOUS
 10
3.996080
 20
7.095880
  0
VERTEX
  8
0
  6
CONTINUOUS
 10
4.045800
 20
7.074760
  0
VERTEX
  8
0
  6
CONTINUOUS
 10
4.086280
 20
7.049680
  0
VERTEX
  8
0
  6
CONTINUOUS
 10
4.118840
 20
7.020640
  0
VERTEX
  8
0
  6
CONTINUOUS
 10
4.143040
 20
6.988960
  0
VERTEX
  8
0
  6
CONTINUOUS
 10
4.159760
 20
6.955520
  0
VERTEX
  8
0
  6
CONTINUOUS
 10
4.169880
 20
6.920760
  0
VERTEX
  8
0
  6
CONTINUOUS
 10
4.173400
 20
6.885120
  0
VERTEX
  8
0
  6
CONTINUOUS
 10
4.171200
 20
6.849920
  0
VERTEX
  8
0
  6
CONTINUOUS
 10
4.163720
 20
6.815600
  0
VERTEX
  8
0
  6
CONTINUOUS
 10
4.151400
 20
6.782600
  0
VERTEX
  8
0
  6
CONTINUOUS
 10
4.135120
 20
6.752240
  0
VERTEX
  8
0
  6
CONTINUOUS
 10
4.114880
 20
6.724960
  0
VERTEX
  8
0
  6
CONTINUOUS
 10
4.091560
 20
6.701200
  0
VERTEX
  8
0
  6
CONTINUOUS
 10
4.065600
 20
6.682280
  0
VERTEX
  8
0
  6
CONTINUOUS
 10
4.037440
 20
6.668200
  0
VERTEX
  8
0
  6
CONTINUOUS
 10
4.037440
 20
6.651040
  0
VERTEX
  8
0
  6
CONTINUOUS
 10
4.278560
 20
6.217640
  0
VERTEX
  8
0
  6
CONTINUOUS
 10
4.219160
 20
6.064080
  0
VERTEX
  8
0
  6
CONTINUOUS
 10
4.218720
 20
6.040320
  0
VERTEX
  8
0
  6
CONTINUOUS
 10
4.267120
 20
6.019640
  0
VERTEX
  8
0
  6
CONTINUOUS
 10
4.312000
 20
5.991920
  0
VERTEX
  8
0
  6
CONTINUOUS
 10
4.352480
 20
5.958040
  0
VERTEX
  8
0
  6
CONTINUOUS
 10
4.387240
 20
5.918440
  0
VERTEX
  8
0
  6
CONTINUOUS
 10
4.415400
 20
5.874000
  0
VERTEX
  8
0
  6
CONTINUOUS
 10
4.436960
 20
5.824720
  0
VERTEX
  8
0
  6
CONTINUOUS
 10
4.450160
 20
5.772360
  0
VERTEX
  8
0
  6
CONTINUOUS
 10
4.455000
 20
5.717360
  0
VERTEX
  8
0
  6
CONTINUOUS
 10
4.449720
 20
5.657520
  0
VERTEX
  8
0
  6
CONTINUOUS
 10
4.434320
 20
5.601640
  0
VERTEX
  8
0
  6
CONTINUOUS
 10
4.409680
 20
5.549720
  0
VERTEX
  8
0
  6
CONTINUOUS
 10
4.377120
 20
5.503080
  0
VERTEX
  8
0
  6
CONTINUOUS
 10
4.337960
 20
5.462600
  0
VERTEX
  8
0
  6
CONTINUOUS
 10
4.292200
 20
5.428720
  0
VERTEX
  8
0
  6
CONTINUOUS
 10
4.242040
 20
5.402760
  0
VERTEX
  8
0
  6
CONTINUOUS
 10
4.187920
 20
5.385160
  0
VERTEX
  8
0
  6
CONTINUOUS
 10
4.187920
 20
5.286160
  0
VERTEX
  8
0
  6
CONTINUOUS
 10
3.729440
 20
5.286160
  0
VERTEX
  8
0
  6
CONTINUOUS
 10
3.729440
 20
5.349520
  0
VERTEX
  8
0
  6
CONTINUOUS
 10
3.729000
 20
5.349520
  0
SEQEND
  8
0
  0
TEXT
  8
0
 10
4.035680
 20
5.023920
 40
0.138286
  1
BA  1171
 41
1.000000
  7
SN0
 71
     0
 72
     5
 11
4.719218
 21
5.023920
  0
TEXT
  8
0
 10
4.035680
 20
4.832520
 40
0.138286
  1
3/4" x 2"
 41
1.000000
  7
SN0
 71
     0
 72
     5
 11
4.651349
 21
4.832520
  0
POLYLINE
  8
0
  6
CONTINUOUS
 66
     1
 40
0.014080
 41
0.014080
  0
VERTEX
  8
0
  6
CONTINUOUS
 10
3.485680
 20
7.868080
  0
VERTEX
  8
0
  6
CONTINUOUS
 10
5.404960
 20
7.868080
  0
VERTEX
  8
0
  6
CONTINUOUS
 10
5.404960
 20
8.044520
  0
VERTEX
  8
0
  6
CONTINUOUS
 10
5.248320
 20
8.075760
  0
VERTEX
  8
0
  6
CONTINUOUS
 10
5.236880
 20
8.121080
  0
VERTEX
  8
0
  6
CONTINUOUS
 10
5.222360
 20
8.161120
  0
VERTEX
  8
0
  6
CONTINUOUS
 10
5.199040
 20
8.206440
  0
VERTEX
  8
0
  6
CONTINUOUS
 10
5.171760
 20
8.242520
  0
VERTEX
  8
0
  6
CONTINUOUS
 10
5.156800
 20
8.257920
  0
VERTEX
  8
0
  6
CONTINUOUS
 10
5.141400
 20
8.271120
  0
VERTEX
  8
0
  6
CONTINUOUS
 10
5.125560
 20
8.282120
  0
VERTEX
  8
0
  6
CONTINUOUS
 10
5.092120
 20
8.298840
  0
VERTEX
  8
0
  6
CONTINUOUS
 10
5.074520
 20
8.305000
  0
VERTEX
  8
0
  6
CONTINUOUS
 10
5.039320
 20
8.311600
  0
VERTEX
  8
0
  6
CONTINUOUS
 10
5.004120
 20
8.312040
  0
VERTEX
  8
0
  6
CONTINUOUS
 10
4.968920
 20
8.307200
  0
VERTEX
  8
0
  6
CONTINUOUS
 10
4.935480
 20
8.297520
  0
VERTEX
  8
0
  6
CONTINUOUS
 10
4.903800
 20
8.283000
  0
VERTEX
  8
0
  6
CONTINUOUS
 10
4.874760
 20
8.264520
  0
VERTEX
  8
0
  6
CONTINUOUS
 10
4.848800
 20
8.242520
  0
VERTEX
  8
0
  6
CONTINUOUS
 10
4.827680
 20
8.217880
  0
VERTEX
  8
0
  6
CONTINUOUS
 10
4.818440
 20
8.204680
  0
VERTEX
  8
0
  6
CONTINUOUS
 10
4.804800
 20
8.176520
  0
VERTEX
  8
0
  6
CONTINUOUS
 10
4.787200
 20
8.176520
  0
VERTEX
  8
0
  6
CONTINUOUS
 10
4.353800
 20
8.417640
  0
VERTEX
  8
0
  6
CONTINUOUS
 10
4.200240
 20
8.358240
  0
VERTEX
  8
0
  6
CONTINUOUS
 10
4.176480
 20
8.357800
  0
VERTEX
  8
0
  6
CONTINUOUS
 10
4.167240
 20
8.382440
  0
VERTEX
  8
0
  6
CONTINUOUS
 10
4.143040
 20
8.429080
  0
VERTEX
  8
0
  6
CONTINUOUS
 10
4.128520
 20
8.451080
  0
VERTEX
  8
0
  6
CONTINUOUS
 10
4.094640
 20
8.491560
  0
VERTEX
  8
0
  6
CONTINUOUS
 10
4.075280
 20
8.509600
  0
VERTEX
  8
0
  6
CONTINUOUS
 10
4.033040
 20
8.541280
  0
VERTEX
  8
0
  6
CONTINUOUS
 10
3.985960
 20
8.566360
  0
VERTEX
  8
0
  6
CONTINUOUS
 10
3.961320
 20
8.576040
  0
VERTEX
  8
0
  6
CONTINUOUS
 10
3.935360
 20
8.583520
  0
VERTEX
  8
0
  6
CONTINUOUS
 10
3.908960
 20
8.589240
  0
VERTEX
  8
0
  6
CONTINUOUS
 10
3.881240
 20
8.592760
  0
VERTEX
  8
0
  6
CONTINUOUS
 10
3.853520
 20
8.594080
  0
VERTEX
  8
0
  6
CONTINUOUS
 10
3.823600
 20
8.592760
  0
VERTEX
  8
0
  6
CONTINUOUS
 10
3.779600
 20
8.585720
  0
VERTEX
  8
0
  6
CONTINUOUS
 10
3.737800
 20
8.573400
  0
VERTEX
  8
0
  6
CONTINUOUS
 10
3.711400
 20
8.561960
  0
VERTEX
  8
0
  6
CONTINUOUS
 10
3.686320
 20
8.548760
  0
VERTEX
  8
0
  6
CONTINUOUS
 10
3.662120
 20
8.533360
  0
VERTEX
  8
0
  6
CONTINUOUS
 10
3.639680
 20
8.516200
  0
VERTEX
  8
0
  6
CONTINUOUS
 10
3.618120
 20
8.497280
  0
VERTEX
  8
0
  6
CONTINUOUS
 10
3.598760
 20
8.477040
  0
VERTEX
  8
0
  6
CONTINUOUS
 10
3.581160
 20
8.455040
  0
VERTEX
  8
0
  6
CONTINUOUS
 10
3.564880
 20
8.431280
  0
VERTEX
  8
0
  6
CONTINUOUS
 10
3.551240
 20
8.407080
  0
VERTEX
  8
0
  6
CONTINUOUS
 10
3.538920
 20
8.381120
  0
VERTEX
  8
0
  6
CONTINUOUS
 10
3.525280
 20
8.340640
  0
VERTEX
  8
0
  6
CONTINUOUS
 10
3.521760
 20
8.327000
  0
VERTEX
  8
0
  6
CONTINUOUS
 10
3.422320
 20
8.327000
  0
VERTEX
  8
0
  6
CONTINUOUS
 10
3.422320
 20
7.868520
  0
VERTEX
  8
0
  6
CONTINUOUS
 10
3.485680
 20
7.868080
  0
SEQEND
  8
0
  0
TEXT
  8
0
 10
3.642760
 20
8.125920
 40
0.138286
  1
BA  1171
 41
1.000000
  7
SN0
 71
     0
 72
     5
 11
4.326298
 21
8.125920
  0
TEXT
  8
0
 10
3.642760
 20
7.934080
 40
0.138286
  1
3/4" x 2"
 41
1.000000
  7
SN0
 71
     0
 72
     5
 11
4.258429
 21
7.934080
  0
ENDSEC
  0
EOF
