  0
SECTION
  2
HEADER
  9
$ACADVER
  1
AC1006
  9
$EXTMIN
 10
1.650880
 20
2.786080
  9
$EXTMAX
 10
6.632560
 20
6.156920
  9
$LTSCALE
 40
0.044000
  9
$PDMODE
 70
    35
  9
$PDSIZE
 40
0.035200
  0
ENDSEC
  0
SECTION
  2
TABLES
  0
TABLE
  2
LTYPE
 70
     9
  0
LTYPE
  2
CONTINUOUS
 70
    64
  3
Solid line
 72
    65
 73
     0
 40
0.000000
  0
LTYPE
  2
DASHED
 70
    64
  3
__ __ __ __ __ __ __ __ __ __ __ __ __ __ __
 72
    65
 73
     2
 40
0.000330
 49
0.000220
 49
-0.000110
  0
LTYPE
  2
HIDDEN
 70
    64
  3
 _ _ _ _ _ _ _ _ _ _ _ _ _ _ _ _ _ _ _ _ _ _
 72
    65
 73
     2
 40
0.000165
 49
0.000110
 49
-0.000055
  0
LTYPE
  2
CENTER
 70
    64
  3
____ _ ____ _ ____ _ ____ _ ____ _ ____ _ ____
 72
    65
 73
     4
 40
0.000880
 49
0.000550
 49
-0.000110
 49
0.000110
 49
-0.000110
  0
LTYPE
  2
PHANTOM
 70
    64
  3
_____ _ _ _____ _ _ _____ _ _ _____ _ _ ____
 72
    65
 73
     6
 40
0.001100
 49
0.000550
 49
-0.000110
 49
0.000110
 49
-0.000110
 49
0.000110
 49
-0.000110
  0
LTYPE
  2
DOT
 70
    64
  3
...............................................
 72
    65
 73
     2
 40
0.000110
 49
0.000000
 49
-0.000110
  0
LTYPE
  2
DASHDOT
 70
    64
  3
__ . __ . __ . __ . __ . __ . __ . __ . __ . __
 72
    65
 73
     4
 40
0.000440
 49
0.000220
 49
-0.000110
 49
0.000000
 49
-0.000110
  0
LTYPE
  2
BORDER
 70
    64
  3
__ __ . __ __ . __ __ . __ __ . __ __ . __ __
 72
    65
 73
     6
 40
0.000770
 49
0.000220
 49
-0.000110
 49
0.000220
 49
-0.000110
 49
0.000000
 49
-0.000110
  0
LTYPE
  2
DIVIDE
 70
    64
  3
__ . . __ . . __ . . __ . . __ . . __ . . __
 72
    65
 73
     6
 40
0.000550
 49
0.000220
 49
-0.000110
 49
0.000000
 49
-0.000110
 49
0.000000
 49
-0.000110
  0
LTYPE
  2
DOTDOT
 70
    64
  3
 . .  . .  . .  . .  . .  . . 
 72
    65
 73
     5
 40
0.000242
 49
-0.000110
 49
0.000000
 49
-0.000110
 49
0.000000
 49
-0.000110
  0
ENDTAB
  0
TABLE
  2
STYLE
 70
     2
  0
STYLE
 70
     0
  2
SN0
 40
0.000000
 41
0.000440
 50
0.000000
 71
     0
 42
0.000000
  3
ROMAND
  0
STYLE
 70
    68
  2
SV0
 40
0.000000
 41
0.000440
 50
0.000000
 71
     0
 42
0.000000
  3
ROMAND
  0
ENDTAB
  0
TABLE
  2
LAYER
 70
     3
  0
LAYER
  2
FOREGROUND
 70
    64
 62
     7
  6
CONTINUOUS
  0
LAYER
  2
BACKGROUND
 70
    65
 62
    -7
  6
CONTINUOUS
  0
LAYER
  2
0
 70
    64
 62
     7
  6
CONTINUOUS
  0
ENDTAB
  0
ENDSEC
  0
SECTION
  2
ENTITIES
  0
POLYLINE
  8
FOREGROUND
  6
CONTINUOUS
 66
     1
 40
0.000000
 41
0.000000
  0
VERTEX
  8
FOREGROUND
  6
CONTINUOUS
 10
0.000000
 20
8.943000
  0
VERTEX
  8
FOREGROUND
  6
CONTINUOUS
 10
8.499920
 20
8.943000
  0
VERTEX
  8
FOREGROUND
  6
CONTINUOUS
 10
8.499920
 20
-2.057000
  0
VERTEX
  8
FOREGROUND
  6
CONTINUOUS
 10
0.000000
 20
-2.057000
  0
VERTEX
  8
FOREGROUND
  6
CONTINUOUS
 10
0.000000
 20
8.943000
  0
SEQEND
  8
0
  0
POLYLINE
  8
FOREGROUND
  6
CONTINUOUS
 66
     1
 40
0.000000
 41
0.000000
  0
VERTEX
  8
FOREGROUND
  6
CONTINUOUS
 10
0.000000
 20
8.943000
  0
VERTEX
  8
FOREGROUND
  6
CONTINUOUS
 10
8.499920
 20
8.943000
  0
VERTEX
  8
FOREGROUND
  6
CONTINUOUS
 10
8.499920
 20
-2.057000
  0
VERTEX
  8
FOREGROUND
  6
CONTINUOUS
 10
0.000000
 20
-2.057000
  0
VERTEX
  8
FOREGROUND
  6
CONTINUOUS
 10
0.000000
 20
8.943000
  0
SEQEND
  8
0
  0
POLYLINE
  8
0
 62
     1
  6
CONTINUOUS
 66
     1
 40
0.014080
 41
0.014080
  0
VERTEX
  8
0
 62
     1
  6
CONTINUOUS
 10
6.622440
 20
6.149000
  0
VERTEX
  8
0
 62
     1
  6
CONTINUOUS
 10
6.371640
 20
6.149000
  0
VERTEX
  8
0
 62
     1
  6
CONTINUOUS
 10
6.360640
 20
6.115120
  0
VERTEX
  8
0
 62
     1
  6
CONTINUOUS
 10
6.344360
 20
6.083880
  0
VERTEX
  8
0
 62
     1
  6
CONTINUOUS
 10
6.323240
 20
6.055720
  0
VERTEX
  8
0
 62
     1
  6
CONTINUOUS
 10
6.298160
 20
6.031080
  0
VERTEX
  8
0
 62
     1
  6
CONTINUOUS
 10
6.268680
 20
6.010840
  0
VERTEX
  8
0
 62
     1
  6
CONTINUOUS
 10
6.253280
 20
6.002480
  0
VERTEX
  8
0
 62
     1
  6
CONTINUOUS
 10
6.236560
 20
5.995440
  0
VERTEX
  8
0
 62
     1
  6
CONTINUOUS
 10
6.201800
 20
5.986200
  0
VERTEX
  8
0
 62
     1
  6
CONTINUOUS
 10
6.183320
 20
5.983560
  0
VERTEX
  8
0
 62
     1
  6
CONTINUOUS
 10
6.164840
 20
5.982680
  0
VERTEX
  8
0
 62
     1
  6
CONTINUOUS
 10
6.127440
 20
5.985760
  0
VERTEX
  8
0
 62
     1
  6
CONTINUOUS
 10
6.109840
 20
5.989720
  0
VERTEX
  8
0
 62
     1
  6
CONTINUOUS
 10
6.075960
 20
6.002040
  0
VERTEX
  8
0
 62
     1
  6
CONTINUOUS
 10
6.045160
 20
6.019640
  0
VERTEX
  8
0
 62
     1
  6
CONTINUOUS
 10
6.017440
 20
6.042080
  0
VERTEX
  8
0
 62
     1
  6
CONTINUOUS
 10
5.994560
 20
6.068480
  0
VERTEX
  8
0
 62
     1
  6
CONTINUOUS
 10
5.975640
 20
6.098400
  0
VERTEX
  8
0
 62
     1
  6
CONTINUOUS
 10
5.962000
 20
6.131400
  0
VERTEX
  8
0
 62
     1
  6
CONTINUOUS
 10
5.957600
 20
6.149000
  0
VERTEX
  8
0
 62
     1
  6
CONTINUOUS
 10
5.705920
 20
6.149000
  0
VERTEX
  8
0
 62
     1
  6
CONTINUOUS
 10
5.694920
 20
6.115120
  0
VERTEX
  8
0
 62
     1
  6
CONTINUOUS
 10
5.678640
 20
6.083880
  0
VERTEX
  8
0
 62
     1
  6
CONTINUOUS
 10
5.657520
 20
6.055720
  0
VERTEX
  8
0
 62
     1
  6
CONTINUOUS
 10
5.632440
 20
6.031080
  0
VERTEX
  8
0
 62
     1
  6
CONTINUOUS
 10
5.602960
 20
6.010840
  0
VERTEX
  8
0
 62
     1
  6
CONTINUOUS
 10
5.587560
 20
6.002480
  0
VERTEX
  8
0
 62
     1
  6
CONTINUOUS
 10
5.570840
 20
5.995440
  0
VERTEX
  8
0
 62
     1
  6
CONTINUOUS
 10
5.536080
 20
5.986200
  0
VERTEX
  8
0
 62
     1
  6
CONTINUOUS
 10
5.517600
 20
5.983560
  0
VERTEX
  8
0
 62
     1
  6
CONTINUOUS
 10
5.499120
 20
5.982680
  0
VERTEX
  8
0
 62
     1
  6
CONTINUOUS
 10
5.461720
 20
5.985760
  0
VERTEX
  8
0
 62
     1
  6
CONTINUOUS
 10
5.444120
 20
5.989720
  0
VERTEX
  8
0
 62
     1
  6
CONTINUOUS
 10
5.410240
 20
6.002040
  0
VERTEX
  8
0
 62
     1
  6
CONTINUOUS
 10
5.379440
 20
6.019640
  0
VERTEX
  8
0
 62
     1
  6
CONTINUOUS
 10
5.351720
 20
6.042080
  0
VERTEX
  8
0
 62
     1
  6
CONTINUOUS
 10
5.328840
 20
6.068480
  0
VERTEX
  8
0
 62
     1
  6
CONTINUOUS
 10
5.309920
 20
6.098400
  0
VERTEX
  8
0
 62
     1
  6
CONTINUOUS
 10
5.296280
 20
6.131840
  0
VERTEX
  8
0
 62
     1
  6
CONTINUOUS
 10
5.291880
 20
6.149440
  0
VERTEX
  8
0
 62
     1
  6
CONTINUOUS
 10
5.040200
 20
6.149000
  0
VERTEX
  8
0
 62
     1
  6
CONTINUOUS
 10
5.029200
 20
6.115120
  0
VERTEX
  8
0
 62
     1
  6
CONTINUOUS
 10
5.013360
 20
6.083880
  0
VERTEX
  8
0
 62
     1
  6
CONTINUOUS
 10
4.992240
 20
6.055720
  0
VERTEX
  8
0
 62
     1
  6
CONTINUOUS
 10
4.966720
 20
6.031080
  0
VERTEX
  8
0
 62
     1
  6
CONTINUOUS
 10
4.937680
 20
6.010840
  0
VERTEX
  8
0
 62
     1
  6
CONTINUOUS
 10
4.905120
 20
5.995440
  0
VERTEX
  8
0
 62
     1
  6
CONTINUOUS
 10
4.870360
 20
5.986200
  0
VERTEX
  8
0
 62
     1
  6
CONTINUOUS
 10
4.851880
 20
5.983560
  0
VERTEX
  8
0
 62
     1
  6
CONTINUOUS
 10
4.833400
 20
5.982680
  0
VERTEX
  8
0
 62
     1
  6
CONTINUOUS
 10
4.796000
 20
5.985760
  0
VERTEX
  8
0
 62
     1
  6
CONTINUOUS
 10
4.778400
 20
5.989720
  0
VERTEX
  8
0
 62
     1
  6
CONTINUOUS
 10
4.744520
 20
6.002040
  0
VERTEX
  8
0
 62
     1
  6
CONTINUOUS
 10
4.713720
 20
6.019640
  0
VERTEX
  8
0
 62
     1
  6
CONTINUOUS
 10
4.686000
 20
6.042080
  0
VERTEX
  8
0
 62
     1
  6
CONTINUOUS
 10
4.663120
 20
6.068480
  0
VERTEX
  8
0
 62
     1
  6
CONTINUOUS
 10
4.644200
 20
6.098400
  0
VERTEX
  8
0
 62
     1
  6
CONTINUOUS
 10
4.630560
 20
6.131400
  0
VERTEX
  8
0
 62
     1
  6
CONTINUOUS
 10
4.626160
 20
6.149000
  0
VERTEX
  8
0
 62
     1
  6
CONTINUOUS
 10
4.374920
 20
6.149000
  0
VERTEX
  8
0
 62
     1
  6
CONTINUOUS
 10
4.363920
 20
6.115120
  0
VERTEX
  8
0
 62
     1
  6
CONTINUOUS
 10
4.347640
 20
6.083880
  0
VERTEX
  8
0
 62
     1
  6
CONTINUOUS
 10
4.326520
 20
6.055720
  0
VERTEX
  8
0
 62
     1
  6
CONTINUOUS
 10
4.301000
 20
6.031080
  0
VERTEX
  8
0
 62
     1
  6
CONTINUOUS
 10
4.271960
 20
6.010840
  0
VERTEX
  8
0
 62
     1
  6
CONTINUOUS
 10
4.239840
 20
5.995440
  0
VERTEX
  8
0
 62
     1
  6
CONTINUOUS
 10
4.204640
 20
5.986200
  0
VERTEX
  8
0
 62
     1
  6
CONTINUOUS
 10
4.186600
 20
5.983560
  0
VERTEX
  8
0
 62
     1
  6
CONTINUOUS
 10
4.167680
 20
5.982680
  0
VERTEX
  8
0
 62
     1
  6
CONTINUOUS
 10
4.130720
 20
5.985760
  0
VERTEX
  8
0
 62
     1
  6
CONTINUOUS
 10
4.112680
 20
5.989720
  0
VERTEX
  8
0
 62
     1
  6
CONTINUOUS
 10
4.079240
 20
6.002040
  0
VERTEX
  8
0
 62
     1
  6
CONTINUOUS
 10
4.048000
 20
6.019640
  0
VERTEX
  8
0
 62
     1
  6
CONTINUOUS
 10
4.020720
 20
6.042080
  0
VERTEX
  8
0
 62
     1
  6
CONTINUOUS
 10
3.997400
 20
6.068480
  0
VERTEX
  8
0
 62
     1
  6
CONTINUOUS
 10
3.978920
 20
6.098400
  0
VERTEX
  8
0
 62
     1
  6
CONTINUOUS
 10
3.965280
 20
6.131840
  0
VERTEX
  8
0
 62
     1
  6
CONTINUOUS
 10
3.960440
 20
6.149440
  0
VERTEX
  8
0
 62
     1
  6
CONTINUOUS
 10
3.960440
 20
6.149000
  0
VERTEX
  8
0
 62
     1
  6
CONTINUOUS
 10
3.710080
 20
6.149000
  0
VERTEX
  8
0
 62
     1
  6
CONTINUOUS
 10
3.699080
 20
6.115120
  0
VERTEX
  8
0
 62
     1
  6
CONTINUOUS
 10
3.682800
 20
6.083880
  0
VERTEX
  8
0
 62
     1
  6
CONTINUOUS
 10
3.661680
 20
6.055720
  0
VERTEX
  8
0
 62
     1
  6
CONTINUOUS
 10
3.636160
 20
6.031080
  0
VERTEX
  8
0
 62
     1
  6
CONTINUOUS
 10
3.607120
 20
6.010840
  0
VERTEX
  8
0
 62
     1
  6
CONTINUOUS
 10
3.575000
 20
5.995440
  0
VERTEX
  8
0
 62
     1
  6
CONTINUOUS
 10
3.539800
 20
5.986200
  0
VERTEX
  8
0
 62
     1
  6
CONTINUOUS
 10
3.521760
 20
5.983560
  0
VERTEX
  8
0
 62
     1
  6
CONTINUOUS
 10
3.502840
 20
5.982680
  0
VERTEX
  8
0
 62
     1
  6
CONTINUOUS
 10
3.465440
 20
5.985760
  0
VERTEX
  8
0
 62
     1
  6
CONTINUOUS
 10
3.447840
 20
5.989720
  0
VERTEX
  8
0
 62
     1
  6
CONTINUOUS
 10
3.413960
 20
6.002040
  0
VERTEX
  8
0
 62
     1
  6
CONTINUOUS
 10
3.383160
 20
6.019640
  0
VERTEX
  8
0
 62
     1
  6
CONTINUOUS
 10
3.355880
 20
6.042080
  0
VERTEX
  8
0
 62
     1
  6
CONTINUOUS
 10
3.343560
 20
6.054400
  0
VERTEX
  8
0
 62
     1
  6
CONTINUOUS
 10
3.322440
 20
6.083000
  0
VERTEX
  8
0
 62
     1
  6
CONTINUOUS
 10
3.313640
 20
6.098400
  0
VERTEX
  8
0
 62
     1
  6
CONTINUOUS
 10
3.300440
 20
6.131400
  0
VERTEX
  8
0
 62
     1
  6
CONTINUOUS
 10
3.295600
 20
6.149000
  0
VERTEX
  8
0
 62
     1
  6
CONTINUOUS
 10
3.044800
 20
6.149000
  0
VERTEX
  8
0
 62
     1
  6
CONTINUOUS
 10
3.033800
 20
6.115120
  0
VERTEX
  8
0
 62
     1
  6
CONTINUOUS
 10
3.017520
 20
6.083880
  0
VERTEX
  8
0
 62
     1
  6
CONTINUOUS
 10
2.996400
 20
6.055720
  0
VERTEX
  8
0
 62
     1
  6
CONTINUOUS
 10
2.971320
 20
6.031080
  0
VERTEX
  8
0
 62
     1
  6
CONTINUOUS
 10
2.941840
 20
6.010840
  0
VERTEX
  8
0
 62
     1
  6
CONTINUOUS
 10
2.926440
 20
6.002480
  0
VERTEX
  8
0
 62
     1
  6
CONTINUOUS
 10
2.892560
 20
5.990160
  0
VERTEX
  8
0
 62
     1
  6
CONTINUOUS
 10
2.856480
 20
5.983560
  0
VERTEX
  8
0
 62
     1
  6
CONTINUOUS
 10
2.838000
 20
5.982680
  0
VERTEX
  8
0
 62
     1
  6
CONTINUOUS
 10
2.800600
 20
5.985760
  0
VERTEX
  8
0
 62
     1
  6
CONTINUOUS
 10
2.783000
 20
5.989720
  0
VERTEX
  8
0
 62
     1
  6
CONTINUOUS
 10
2.749120
 20
6.002040
  0
VERTEX
  8
0
 62
     1
  6
CONTINUOUS
 10
2.718320
 20
6.019640
  0
VERTEX
  8
0
 62
     1
  6
CONTINUOUS
 10
2.690600
 20
6.042080
  0
VERTEX
  8
0
 62
     1
  6
CONTINUOUS
 10
2.667720
 20
6.068480
  0
VERTEX
  8
0
 62
     1
  6
CONTINUOUS
 10
2.648800
 20
6.098400
  0
VERTEX
  8
0
 62
     1
  6
CONTINUOUS
 10
2.635160
 20
6.131840
  0
VERTEX
  8
0
 62
     1
  6
CONTINUOUS
 10
2.630760
 20
6.149440
  0
VERTEX
  8
0
 62
     1
  6
CONTINUOUS
 10
2.630760
 20
6.149000
  0
VERTEX
  8
0
 62
     1
  6
CONTINUOUS
 10
2.379960
 20
6.149000
  0
VERTEX
  8
0
 62
     1
  6
CONTINUOUS
 10
2.368960
 20
6.115120
  0
VERTEX
  8
0
 62
     1
  6
CONTINUOUS
 10
2.352680
 20
6.083880
  0
VERTEX
  8
0
 62
     1
  6
CONTINUOUS
 10
2.331560
 20
6.055720
  0
VERTEX
  8
0
 62
     1
  6
CONTINUOUS
 10
2.306480
 20
6.031080
  0
VERTEX
  8
0
 62
     1
  6
CONTINUOUS
 10
2.277000
 20
6.010840
  0
VERTEX
  8
0
 62
     1
  6
CONTINUOUS
 10
2.261600
 20
6.002480
  0
VERTEX
  8
0
 62
     1
  6
CONTINUOUS
 10
2.227720
 20
5.990160
  0
VERTEX
  8
0
 62
     1
  6
CONTINUOUS
 10
2.191640
 20
5.983560
  0
VERTEX
  8
0
 62
     1
  6
CONTINUOUS
 10
2.173160
 20
5.982680
  0
VERTEX
  8
0
 62
     1
  6
CONTINUOUS
 10
2.135760
 20
5.985760
  0
VERTEX
  8
0
 62
     1
  6
CONTINUOUS
 10
2.118160
 20
5.989720
  0
VERTEX
  8
0
 62
     1
  6
CONTINUOUS
 10
2.084280
 20
6.002040
  0
VERTEX
  8
0
 62
     1
  6
CONTINUOUS
 10
2.053480
 20
6.019640
  0
VERTEX
  8
0
 62
     1
  6
CONTINUOUS
 10
2.025760
 20
6.042080
  0
VERTEX
  8
0
 62
     1
  6
CONTINUOUS
 10
2.002880
 20
6.068480
  0
VERTEX
  8
0
 62
     1
  6
CONTINUOUS
 10
1.983960
 20
6.098400
  0
VERTEX
  8
0
 62
     1
  6
CONTINUOUS
 10
1.970320
 20
6.131840
  0
VERTEX
  8
0
 62
     1
  6
CONTINUOUS
 10
1.965920
 20
6.149440
  0
VERTEX
  8
0
 62
     1
  6
CONTINUOUS
 10
1.965920
 20
6.149000
  0
VERTEX
  8
0
 62
     1
  6
CONTINUOUS
 10
1.715120
 20
6.149000
  0
VERTEX
  8
0
 62
     1
  6
CONTINUOUS
 10
1.715120
 20
5.402760
  0
VERTEX
  8
0
 62
     1
  6
CONTINUOUS
 10
6.625520
 20
5.402760
  0
VERTEX
  8
0
 62
     1
  6
CONTINUOUS
 10
6.625520
 20
6.150320
  0
VERTEX
  8
0
 62
     1
  6
CONTINUOUS
 10
6.622440
 20
6.149000
  0
SEQEND
  8
0
  0
TEXT
  8
0
 10
3.829320
 20
5.685680
 40
0.138143
  1
BA  1170
 41
1.000000
  7
SN0
 71
     0
 72
     5
 11
4.513056
 21
5.685680
  0
TEXT
  8
0
 10
3.627360
 20
5.494280
 40
0.138143
  1
3/4" x 4-15/16"
 41
1.000000
  7
SN0
 71
     0
 72
     5
 11
4.714363
 21
5.494280
  0
SOLID
  8
0
 62
    15
 10
4.141280
 20
3.917320
 11
4.142160
 21
4.651680
 12
4.176040
 22
3.927000
 13
4.176920
 23
4.661360
  0
POLYLINE
  8
0
 62
     1
  6
CONTINUOUS
 66
     1
 40
0.000000
 41
0.000000
  0
VERTEX
  8
0
 62
     1
  6
CONTINUOUS
 10
4.141280
 20
3.917320
  0
VERTEX
  8
0
 62
     1
  6
CONTINUOUS
 10
4.142160
 20
4.651680
  0
VERTEX
  8
0
 62
     1
  6
CONTINUOUS
 10
4.176920
 20
4.661360
  0
VERTEX
  8
0
 62
     1
  6
CONTINUOUS
 10
4.176040
 20
3.927000
  0
VERTEX
  8
0
 62
     1
  6
CONTINUOUS
 10
4.141280
 20
3.917320
  0
SEQEND
  8
0
  0
SOLID
  8
0
 62
    15
 10
1.651760
 20
4.080120
 11
1.652640
 21
4.814480
 12
1.902120
 22
4.080120
 13
1.903000
 23
4.814480
  0
POLYLINE
  8
0
 62
     1
  6
CONTINUOUS
 66
     1
 40
0.000000
 41
0.000000
  0
VERTEX
  8
0
 62
     1
  6
CONTINUOUS
 10
1.651760
 20
4.080120
  0
VERTEX
  8
0
 62
     1
  6
CONTINUOUS
 10
1.652640
 20
4.814480
  0
VERTEX
  8
0
 62
     1
  6
CONTINUOUS
 10
1.903000
 20
4.814480
  0
VERTEX
  8
0
 62
     1
  6
CONTINUOUS
 10
1.902120
 20
4.080120
  0
VERTEX
  8
0
 62
     1
  6
CONTINUOUS
 10
1.651760
 20
4.080120
  0
SEQEND
  8
0
  0
SOLID
  8
0
 62
    15
 10
1.902120
 20
4.080120
 11
1.903000
 21
4.814480
 12
1.912680
 22
4.046240
 13
1.913560
 23
4.780600
  0
POLYLINE
  8
0
 62
     1
  6
CONTINUOUS
 66
     1
 40
0.000000
 41
0.000000
  0
VERTEX
  8
0
 62
     1
  6
CONTINUOUS
 10
1.902120
 20
4.080120
  0
VERTEX
  8
0
 62
     1
  6
CONTINUOUS
 10
1.903000
 20
4.814480
  0
VERTEX
  8
0
 62
     1
  6
CONTINUOUS
 10
1.913560
 20
4.780600
  0
VERTEX
  8
0
 62
     1
  6
CONTINUOUS
 10
1.912680
 20
4.046240
  0
VERTEX
  8
0
 62
     1
  6
CONTINUOUS
 10
1.902120
 20
4.080120
  0
SEQEND
  8
0
  0
SOLID
  8
0
 62
    15
 10
1.912680
 20
4.046240
 11
1.913560
 21
4.780600
 12
1.928960
 22
4.014560
 13
1.929840
 23
4.748920
  0
POLYLINE
  8
0
 62
     1
  6
CONTINUOUS
 66
     1
 40
0.000000
 41
0.000000
  0
VERTEX
  8
0
 62
     1
  6
CONTINUOUS
 10
1.912680
 20
4.046240
  0
VERTEX
  8
0
 62
     1
  6
CONTINUOUS
 10
1.913560
 20
4.780600
  0
VERTEX
  8
0
 62
     1
  6
CONTINUOUS
 10
1.929840
 20
4.748920
  0
VERTEX
  8
0
 62
     1
  6
CONTINUOUS
 10
1.928960
 20
4.014560
  0
VERTEX
  8
0
 62
     1
  6
CONTINUOUS
 10
1.912680
 20
4.046240
  0
SEQEND
  8
0
  0
SOLID
  8
0
 62
    15
 10
1.928960
 20
4.014560
 11
1.929840
 21
4.748920
 12
1.950080
 22
3.985960
 13
1.950960
 23
4.720320
  0
POLYLINE
  8
0
 62
     1
  6
CONTINUOUS
 66
     1
 40
0.000000
 41
0.000000
  0
VERTEX
  8
0
 62
     1
  6
CONTINUOUS
 10
1.928960
 20
4.014560
  0
VERTEX
  8
0
 62
     1
  6
CONTINUOUS
 10
1.929840
 20
4.748920
  0
VERTEX
  8
0
 62
     1
  6
CONTINUOUS
 10
1.950960
 20
4.720320
  0
VERTEX
  8
0
 62
     1
  6
CONTINUOUS
 10
1.950080
 20
3.985960
  0
VERTEX
  8
0
 62
     1
  6
CONTINUOUS
 10
1.928960
 20
4.014560
  0
SEQEND
  8
0
  0
SOLID
  8
0
 62
    15
 10
1.950080
 20
3.985960
 11
1.950960
 21
4.720320
 12
1.975600
 22
3.961760
 13
1.976480
 23
4.696120
  0
POLYLINE
  8
0
 62
     1
  6
CONTINUOUS
 66
     1
 40
0.000000
 41
0.000000
  0
VERTEX
  8
0
 62
     1
  6
CONTINUOUS
 10
1.950080
 20
3.985960
  0
VERTEX
  8
0
 62
     1
  6
CONTINUOUS
 10
1.950960
 20
4.720320
  0
VERTEX
  8
0
 62
     1
  6
CONTINUOUS
 10
1.976480
 20
4.696120
  0
VERTEX
  8
0
 62
     1
  6
CONTINUOUS
 10
1.975600
 20
3.961760
  0
VERTEX
  8
0
 62
     1
  6
CONTINUOUS
 10
1.950080
 20
3.985960
  0
SEQEND
  8
0
  0
SOLID
  8
0
 62
    15
 10
1.975600
 20
3.961760
 11
1.976480
 21
4.696120
 12
2.004640
 22
3.941520
 13
2.005520
 23
4.675880
  0
POLYLINE
  8
0
 62
     1
  6
CONTINUOUS
 66
     1
 40
0.000000
 41
0.000000
  0
VERTEX
  8
0
 62
     1
  6
CONTINUOUS
 10
1.975600
 20
3.961760
  0
VERTEX
  8
0
 62
     1
  6
CONTINUOUS
 10
1.976480
 20
4.696120
  0
VERTEX
  8
0
 62
     1
  6
CONTINUOUS
 10
2.005520
 20
4.675880
  0
VERTEX
  8
0
 62
     1
  6
CONTINUOUS
 10
2.004640
 20
3.941520
  0
VERTEX
  8
0
 62
     1
  6
CONTINUOUS
 10
1.975600
 20
3.961760
  0
SEQEND
  8
0
  0
SOLID
  8
0
 62
    15
 10
2.004640
 20
3.941520
 11
2.005520
 21
4.675880
 12
2.037200
 22
3.926560
 13
2.038080
 23
4.660920
  0
POLYLINE
  8
0
 62
     1
  6
CONTINUOUS
 66
     1
 40
0.000000
 41
0.000000
  0
VERTEX
  8
0
 62
     1
  6
CONTINUOUS
 10
2.004640
 20
3.941520
  0
VERTEX
  8
0
 62
     1
  6
CONTINUOUS
 10
2.005520
 20
4.675880
  0
VERTEX
  8
0
 62
     1
  6
CONTINUOUS
 10
2.038080
 20
4.660920
  0
VERTEX
  8
0
 62
     1
  6
CONTINUOUS
 10
2.037200
 20
3.926560
  0
VERTEX
  8
0
 62
     1
  6
CONTINUOUS
 10
2.004640
 20
3.941520
  0
SEQEND
  8
0
  0
SOLID
  8
0
 62
    15
 10
2.037200
 20
3.926560
 11
2.038080
 21
4.660920
 12
2.071960
 22
3.917320
 13
2.073280
 23
4.651680
  0
POLYLINE
  8
0
 62
     1
  6
CONTINUOUS
 66
     1
 40
0.000000
 41
0.000000
  0
VERTEX
  8
0
 62
     1
  6
CONTINUOUS
 10
2.037200
 20
3.926560
  0
VERTEX
  8
0
 62
     1
  6
CONTINUOUS
 10
2.038080
 20
4.660920
  0
VERTEX
  8
0
 62
     1
  6
CONTINUOUS
 10
2.073280
 20
4.651680
  0
VERTEX
  8
0
 62
     1
  6
CONTINUOUS
 10
2.071960
 20
3.917320
  0
VERTEX
  8
0
 62
     1
  6
CONTINUOUS
 10
2.037200
 20
3.926560
  0
SEQEND
  8
0
  0
SOLID
  8
0
 62
    15
 10
2.071960
 20
3.917320
 11
2.073280
 21
4.651680
 12
2.109360
 22
3.914240
 13
2.110240
 23
4.648600
  0
POLYLINE
  8
0
 62
     1
  6
CONTINUOUS
 66
     1
 40
0.000000
 41
0.000000
  0
VERTEX
  8
0
 62
     1
  6
CONTINUOUS
 10
2.071960
 20
3.917320
  0
VERTEX
  8
0
 62
     1
  6
CONTINUOUS
 10
2.073280
 20
4.651680
  0
VERTEX
  8
0
 62
     1
  6
CONTINUOUS
 10
2.110240
 20
4.648600
  0
VERTEX
  8
0
 62
     1
  6
CONTINUOUS
 10
2.109360
 20
3.914240
  0
VERTEX
  8
0
 62
     1
  6
CONTINUOUS
 10
2.071960
 20
3.917320
  0
SEQEND
  8
0
  0
SOLID
  8
0
 62
    15
 10
2.109360
 20
3.914240
 11
2.110240
 21
4.648600
 12
2.146320
 22
3.917320
 13
2.147200
 23
4.651680
  0
POLYLINE
  8
0
 62
     1
  6
CONTINUOUS
 66
     1
 40
0.000000
 41
0.000000
  0
VERTEX
  8
0
 62
     1
  6
CONTINUOUS
 10
2.109360
 20
3.914240
  0
VERTEX
  8
0
 62
     1
  6
CONTINUOUS
 10
2.110240
 20
4.648600
  0
VERTEX
  8
0
 62
     1
  6
CONTINUOUS
 10
2.147200
 20
4.651680
  0
VERTEX
  8
0
 62
     1
  6
CONTINUOUS
 10
2.146320
 20
3.917320
  0
VERTEX
  8
0
 62
     1
  6
CONTINUOUS
 10
2.109360
 20
3.914240
  0
SEQEND
  8
0
  0
SOLID
  8
0
 62
    15
 10
2.146320
 20
3.917320
 11
2.147200
 21
4.651680
 12
2.181080
 22
3.927000
 13
2.182400
 23
4.661360
  0
POLYLINE
  8
0
 62
     1
  6
CONTINUOUS
 66
     1
 40
0.000000
 41
0.000000
  0
VERTEX
  8
0
 62
     1
  6
CONTINUOUS
 10
2.146320
 20
3.917320
  0
VERTEX
  8
0
 62
     1
  6
CONTINUOUS
 10
2.147200
 20
4.651680
  0
VERTEX
  8
0
 62
     1
  6
CONTINUOUS
 10
2.182400
 20
4.661360
  0
VERTEX
  8
0
 62
     1
  6
CONTINUOUS
 10
2.181080
 20
3.927000
  0
VERTEX
  8
0
 62
     1
  6
CONTINUOUS
 10
2.146320
 20
3.917320
  0
SEQEND
  8
0
  0
SOLID
  8
0
 62
    15
 10
2.181080
 20
3.927000
 11
2.182400
 21
4.661360
 12
2.213640
 22
3.942400
 13
2.214520
 23
4.676760
  0
POLYLINE
  8
0
 62
     1
  6
CONTINUOUS
 66
     1
 40
0.000000
 41
0.000000
  0
VERTEX
  8
0
 62
     1
  6
CONTINUOUS
 10
2.181080
 20
3.927000
  0
VERTEX
  8
0
 62
     1
  6
CONTINUOUS
 10
2.182400
 20
4.661360
  0
VERTEX
  8
0
 62
     1
  6
CONTINUOUS
 10
2.214520
 20
4.676760
  0
VERTEX
  8
0
 62
     1
  6
CONTINUOUS
 10
2.213640
 20
3.942400
  0
VERTEX
  8
0
 62
     1
  6
CONTINUOUS
 10
2.181080
 20
3.927000
  0
SEQEND
  8
0
  0
SOLID
  8
0
 62
    15
 10
2.213640
 20
3.942400
 11
2.214520
 21
4.676760
 12
2.242680
 22
3.962640
 13
2.243560
 23
4.697000
  0
POLYLINE
  8
0
 62
     1
  6
CONTINUOUS
 66
     1
 40
0.000000
 41
0.000000
  0
VERTEX
  8
0
 62
     1
  6
CONTINUOUS
 10
2.213640
 20
3.942400
  0
VERTEX
  8
0
 62
     1
  6
CONTINUOUS
 10
2.214520
 20
4.676760
  0
VERTEX
  8
0
 62
     1
  6
CONTINUOUS
 10
2.243560
 20
4.697000
  0
VERTEX
  8
0
 62
     1
  6
CONTINUOUS
 10
2.242680
 20
3.962640
  0
VERTEX
  8
0
 62
     1
  6
CONTINUOUS
 10
2.213640
 20
3.942400
  0
SEQEND
  8
0
  0
SOLID
  8
0
 62
    15
 10
2.242680
 20
3.962640
 11
2.243560
 21
4.697000
 12
2.268200
 22
3.987280
 13
2.269080
 23
4.721640
  0
POLYLINE
  8
0
 62
     1
  6
CONTINUOUS
 66
     1
 40
0.000000
 41
0.000000
  0
VERTEX
  8
0
 62
     1
  6
CONTINUOUS
 10
2.242680
 20
3.962640
  0
VERTEX
  8
0
 62
     1
  6
CONTINUOUS
 10
2.243560
 20
4.697000
  0
VERTEX
  8
0
 62
     1
  6
CONTINUOUS
 10
2.269080
 20
4.721640
  0
VERTEX
  8
0
 62
     1
  6
CONTINUOUS
 10
2.268200
 20
3.987280
  0
VERTEX
  8
0
 62
     1
  6
CONTINUOUS
 10
2.242680
 20
3.962640
  0
SEQEND
  8
0
  0
SOLID
  8
0
 62
    15
 10
2.268200
 20
3.987280
 11
2.269080
 21
4.721640
 12
2.289320
 22
4.015440
 13
2.290200
 23
4.749800
  0
POLYLINE
  8
0
 62
     1
  6
CONTINUOUS
 66
     1
 40
0.000000
 41
0.000000
  0
VERTEX
  8
0
 62
     1
  6
CONTINUOUS
 10
2.268200
 20
3.987280
  0
VERTEX
  8
0
 62
     1
  6
CONTINUOUS
 10
2.269080
 20
4.721640
  0
VERTEX
  8
0
 62
     1
  6
CONTINUOUS
 10
2.290200
 20
4.749800
  0
VERTEX
  8
0
 62
     1
  6
CONTINUOUS
 10
2.289320
 20
4.015440
  0
VERTEX
  8
0
 62
     1
  6
CONTINUOUS
 10
2.268200
 20
3.987280
  0
SEQEND
  8
0
  0
SOLID
  8
0
 62
    15
 10
2.289320
 20
4.015440
 11
2.290200
 21
4.749800
 12
2.305600
 22
4.046680
 13
2.306480
 23
4.781040
  0
POLYLINE
  8
0
 62
     1
  6
CONTINUOUS
 66
     1
 40
0.000000
 41
0.000000
  0
VERTEX
  8
0
 62
     1
  6
CONTINUOUS
 10
2.289320
 20
4.015440
  0
VERTEX
  8
0
 62
     1
  6
CONTINUOUS
 10
2.290200
 20
4.749800
  0
VERTEX
  8
0
 62
     1
  6
CONTINUOUS
 10
2.306480
 20
4.781040
  0
VERTEX
  8
0
 62
     1
  6
CONTINUOUS
 10
2.305600
 20
4.046680
  0
VERTEX
  8
0
 62
     1
  6
CONTINUOUS
 10
2.289320
 20
4.015440
  0
SEQEND
  8
0
  0
SOLID
  8
0
 62
    15
 10
2.305600
 20
4.046680
 11
2.306480
 21
4.781040
 12
2.316160
 22
4.080560
 13
2.317480
 23
4.814920
  0
POLYLINE
  8
0
 62
     1
  6
CONTINUOUS
 66
     1
 40
0.000000
 41
0.000000
  0
VERTEX
  8
0
 62
     1
  6
CONTINUOUS
 10
2.305600
 20
4.046680
  0
VERTEX
  8
0
 62
     1
  6
CONTINUOUS
 10
2.306480
 20
4.781040
  0
VERTEX
  8
0
 62
     1
  6
CONTINUOUS
 10
2.317480
 20
4.814920
  0
VERTEX
  8
0
 62
     1
  6
CONTINUOUS
 10
2.316160
 20
4.080560
  0
VERTEX
  8
0
 62
     1
  6
CONTINUOUS
 10
2.305600
 20
4.046680
  0
SEQEND
  8
0
  0
SOLID
  8
0
 62
    15
 10
2.316160
 20
4.080560
 11
2.317480
 21
4.814920
 12
2.566960
 22
4.080560
 13
2.567840
 23
4.814920
  0
POLYLINE
  8
0
 62
     1
  6
CONTINUOUS
 66
     1
 40
0.000000
 41
0.000000
  0
VERTEX
  8
0
 62
     1
  6
CONTINUOUS
 10
2.316160
 20
4.080560
  0
VERTEX
  8
0
 62
     1
  6
CONTINUOUS
 10
2.317480
 20
4.814920
  0
VERTEX
  8
0
 62
     1
  6
CONTINUOUS
 10
2.567840
 20
4.814920
  0
VERTEX
  8
0
 62
     1
  6
CONTINUOUS
 10
2.566960
 20
4.080560
  0
VERTEX
  8
0
 62
     1
  6
CONTINUOUS
 10
2.316160
 20
4.080560
  0
SEQEND
  8
0
  0
SOLID
  8
0
 62
    15
 10
2.566960
 20
4.080560
 11
2.567840
 21
4.814920
 12
2.577520
 22
4.046240
 13
2.578400
 23
4.780600
  0
POLYLINE
  8
0
 62
     1
  6
CONTINUOUS
 66
     1
 40
0.000000
 41
0.000000
  0
VERTEX
  8
0
 62
     1
  6
CONTINUOUS
 10
2.566960
 20
4.080560
  0
VERTEX
  8
0
 62
     1
  6
CONTINUOUS
 10
2.567840
 20
4.814920
  0
VERTEX
  8
0
 62
     1
  6
CONTINUOUS
 10
2.578400
 20
4.780600
  0
VERTEX
  8
0
 62
     1
  6
CONTINUOUS
 10
2.577520
 20
4.046240
  0
VERTEX
  8
0
 62
     1
  6
CONTINUOUS
 10
2.566960
 20
4.080560
  0
SEQEND
  8
0
  0
SOLID
  8
0
 62
    15
 10
2.577520
 20
4.046240
 11
2.578400
 21
4.780600
 12
2.593800
 22
4.014560
 13
2.594680
 23
4.748920
  0
POLYLINE
  8
0
 62
     1
  6
CONTINUOUS
 66
     1
 40
0.000000
 41
0.000000
  0
VERTEX
  8
0
 62
     1
  6
CONTINUOUS
 10
2.577520
 20
4.046240
  0
VERTEX
  8
0
 62
     1
  6
CONTINUOUS
 10
2.578400
 20
4.780600
  0
VERTEX
  8
0
 62
     1
  6
CONTINUOUS
 10
2.594680
 20
4.748920
  0
VERTEX
  8
0
 62
     1
  6
CONTINUOUS
 10
2.593800
 20
4.014560
  0
VERTEX
  8
0
 62
     1
  6
CONTINUOUS
 10
2.577520
 20
4.046240
  0
SEQEND
  8
0
  0
SOLID
  8
0
 62
    15
 10
2.593800
 20
4.014560
 11
2.594680
 21
4.748920
 12
2.614920
 22
3.985960
 13
2.615800
 23
4.720320
  0
POLYLINE
  8
0
 62
     1
  6
CONTINUOUS
 66
     1
 40
0.000000
 41
0.000000
  0
VERTEX
  8
0
 62
     1
  6
CONTINUOUS
 10
2.593800
 20
4.014560
  0
VERTEX
  8
0
 62
     1
  6
CONTINUOUS
 10
2.594680
 20
4.748920
  0
VERTEX
  8
0
 62
     1
  6
CONTINUOUS
 10
2.615800
 20
4.720320
  0
VERTEX
  8
0
 62
     1
  6
CONTINUOUS
 10
2.614920
 20
3.985960
  0
VERTEX
  8
0
 62
     1
  6
CONTINUOUS
 10
2.593800
 20
4.014560
  0
SEQEND
  8
0
  0
SOLID
  8
0
 62
    15
 10
2.614920
 20
3.985960
 11
2.615800
 21
4.720320
 12
2.640440
 22
3.961760
 13
2.641320
 23
4.696120
  0
POLYLINE
  8
0
 62
     1
  6
CONTINUOUS
 66
     1
 40
0.000000
 41
0.000000
  0
VERTEX
  8
0
 62
     1
  6
CONTINUOUS
 10
2.614920
 20
3.985960
  0
VERTEX
  8
0
 62
     1
  6
CONTINUOUS
 10
2.615800
 20
4.720320
  0
VERTEX
  8
0
 62
     1
  6
CONTINUOUS
 10
2.641320
 20
4.696120
  0
VERTEX
  8
0
 62
     1
  6
CONTINUOUS
 10
2.640440
 20
3.961760
  0
VERTEX
  8
0
 62
     1
  6
CONTINUOUS
 10
2.614920
 20
3.985960
  0
SEQEND
  8
0
  0
SOLID
  8
0
 62
    15
 10
2.640440
 20
3.961760
 11
2.641320
 21
4.696120
 12
2.669480
 22
3.941520
 13
2.670360
 23
4.675880
  0
POLYLINE
  8
0
 62
     1
  6
CONTINUOUS
 66
     1
 40
0.000000
 41
0.000000
  0
VERTEX
  8
0
 62
     1
  6
CONTINUOUS
 10
2.640440
 20
3.961760
  0
VERTEX
  8
0
 62
     1
  6
CONTINUOUS
 10
2.641320
 20
4.696120
  0
VERTEX
  8
0
 62
     1
  6
CONTINUOUS
 10
2.670360
 20
4.675880
  0
VERTEX
  8
0
 62
     1
  6
CONTINUOUS
 10
2.669480
 20
3.941520
  0
VERTEX
  8
0
 62
     1
  6
CONTINUOUS
 10
2.640440
 20
3.961760
  0
SEQEND
  8
0
  0
SOLID
  8
0
 62
    15
 10
2.669480
 20
3.941520
 11
2.670360
 21
4.675880
 12
2.702040
 22
3.926560
 13
2.702920
 23
4.660920
  0
POLYLINE
  8
0
 62
     1
  6
CONTINUOUS
 66
     1
 40
0.000000
 41
0.000000
  0
VERTEX
  8
0
 62
     1
  6
CONTINUOUS
 10
2.669480
 20
3.941520
  0
VERTEX
  8
0
 62
     1
  6
CONTINUOUS
 10
2.670360
 20
4.675880
  0
VERTEX
  8
0
 62
     1
  6
CONTINUOUS
 10
2.702920
 20
4.660920
  0
VERTEX
  8
0
 62
     1
  6
CONTINUOUS
 10
2.702040
 20
3.926560
  0
VERTEX
  8
0
 62
     1
  6
CONTINUOUS
 10
2.669480
 20
3.941520
  0
SEQEND
  8
0
  0
SOLID
  8
0
 62
    15
 10
2.702040
 20
3.926560
 11
2.702920
 21
4.660920
 12
2.737240
 22
3.917320
 13
2.738120
 23
4.651680
  0
POLYLINE
  8
0
 62
     1
  6
CONTINUOUS
 66
     1
 40
0.000000
 41
0.000000
  0
VERTEX
  8
0
 62
     1
  6
CONTINUOUS
 10
2.702040
 20
3.926560
  0
VERTEX
  8
0
 62
     1
  6
CONTINUOUS
 10
2.702920
 20
4.660920
  0
VERTEX
  8
0
 62
     1
  6
CONTINUOUS
 10
2.738120
 20
4.651680
  0
VERTEX
  8
0
 62
     1
  6
CONTINUOUS
 10
2.737240
 20
3.917320
  0
VERTEX
  8
0
 62
     1
  6
CONTINUOUS
 10
2.702040
 20
3.926560
  0
SEQEND
  8
0
  0
SOLID
  8
0
 62
    15
 10
2.737240
 20
3.917320
 11
2.738120
 21
4.651680
 12
2.774200
 22
3.913800
 13
2.775080
 23
4.648160
  0
POLYLINE
  8
0
 62
     1
  6
CONTINUOUS
 66
     1
 40
0.000000
 41
0.000000
  0
VERTEX
  8
0
 62
     1
  6
CONTINUOUS
 10
2.737240
 20
3.917320
  0
VERTEX
  8
0
 62
     1
  6
CONTINUOUS
 10
2.738120
 20
4.651680
  0
VERTEX
  8
0
 62
     1
  6
CONTINUOUS
 10
2.775080
 20
4.648160
  0
VERTEX
  8
0
 62
     1
  6
CONTINUOUS
 10
2.774200
 20
3.913800
  0
VERTEX
  8
0
 62
     1
  6
CONTINUOUS
 10
2.737240
 20
3.917320
  0
SEQEND
  8
0
  0
SOLID
  8
0
 62
    15
 10
2.774200
 20
3.913800
 11
2.775080
 21
4.648160
 12
2.811160
 22
3.917320
 13
2.812040
 23
4.651680
  0
POLYLINE
  8
0
 62
     1
  6
CONTINUOUS
 66
     1
 40
0.000000
 41
0.000000
  0
VERTEX
  8
0
 62
     1
  6
CONTINUOUS
 10
2.774200
 20
3.913800
  0
VERTEX
  8
0
 62
     1
  6
CONTINUOUS
 10
2.775080
 20
4.648160
  0
VERTEX
  8
0
 62
     1
  6
CONTINUOUS
 10
2.812040
 20
4.651680
  0
VERTEX
  8
0
 62
     1
  6
CONTINUOUS
 10
2.811160
 20
3.917320
  0
VERTEX
  8
0
 62
     1
  6
CONTINUOUS
 10
2.774200
 20
3.913800
  0
SEQEND
  8
0
  0
SOLID
  8
0
 62
    15
 10
2.811160
 20
3.917320
 11
2.812040
 21
4.651680
 12
2.846360
 22
3.927000
 13
2.847240
 23
4.661360
  0
POLYLINE
  8
0
 62
     1
  6
CONTINUOUS
 66
     1
 40
0.000000
 41
0.000000
  0
VERTEX
  8
0
 62
     1
  6
CONTINUOUS
 10
2.811160
 20
3.917320
  0
VERTEX
  8
0
 62
     1
  6
CONTINUOUS
 10
2.812040
 20
4.651680
  0
VERTEX
  8
0
 62
     1
  6
CONTINUOUS
 10
2.847240
 20
4.661360
  0
VERTEX
  8
0
 62
     1
  6
CONTINUOUS
 10
2.846360
 20
3.927000
  0
VERTEX
  8
0
 62
     1
  6
CONTINUOUS
 10
2.811160
 20
3.917320
  0
SEQEND
  8
0
  0
SOLID
  8
0
 62
    15
 10
2.846360
 20
3.927000
 11
2.847240
 21
4.661360
 12
2.878480
 22
3.942400
 13
2.879360
 23
4.676760
  0
POLYLINE
  8
0
 62
     1
  6
CONTINUOUS
 66
     1
 40
0.000000
 41
0.000000
  0
VERTEX
  8
0
 62
     1
  6
CONTINUOUS
 10
2.846360
 20
3.927000
  0
VERTEX
  8
0
 62
     1
  6
CONTINUOUS
 10
2.847240
 20
4.661360
  0
VERTEX
  8
0
 62
     1
  6
CONTINUOUS
 10
2.879360
 20
4.676760
  0
VERTEX
  8
0
 62
     1
  6
CONTINUOUS
 10
2.878480
 20
3.942400
  0
VERTEX
  8
0
 62
     1
  6
CONTINUOUS
 10
2.846360
 20
3.927000
  0
SEQEND
  8
0
  0
SOLID
  8
0
 62
    15
 10
2.878480
 20
3.942400
 11
2.879360
 21
4.676760
 12
2.907520
 22
3.962640
 13
2.908400
 23
4.697000
  0
POLYLINE
  8
0
 62
     1
  6
CONTINUOUS
 66
     1
 40
0.000000
 41
0.000000
  0
VERTEX
  8
0
 62
     1
  6
CONTINUOUS
 10
2.878480
 20
3.942400
  0
VERTEX
  8
0
 62
     1
  6
CONTINUOUS
 10
2.879360
 20
4.676760
  0
VERTEX
  8
0
 62
     1
  6
CONTINUOUS
 10
2.908400
 20
4.697000
  0
VERTEX
  8
0
 62
     1
  6
CONTINUOUS
 10
2.907520
 20
3.962640
  0
VERTEX
  8
0
 62
     1
  6
CONTINUOUS
 10
2.878480
 20
3.942400
  0
SEQEND
  8
0
  0
SOLID
  8
0
 62
    15
 10
2.907520
 20
3.962640
 11
2.908400
 21
4.697000
 12
2.933040
 22
3.986840
 13
2.933920
 23
4.721640
  0
POLYLINE
  8
0
 62
     1
  6
CONTINUOUS
 66
     1
 40
0.000000
 41
0.000000
  0
VERTEX
  8
0
 62
     1
  6
CONTINUOUS
 10
2.907520
 20
3.962640
  0
VERTEX
  8
0
 62
     1
  6
CONTINUOUS
 10
2.908400
 20
4.697000
  0
VERTEX
  8
0
 62
     1
  6
CONTINUOUS
 10
2.933920
 20
4.721640
  0
VERTEX
  8
0
 62
     1
  6
CONTINUOUS
 10
2.933040
 20
3.986840
  0
VERTEX
  8
0
 62
     1
  6
CONTINUOUS
 10
2.907520
 20
3.962640
  0
SEQEND
  8
0
  0
SOLID
  8
0
 62
    15
 10
2.933040
 20
3.986840
 11
2.933920
 21
4.721640
 12
2.954160
 22
4.015440
 13
2.955040
 23
4.749800
  0
POLYLINE
  8
0
 62
     1
  6
CONTINUOUS
 66
     1
 40
0.000000
 41
0.000000
  0
VERTEX
  8
0
 62
     1
  6
CONTINUOUS
 10
2.933040
 20
3.986840
  0
VERTEX
  8
0
 62
     1
  6
CONTINUOUS
 10
2.933920
 20
4.721640
  0
VERTEX
  8
0
 62
     1
  6
CONTINUOUS
 10
2.955040
 20
4.749800
  0
VERTEX
  8
0
 62
     1
  6
CONTINUOUS
 10
2.954160
 20
4.015440
  0
VERTEX
  8
0
 62
     1
  6
CONTINUOUS
 10
2.933040
 20
3.986840
  0
SEQEND
  8
0
  0
SOLID
  8
0
 62
    15
 10
2.954160
 20
4.015440
 11
2.955040
 21
4.749800
 12
2.970440
 22
4.046680
 13
2.971320
 23
4.781040
  0
POLYLINE
  8
0
 62
     1
  6
CONTINUOUS
 66
     1
 40
0.000000
 41
0.000000
  0
VERTEX
  8
0
 62
     1
  6
CONTINUOUS
 10
2.954160
 20
4.015440
  0
VERTEX
  8
0
 62
     1
  6
CONTINUOUS
 10
2.955040
 20
4.749800
  0
VERTEX
  8
0
 62
     1
  6
CONTINUOUS
 10
2.971320
 20
4.781040
  0
VERTEX
  8
0
 62
     1
  6
CONTINUOUS
 10
2.970440
 20
4.046680
  0
VERTEX
  8
0
 62
     1
  6
CONTINUOUS
 10
2.954160
 20
4.015440
  0
SEQEND
  8
0
  0
SOLID
  8
0
 62
    15
 10
2.970440
 20
4.046680
 11
2.971320
 21
4.781040
 12
2.981440
 22
4.080560
 13
2.982320
 23
4.814920
  0
POLYLINE
  8
0
 62
     1
  6
CONTINUOUS
 66
     1
 40
0.000000
 41
0.000000
  0
VERTEX
  8
0
 62
     1
  6
CONTINUOUS
 10
2.970440
 20
4.046680
  0
VERTEX
  8
0
 62
     1
  6
CONTINUOUS
 10
2.971320
 20
4.781040
  0
VERTEX
  8
0
 62
     1
  6
CONTINUOUS
 10
2.982320
 20
4.814920
  0
VERTEX
  8
0
 62
     1
  6
CONTINUOUS
 10
2.981440
 20
4.080560
  0
VERTEX
  8
0
 62
     1
  6
CONTINUOUS
 10
2.970440
 20
4.046680
  0
SEQEND
  8
0
  0
SOLID
  8
0
 62
    15
 10
2.981440
 20
4.080560
 11
2.982320
 21
4.814920
 12
3.231800
 22
4.080560
 13
3.232680
 23
4.814920
  0
POLYLINE
  8
0
 62
     1
  6
CONTINUOUS
 66
     1
 40
0.000000
 41
0.000000
  0
VERTEX
  8
0
 62
     1
  6
CONTINUOUS
 10
2.981440
 20
4.080560
  0
VERTEX
  8
0
 62
     1
  6
CONTINUOUS
 10
2.982320
 20
4.814920
  0
VERTEX
  8
0
 62
     1
  6
CONTINUOUS
 10
3.232680
 20
4.814920
  0
VERTEX
  8
0
 62
     1
  6
CONTINUOUS
 10
3.231800
 20
4.080560
  0
VERTEX
  8
0
 62
     1
  6
CONTINUOUS
 10
2.981440
 20
4.080560
  0
SEQEND
  8
0
  0
SOLID
  8
0
 62
    15
 10
3.231800
 20
4.080560
 11
3.232680
 21
4.814920
 12
3.231800
 22
4.080560
 13
3.233120
 23
4.814920
  0
POLYLINE
  8
0
 62
     1
  6
CONTINUOUS
 66
     1
 40
0.000000
 41
0.000000
  0
VERTEX
  8
0
 62
     1
  6
CONTINUOUS
 10
3.231800
 20
4.080560
  0
VERTEX
  8
0
 62
     1
  6
CONTINUOUS
 10
3.232680
 20
4.814920
  0
VERTEX
  8
0
 62
     1
  6
CONTINUOUS
 10
3.233120
 20
4.814920
  0
VERTEX
  8
0
 62
     1
  6
CONTINUOUS
 10
3.231800
 20
4.080560
  0
SEQEND
  8
0
  0
SOLID
  8
0
 62
    15
 10
3.231800
 20
4.080560
 11
3.233120
 21
4.814920
 12
3.242800
 22
4.045800
 13
3.243680
 23
4.780160
  0
POLYLINE
  8
0
 62
     1
  6
CONTINUOUS
 66
     1
 40
0.000000
 41
0.000000
  0
VERTEX
  8
0
 62
     1
  6
CONTINUOUS
 10
3.231800
 20
4.080560
  0
VERTEX
  8
0
 62
     1
  6
CONTINUOUS
 10
3.233120
 20
4.814920
  0
VERTEX
  8
0
 62
     1
  6
CONTINUOUS
 10
3.243680
 20
4.780160
  0
VERTEX
  8
0
 62
     1
  6
CONTINUOUS
 10
3.242800
 20
4.045800
  0
VERTEX
  8
0
 62
     1
  6
CONTINUOUS
 10
3.231800
 20
4.080560
  0
SEQEND
  8
0
  0
SOLID
  8
0
 62
    15
 10
3.242800
 20
4.045800
 11
3.243680
 21
4.780160
 12
3.259080
 22
4.014120
 13
3.259960
 23
4.748480
  0
POLYLINE
  8
0
 62
     1
  6
CONTINUOUS
 66
     1
 40
0.000000
 41
0.000000
  0
VERTEX
  8
0
 62
     1
  6
CONTINUOUS
 10
3.242800
 20
4.045800
  0
VERTEX
  8
0
 62
     1
  6
CONTINUOUS
 10
3.243680
 20
4.780160
  0
VERTEX
  8
0
 62
     1
  6
CONTINUOUS
 10
3.259960
 20
4.748480
  0
VERTEX
  8
0
 62
     1
  6
CONTINUOUS
 10
3.259080
 20
4.014120
  0
VERTEX
  8
0
 62
     1
  6
CONTINUOUS
 10
3.242800
 20
4.045800
  0
SEQEND
  8
0
  0
SOLID
  8
0
 62
    15
 10
3.259080
 20
4.014120
 11
3.259960
 21
4.748480
 12
3.280200
 22
3.985960
 13
3.281080
 23
4.720320
  0
POLYLINE
  8
0
 62
     1
  6
CONTINUOUS
 66
     1
 40
0.000000
 41
0.000000
  0
VERTEX
  8
0
 62
     1
  6
CONTINUOUS
 10
3.259080
 20
4.014120
  0
VERTEX
  8
0
 62
     1
  6
CONTINUOUS
 10
3.259960
 20
4.748480
  0
VERTEX
  8
0
 62
     1
  6
CONTINUOUS
 10
3.281080
 20
4.720320
  0
VERTEX
  8
0
 62
     1
  6
CONTINUOUS
 10
3.280200
 20
3.985960
  0
VERTEX
  8
0
 62
     1
  6
CONTINUOUS
 10
3.259080
 20
4.014120
  0
SEQEND
  8
0
  0
SOLID
  8
0
 62
    15
 10
3.280200
 20
3.985960
 11
3.281080
 21
4.720320
 12
3.305280
 22
3.961320
 13
3.306160
 23
4.695680
  0
POLYLINE
  8
0
 62
     1
  6
CONTINUOUS
 66
     1
 40
0.000000
 41
0.000000
  0
VERTEX
  8
0
 62
     1
  6
CONTINUOUS
 10
3.280200
 20
3.985960
  0
VERTEX
  8
0
 62
     1
  6
CONTINUOUS
 10
3.281080
 20
4.720320
  0
VERTEX
  8
0
 62
     1
  6
CONTINUOUS
 10
3.306160
 20
4.695680
  0
VERTEX
  8
0
 62
     1
  6
CONTINUOUS
 10
3.305280
 20
3.961320
  0
VERTEX
  8
0
 62
     1
  6
CONTINUOUS
 10
3.280200
 20
3.985960
  0
SEQEND
  8
0
  0
SOLID
  8
0
 62
    15
 10
3.305280
 20
3.961320
 11
3.306160
 21
4.695680
 12
3.334760
 22
3.941520
 13
3.335640
 23
4.675880
  0
POLYLINE
  8
0
 62
     1
  6
CONTINUOUS
 66
     1
 40
0.000000
 41
0.000000
  0
VERTEX
  8
0
 62
     1
  6
CONTINUOUS
 10
3.305280
 20
3.961320
  0
VERTEX
  8
0
 62
     1
  6
CONTINUOUS
 10
3.306160
 20
4.695680
  0
VERTEX
  8
0
 62
     1
  6
CONTINUOUS
 10
3.335640
 20
4.675880
  0
VERTEX
  8
0
 62
     1
  6
CONTINUOUS
 10
3.334760
 20
3.941520
  0
VERTEX
  8
0
 62
     1
  6
CONTINUOUS
 10
3.305280
 20
3.961320
  0
SEQEND
  8
0
  0
SOLID
  8
0
 62
    15
 10
3.334760
 20
3.941520
 11
3.335640
 21
4.675880
 12
3.366880
 22
3.926560
 13
3.368200
 23
4.660920
  0
POLYLINE
  8
0
 62
     1
  6
CONTINUOUS
 66
     1
 40
0.000000
 41
0.000000
  0
VERTEX
  8
0
 62
     1
  6
CONTINUOUS
 10
3.334760
 20
3.941520
  0
VERTEX
  8
0
 62
     1
  6
CONTINUOUS
 10
3.335640
 20
4.675880
  0
VERTEX
  8
0
 62
     1
  6
CONTINUOUS
 10
3.368200
 20
4.660920
  0
VERTEX
  8
0
 62
     1
  6
CONTINUOUS
 10
3.366880
 20
3.926560
  0
VERTEX
  8
0
 62
     1
  6
CONTINUOUS
 10
3.334760
 20
3.941520
  0
SEQEND
  8
0
  0
SOLID
  8
0
 62
    15
 10
3.366880
 20
3.926560
 11
3.368200
 21
4.660920
 12
3.402080
 22
3.917320
 13
3.402960
 23
4.651680
  0
POLYLINE
  8
0
 62
     1
  6
CONTINUOUS
 66
     1
 40
0.000000
 41
0.000000
  0
VERTEX
  8
0
 62
     1
  6
CONTINUOUS
 10
3.366880
 20
3.926560
  0
VERTEX
  8
0
 62
     1
  6
CONTINUOUS
 10
3.368200
 20
4.660920
  0
VERTEX
  8
0
 62
     1
  6
CONTINUOUS
 10
3.402960
 20
4.651680
  0
VERTEX
  8
0
 62
     1
  6
CONTINUOUS
 10
3.402080
 20
3.917320
  0
VERTEX
  8
0
 62
     1
  6
CONTINUOUS
 10
3.366880
 20
3.926560
  0
SEQEND
  8
0
  0
SOLID
  8
0
 62
    15
 10
3.402080
 20
3.917320
 11
3.402960
 21
4.651680
 12
3.439480
 22
3.913800
 13
3.440360
 23
4.648160
  0
POLYLINE
  8
0
 62
     1
  6
CONTINUOUS
 66
     1
 40
0.000000
 41
0.000000
  0
VERTEX
  8
0
 62
     1
  6
CONTINUOUS
 10
3.402080
 20
3.917320
  0
VERTEX
  8
0
 62
     1
  6
CONTINUOUS
 10
3.402960
 20
4.651680
  0
VERTEX
  8
0
 62
     1
  6
CONTINUOUS
 10
3.440360
 20
4.648160
  0
VERTEX
  8
0
 62
     1
  6
CONTINUOUS
 10
3.439480
 20
3.913800
  0
VERTEX
  8
0
 62
     1
  6
CONTINUOUS
 10
3.402080
 20
3.917320
  0
SEQEND
  8
0
  0
SOLID
  8
0
 62
    15
 10
3.439480
 20
3.913800
 11
3.440360
 21
4.648160
 12
3.476440
 22
3.917320
 13
3.477320
 23
4.651680
  0
POLYLINE
  8
0
 62
     1
  6
CONTINUOUS
 66
     1
 40
0.000000
 41
0.000000
  0
VERTEX
  8
0
 62
     1
  6
CONTINUOUS
 10
3.439480
 20
3.913800
  0
VERTEX
  8
0
 62
     1
  6
CONTINUOUS
 10
3.440360
 20
4.648160
  0
VERTEX
  8
0
 62
     1
  6
CONTINUOUS
 10
3.477320
 20
4.651680
  0
VERTEX
  8
0
 62
     1
  6
CONTINUOUS
 10
3.476440
 20
3.917320
  0
VERTEX
  8
0
 62
     1
  6
CONTINUOUS
 10
3.439480
 20
3.913800
  0
SEQEND
  8
0
  0
SOLID
  8
0
 62
    15
 10
3.476440
 20
3.917320
 11
3.477320
 21
4.651680
 12
3.511200
 22
3.927000
 13
3.512080
 23
4.661360
  0
POLYLINE
  8
0
 62
     1
  6
CONTINUOUS
 66
     1
 40
0.000000
 41
0.000000
  0
VERTEX
  8
0
 62
     1
  6
CONTINUOUS
 10
3.476440
 20
3.917320
  0
VERTEX
  8
0
 62
     1
  6
CONTINUOUS
 10
3.477320
 20
4.651680
  0
VERTEX
  8
0
 62
     1
  6
CONTINUOUS
 10
3.512080
 20
4.661360
  0
VERTEX
  8
0
 62
     1
  6
CONTINUOUS
 10
3.511200
 20
3.927000
  0
VERTEX
  8
0
 62
     1
  6
CONTINUOUS
 10
3.476440
 20
3.917320
  0
SEQEND
  8
0
  0
SOLID
  8
0
 62
    15
 10
3.511200
 20
3.927000
 11
3.512080
 21
4.661360
 12
3.543320
 22
3.941960
 13
3.544640
 23
4.676320
  0
POLYLINE
  8
0
 62
     1
  6
CONTINUOUS
 66
     1
 40
0.000000
 41
0.000000
  0
VERTEX
  8
0
 62
     1
  6
CONTINUOUS
 10
3.511200
 20
3.927000
  0
VERTEX
  8
0
 62
     1
  6
CONTINUOUS
 10
3.512080
 20
4.661360
  0
VERTEX
  8
0
 62
     1
  6
CONTINUOUS
 10
3.544640
 20
4.676320
  0
VERTEX
  8
0
 62
     1
  6
CONTINUOUS
 10
3.543320
 20
3.941960
  0
VERTEX
  8
0
 62
     1
  6
CONTINUOUS
 10
3.511200
 20
3.927000
  0
SEQEND
  8
0
  0
SOLID
  8
0
 62
    15
 10
3.543320
 20
3.941960
 11
3.544640
 21
4.676320
 12
3.572800
 22
3.962200
 13
3.573680
 23
4.696560
  0
POLYLINE
  8
0
 62
     1
  6
CONTINUOUS
 66
     1
 40
0.000000
 41
0.000000
  0
VERTEX
  8
0
 62
     1
  6
CONTINUOUS
 10
3.543320
 20
3.941960
  0
VERTEX
  8
0
 62
     1
  6
CONTINUOUS
 10
3.544640
 20
4.676320
  0
VERTEX
  8
0
 62
     1
  6
CONTINUOUS
 10
3.573680
 20
4.696560
  0
VERTEX
  8
0
 62
     1
  6
CONTINUOUS
 10
3.572800
 20
3.962200
  0
VERTEX
  8
0
 62
     1
  6
CONTINUOUS
 10
3.543320
 20
3.941960
  0
SEQEND
  8
0
  0
SOLID
  8
0
 62
    15
 10
3.572800
 20
3.962200
 11
3.573680
 21
4.696560
 12
3.597880
 22
3.986840
 13
3.598760
 23
4.721200
  0
POLYLINE
  8
0
 62
     1
  6
CONTINUOUS
 66
     1
 40
0.000000
 41
0.000000
  0
VERTEX
  8
0
 62
     1
  6
CONTINUOUS
 10
3.572800
 20
3.962200
  0
VERTEX
  8
0
 62
     1
  6
CONTINUOUS
 10
3.573680
 20
4.696560
  0
VERTEX
  8
0
 62
     1
  6
CONTINUOUS
 10
3.598760
 20
4.721200
  0
VERTEX
  8
0
 62
     1
  6
CONTINUOUS
 10
3.597880
 20
3.986840
  0
VERTEX
  8
0
 62
     1
  6
CONTINUOUS
 10
3.572800
 20
3.962200
  0
SEQEND
  8
0
  0
SOLID
  8
0
 62
    15
 10
3.597880
 20
3.986840
 11
3.598760
 21
4.721200
 12
3.619000
 22
4.015000
 13
3.619880
 23
4.749360
  0
POLYLINE
  8
0
 62
     1
  6
CONTINUOUS
 66
     1
 40
0.000000
 41
0.000000
  0
VERTEX
  8
0
 62
     1
  6
CONTINUOUS
 10
3.597880
 20
3.986840
  0
VERTEX
  8
0
 62
     1
  6
CONTINUOUS
 10
3.598760
 20
4.721200
  0
VERTEX
  8
0
 62
     1
  6
CONTINUOUS
 10
3.619880
 20
4.749360
  0
VERTEX
  8
0
 62
     1
  6
CONTINUOUS
 10
3.619000
 20
4.015000
  0
VERTEX
  8
0
 62
     1
  6
CONTINUOUS
 10
3.597880
 20
3.986840
  0
SEQEND
  8
0
  0
SOLID
  8
0
 62
    15
 10
3.619000
 20
4.015000
 11
3.619880
 21
4.749360
 12
3.635280
 22
4.046680
 13
3.636160
 23
4.781040
  0
POLYLINE
  8
0
 62
     1
  6
CONTINUOUS
 66
     1
 40
0.000000
 41
0.000000
  0
VERTEX
  8
0
 62
     1
  6
CONTINUOUS
 10
3.619000
 20
4.015000
  0
VERTEX
  8
0
 62
     1
  6
CONTINUOUS
 10
3.619880
 20
4.749360
  0
VERTEX
  8
0
 62
     1
  6
CONTINUOUS
 10
3.636160
 20
4.781040
  0
VERTEX
  8
0
 62
     1
  6
CONTINUOUS
 10
3.635280
 20
4.046680
  0
VERTEX
  8
0
 62
     1
  6
CONTINUOUS
 10
3.619000
 20
4.015000
  0
SEQEND
  8
0
  0
SOLID
  8
0
 62
    15
 10
3.635280
 20
4.046680
 11
3.636160
 21
4.781040
 12
3.646280
 22
4.080120
 13
3.647160
 23
4.814480
  0
POLYLINE
  8
0
 62
     1
  6
CONTINUOUS
 66
     1
 40
0.000000
 41
0.000000
  0
VERTEX
  8
0
 62
     1
  6
CONTINUOUS
 10
3.635280
 20
4.046680
  0
VERTEX
  8
0
 62
     1
  6
CONTINUOUS
 10
3.636160
 20
4.781040
  0
VERTEX
  8
0
 62
     1
  6
CONTINUOUS
 10
3.647160
 20
4.814480
  0
VERTEX
  8
0
 62
     1
  6
CONTINUOUS
 10
3.646280
 20
4.080120
  0
VERTEX
  8
0
 62
     1
  6
CONTINUOUS
 10
3.635280
 20
4.046680
  0
SEQEND
  8
0
  0
SOLID
  8
0
 62
    15
 10
3.646280
 20
4.080120
 11
3.647160
 21
4.814480
 12
3.897080
 22
4.080120
 13
3.897960
 23
4.814480
  0
POLYLINE
  8
0
 62
     1
  6
CONTINUOUS
 66
     1
 40
0.000000
 41
0.000000
  0
VERTEX
  8
0
 62
     1
  6
CONTINUOUS
 10
3.646280
 20
4.080120
  0
VERTEX
  8
0
 62
     1
  6
CONTINUOUS
 10
3.647160
 20
4.814480
  0
VERTEX
  8
0
 62
     1
  6
CONTINUOUS
 10
3.897960
 20
4.814480
  0
VERTEX
  8
0
 62
     1
  6
CONTINUOUS
 10
3.897080
 20
4.080120
  0
VERTEX
  8
0
 62
     1
  6
CONTINUOUS
 10
3.646280
 20
4.080120
  0
SEQEND
  8
0
  0
SOLID
  8
0
 62
    15
 10
3.897080
 20
4.080560
 11
3.897960
 21
4.814920
 12
3.907640
 22
4.045800
 13
3.908520
 23
4.780160
  0
POLYLINE
  8
0
 62
     1
  6
CONTINUOUS
 66
     1
 40
0.000000
 41
0.000000
  0
VERTEX
  8
0
 62
     1
  6
CONTINUOUS
 10
3.897080
 20
4.080560
  0
VERTEX
  8
0
 62
     1
  6
CONTINUOUS
 10
3.897960
 20
4.814920
  0
VERTEX
  8
0
 62
     1
  6
CONTINUOUS
 10
3.908520
 20
4.780160
  0
VERTEX
  8
0
 62
     1
  6
CONTINUOUS
 10
3.907640
 20
4.045800
  0
VERTEX
  8
0
 62
     1
  6
CONTINUOUS
 10
3.897080
 20
4.080560
  0
SEQEND
  8
0
  0
SOLID
  8
0
 62
    15
 10
3.907640
 20
4.045800
 11
3.908520
 21
4.780160
 12
3.923920
 22
4.014120
 13
3.924800
 23
4.748480
  0
POLYLINE
  8
0
 62
     1
  6
CONTINUOUS
 66
     1
 40
0.000000
 41
0.000000
  0
VERTEX
  8
0
 62
     1
  6
CONTINUOUS
 10
3.907640
 20
4.045800
  0
VERTEX
  8
0
 62
     1
  6
CONTINUOUS
 10
3.908520
 20
4.780160
  0
VERTEX
  8
0
 62
     1
  6
CONTINUOUS
 10
3.924800
 20
4.748480
  0
VERTEX
  8
0
 62
     1
  6
CONTINUOUS
 10
3.923920
 20
4.014120
  0
VERTEX
  8
0
 62
     1
  6
CONTINUOUS
 10
3.907640
 20
4.045800
  0
SEQEND
  8
0
  0
SOLID
  8
0
 62
    15
 10
3.923920
 20
4.014120
 11
3.924800
 21
4.748480
 12
3.945040
 22
3.985960
 13
3.945920
 23
4.720320
  0
POLYLINE
  8
0
 62
     1
  6
CONTINUOUS
 66
     1
 40
0.000000
 41
0.000000
  0
VERTEX
  8
0
 62
     1
  6
CONTINUOUS
 10
3.923920
 20
4.014120
  0
VERTEX
  8
0
 62
     1
  6
CONTINUOUS
 10
3.924800
 20
4.748480
  0
VERTEX
  8
0
 62
     1
  6
CONTINUOUS
 10
3.945920
 20
4.720320
  0
VERTEX
  8
0
 62
     1
  6
CONTINUOUS
 10
3.945040
 20
3.985960
  0
VERTEX
  8
0
 62
     1
  6
CONTINUOUS
 10
3.923920
 20
4.014120
  0
SEQEND
  8
0
  0
SOLID
  8
0
 62
    15
 10
3.945040
 20
3.985960
 11
3.945920
 21
4.720320
 12
3.970120
 22
3.961320
 13
3.971440
 23
4.695680
  0
POLYLINE
  8
0
 62
     1
  6
CONTINUOUS
 66
     1
 40
0.000000
 41
0.000000
  0
VERTEX
  8
0
 62
     1
  6
CONTINUOUS
 10
3.945040
 20
3.985960
  0
VERTEX
  8
0
 62
     1
  6
CONTINUOUS
 10
3.945920
 20
4.720320
  0
VERTEX
  8
0
 62
     1
  6
CONTINUOUS
 10
3.971440
 20
4.695680
  0
VERTEX
  8
0
 62
     1
  6
CONTINUOUS
 10
3.970120
 20
3.961320
  0
VERTEX
  8
0
 62
     1
  6
CONTINUOUS
 10
3.945040
 20
3.985960
  0
SEQEND
  8
0
  0
SOLID
  8
0
 62
    15
 10
3.970120
 20
3.961320
 11
3.971440
 21
4.695680
 12
3.999600
 22
3.941520
 13
4.000480
 23
4.675880
  0
POLYLINE
  8
0
 62
     1
  6
CONTINUOUS
 66
     1
 40
0.000000
 41
0.000000
  0
VERTEX
  8
0
 62
     1
  6
CONTINUOUS
 10
3.970120
 20
3.961320
  0
VERTEX
  8
0
 62
     1
  6
CONTINUOUS
 10
3.971440
 20
4.695680
  0
VERTEX
  8
0
 62
     1
  6
CONTINUOUS
 10
4.000480
 20
4.675880
  0
VERTEX
  8
0
 62
     1
  6
CONTINUOUS
 10
3.999600
 20
3.941520
  0
VERTEX
  8
0
 62
     1
  6
CONTINUOUS
 10
3.970120
 20
3.961320
  0
SEQEND
  8
0
  0
SOLID
  8
0
 62
    15
 10
3.999600
 20
3.941520
 11
4.000480
 21
4.675880
 12
4.031720
 22
3.926560
 13
4.033040
 23
4.660920
  0
POLYLINE
  8
0
 62
     1
  6
CONTINUOUS
 66
     1
 40
0.000000
 41
0.000000
  0
VERTEX
  8
0
 62
     1
  6
CONTINUOUS
 10
3.999600
 20
3.941520
  0
VERTEX
  8
0
 62
     1
  6
CONTINUOUS
 10
4.000480
 20
4.675880
  0
VERTEX
  8
0
 62
     1
  6
CONTINUOUS
 10
4.033040
 20
4.660920
  0
VERTEX
  8
0
 62
     1
  6
CONTINUOUS
 10
4.031720
 20
3.926560
  0
VERTEX
  8
0
 62
     1
  6
CONTINUOUS
 10
3.999600
 20
3.941520
  0
SEQEND
  8
0
  0
SOLID
  8
0
 62
    15
 10
4.031720
 20
3.926560
 11
4.033040
 21
4.660920
 12
4.066920
 22
3.917320
 13
4.067800
 23
4.651680
  0
POLYLINE
  8
0
 62
     1
  6
CONTINUOUS
 66
     1
 40
0.000000
 41
0.000000
  0
VERTEX
  8
0
 62
     1
  6
CONTINUOUS
 10
4.031720
 20
3.926560
  0
VERTEX
  8
0
 62
     1
  6
CONTINUOUS
 10
4.033040
 20
4.660920
  0
VERTEX
  8
0
 62
     1
  6
CONTINUOUS
 10
4.067800
 20
4.651680
  0
VERTEX
  8
0
 62
     1
  6
CONTINUOUS
 10
4.066920
 20
3.917320
  0
VERTEX
  8
0
 62
     1
  6
CONTINUOUS
 10
4.031720
 20
3.926560
  0
SEQEND
  8
0
  0
SOLID
  8
0
 62
    15
 10
4.066920
 20
3.917320
 11
4.067800
 21
4.651680
 12
4.104320
 22
3.913800
 13
4.105200
 23
4.648160
  0
POLYLINE
  8
0
 62
     1
  6
CONTINUOUS
 66
     1
 40
0.000000
 41
0.000000
  0
VERTEX
  8
0
 62
     1
  6
CONTINUOUS
 10
4.066920
 20
3.917320
  0
VERTEX
  8
0
 62
     1
  6
CONTINUOUS
 10
4.067800
 20
4.651680
  0
VERTEX
  8
0
 62
     1
  6
CONTINUOUS
 10
4.105200
 20
4.648160
  0
VERTEX
  8
0
 62
     1
  6
CONTINUOUS
 10
4.104320
 20
3.913800
  0
VERTEX
  8
0
 62
     1
  6
CONTINUOUS
 10
4.066920
 20
3.917320
  0
SEQEND
  8
0
  0
SOLID
  8
0
 62
    15
 10
4.104320
 20
3.913800
 11
4.105200
 21
4.648160
 12
4.141280
 22
3.917320
 13
4.142160
 23
4.651680
  0
POLYLINE
  8
0
 62
     1
  6
CONTINUOUS
 66
     1
 40
0.000000
 41
0.000000
  0
VERTEX
  8
0
 62
     1
  6
CONTINUOUS
 10
4.104320
 20
3.913800
  0
VERTEX
  8
0
 62
     1
  6
CONTINUOUS
 10
4.105200
 20
4.648160
  0
VERTEX
  8
0
 62
     1
  6
CONTINUOUS
 10
4.142160
 20
4.651680
  0
VERTEX
  8
0
 62
     1
  6
CONTINUOUS
 10
4.141280
 20
3.917320
  0
VERTEX
  8
0
 62
     1
  6
CONTINUOUS
 10
4.104320
 20
3.913800
  0
SEQEND
  8
0
  0
SOLID
  8
0
 62
    15
 10
6.561720
 20
4.081440
 11
6.562600
 21
4.815800
 12
6.561720
 22
3.333880
 13
6.562600
 23
4.068240
  0
POLYLINE
  8
0
 62
     1
  6
CONTINUOUS
 66
     1
 40
0.000000
 41
0.000000
  0
VERTEX
  8
0
 62
     1
  6
CONTINUOUS
 10
6.561720
 20
4.081440
  0
VERTEX
  8
0
 62
     1
  6
CONTINUOUS
 10
6.562600
 20
4.815800
  0
VERTEX
  8
0
 62
     1
  6
CONTINUOUS
 10
6.562600
 20
4.068240
  0
VERTEX
  8
0
 62
     1
  6
CONTINUOUS
 10
6.561720
 20
3.333880
  0
VERTEX
  8
0
 62
     1
  6
CONTINUOUS
 10
6.561720
 20
4.081440
  0
SEQEND
  8
0
  0
SOLID
  8
0
 62
    15
 10
4.176040
 20
3.927000
 11
4.176920
 21
4.661360
 12
4.208600
 22
3.941960
 13
4.209480
 23
4.676320
  0
POLYLINE
  8
0
 62
     1
  6
CONTINUOUS
 66
     1
 40
0.000000
 41
0.000000
  0
VERTEX
  8
0
 62
     1
  6
CONTINUOUS
 10
4.176040
 20
3.927000
  0
VERTEX
  8
0
 62
     1
  6
CONTINUOUS
 10
4.176920
 20
4.661360
  0
VERTEX
  8
0
 62
     1
  6
CONTINUOUS
 10
4.209480
 20
4.676320
  0
VERTEX
  8
0
 62
     1
  6
CONTINUOUS
 10
4.208600
 20
3.941960
  0
VERTEX
  8
0
 62
     1
  6
CONTINUOUS
 10
4.176040
 20
3.927000
  0
SEQEND
  8
0
  0
SOLID
  8
0
 62
    15
 10
4.208600
 20
3.941960
 11
4.209480
 21
4.676320
 12
4.237640
 22
3.962200
 13
4.238520
 23
4.696560
  0
POLYLINE
  8
0
 62
     1
  6
CONTINUOUS
 66
     1
 40
0.000000
 41
0.000000
  0
VERTEX
  8
0
 62
     1
  6
CONTINUOUS
 10
4.208600
 20
3.941960
  0
VERTEX
  8
0
 62
     1
  6
CONTINUOUS
 10
4.209480
 20
4.676320
  0
VERTEX
  8
0
 62
     1
  6
CONTINUOUS
 10
4.238520
 20
4.696560
  0
VERTEX
  8
0
 62
     1
  6
CONTINUOUS
 10
4.237640
 20
3.962200
  0
VERTEX
  8
0
 62
     1
  6
CONTINUOUS
 10
4.208600
 20
3.941960
  0
SEQEND
  8
0
  0
SOLID
  8
0
 62
    15
 10
4.237640
 20
3.962200
 11
4.238520
 21
4.696560
 12
4.262720
 22
3.986840
 13
4.263600
 23
4.721200
  0
POLYLINE
  8
0
 62
     1
  6
CONTINUOUS
 66
     1
 40
0.000000
 41
0.000000
  0
VERTEX
  8
0
 62
     1
  6
CONTINUOUS
 10
4.237640
 20
3.962200
  0
VERTEX
  8
0
 62
     1
  6
CONTINUOUS
 10
4.238520
 20
4.696560
  0
VERTEX
  8
0
 62
     1
  6
CONTINUOUS
 10
4.263600
 20
4.721200
  0
VERTEX
  8
0
 62
     1
  6
CONTINUOUS
 10
4.262720
 20
3.986840
  0
VERTEX
  8
0
 62
     1
  6
CONTINUOUS
 10
4.237640
 20
3.962200
  0
SEQEND
  8
0
  0
SOLID
  8
0
 62
    15
 10
4.262720
 20
3.986840
 11
4.263600
 21
4.721200
 12
4.283840
 22
4.015000
 13
4.284720
 23
4.749360
  0
POLYLINE
  8
0
 62
     1
  6
CONTINUOUS
 66
     1
 40
0.000000
 41
0.000000
  0
VERTEX
  8
0
 62
     1
  6
CONTINUOUS
 10
4.262720
 20
3.986840
  0
VERTEX
  8
0
 62
     1
  6
CONTINUOUS
 10
4.263600
 20
4.721200
  0
VERTEX
  8
0
 62
     1
  6
CONTINUOUS
 10
4.284720
 20
4.749360
  0
VERTEX
  8
0
 62
     1
  6
CONTINUOUS
 10
4.283840
 20
4.015000
  0
VERTEX
  8
0
 62
     1
  6
CONTINUOUS
 10
4.262720
 20
3.986840
  0
SEQEND
  8
0
  0
SOLID
  8
0
 62
    15
 10
4.283840
 20
4.015000
 11
4.284720
 21
4.749360
 12
4.300120
 22
4.046680
 13
4.301000
 23
4.781040
  0
POLYLINE
  8
0
 62
     1
  6
CONTINUOUS
 66
     1
 40
0.000000
 41
0.000000
  0
VERTEX
  8
0
 62
     1
  6
CONTINUOUS
 10
4.283840
 20
4.015000
  0
VERTEX
  8
0
 62
     1
  6
CONTINUOUS
 10
4.284720
 20
4.749360
  0
VERTEX
  8
0
 62
     1
  6
CONTINUOUS
 10
4.301000
 20
4.781040
  0
VERTEX
  8
0
 62
     1
  6
CONTINUOUS
 10
4.300120
 20
4.046680
  0
VERTEX
  8
0
 62
     1
  6
CONTINUOUS
 10
4.283840
 20
4.015000
  0
SEQEND
  8
0
  0
SOLID
  8
0
 62
    15
 10
4.300120
 20
4.046680
 11
4.301000
 21
4.781040
 12
4.311120
 22
4.080120
 13
4.312000
 23
4.814480
  0
POLYLINE
  8
0
 62
     1
  6
CONTINUOUS
 66
     1
 40
0.000000
 41
0.000000
  0
VERTEX
  8
0
 62
     1
  6
CONTINUOUS
 10
4.300120
 20
4.046680
  0
VERTEX
  8
0
 62
     1
  6
CONTINUOUS
 10
4.301000
 20
4.781040
  0
VERTEX
  8
0
 62
     1
  6
CONTINUOUS
 10
4.312000
 20
4.814480
  0
VERTEX
  8
0
 62
     1
  6
CONTINUOUS
 10
4.311120
 20
4.080120
  0
VERTEX
  8
0
 62
     1
  6
CONTINUOUS
 10
4.300120
 20
4.046680
  0
SEQEND
  8
0
  0
SOLID
  8
0
 62
    15
 10
4.311120
 20
4.080120
 11
4.312000
 21
4.814480
 12
4.561920
 22
4.080120
 13
4.562800
 23
4.814480
  0
POLYLINE
  8
0
 62
     1
  6
CONTINUOUS
 66
     1
 40
0.000000
 41
0.000000
  0
VERTEX
  8
0
 62
     1
  6
CONTINUOUS
 10
4.311120
 20
4.080120
  0
VERTEX
  8
0
 62
     1
  6
CONTINUOUS
 10
4.312000
 20
4.814480
  0
VERTEX
  8
0
 62
     1
  6
CONTINUOUS
 10
4.562800
 20
4.814480
  0
VERTEX
  8
0
 62
     1
  6
CONTINUOUS
 10
4.561920
 20
4.080120
  0
VERTEX
  8
0
 62
     1
  6
CONTINUOUS
 10
4.311120
 20
4.080120
  0
SEQEND
  8
0
  0
SOLID
  8
0
 62
    15
 10
4.561920
 20
4.080120
 11
4.562800
 21
4.814480
 12
4.562360
 22
4.080560
 13
4.563240
 23
4.814920
  0
POLYLINE
  8
0
 62
     1
  6
CONTINUOUS
 66
     1
 40
0.000000
 41
0.000000
  0
VERTEX
  8
0
 62
     1
  6
CONTINUOUS
 10
4.561920
 20
4.080120
  0
VERTEX
  8
0
 62
     1
  6
CONTINUOUS
 10
4.562800
 20
4.814480
  0
VERTEX
  8
0
 62
     1
  6
CONTINUOUS
 10
4.563240
 20
4.814920
  0
VERTEX
  8
0
 62
     1
  6
CONTINUOUS
 10
4.562360
 20
4.080560
  0
VERTEX
  8
0
 62
     1
  6
CONTINUOUS
 10
4.561920
 20
4.080120
  0
SEQEND
  8
0
  0
SOLID
  8
0
 62
    15
 10
4.562360
 20
4.080560
 11
4.563240
 21
4.814920
 12
4.573360
 22
4.045800
 13
4.574240
 23
4.780160
  0
POLYLINE
  8
0
 62
     1
  6
CONTINUOUS
 66
     1
 40
0.000000
 41
0.000000
  0
VERTEX
  8
0
 62
     1
  6
CONTINUOUS
 10
4.562360
 20
4.080560
  0
VERTEX
  8
0
 62
     1
  6
CONTINUOUS
 10
4.563240
 20
4.814920
  0
VERTEX
  8
0
 62
     1
  6
CONTINUOUS
 10
4.574240
 20
4.780160
  0
VERTEX
  8
0
 62
     1
  6
CONTINUOUS
 10
4.573360
 20
4.045800
  0
VERTEX
  8
0
 62
     1
  6
CONTINUOUS
 10
4.562360
 20
4.080560
  0
SEQEND
  8
0
  0
SOLID
  8
0
 62
    15
 10
4.573360
 20
4.045800
 11
4.574240
 21
4.780160
 12
4.589200
 22
4.014120
 13
4.590520
 23
4.748480
  0
POLYLINE
  8
0
 62
     1
  6
CONTINUOUS
 66
     1
 40
0.000000
 41
0.000000
  0
VERTEX
  8
0
 62
     1
  6
CONTINUOUS
 10
4.573360
 20
4.045800
  0
VERTEX
  8
0
 62
     1
  6
CONTINUOUS
 10
4.574240
 20
4.780160
  0
VERTEX
  8
0
 62
     1
  6
CONTINUOUS
 10
4.590520
 20
4.748480
  0
VERTEX
  8
0
 62
     1
  6
CONTINUOUS
 10
4.589200
 20
4.014120
  0
VERTEX
  8
0
 62
     1
  6
CONTINUOUS
 10
4.573360
 20
4.045800
  0
SEQEND
  8
0
  0
SOLID
  8
0
 62
    15
 10
4.589200
 20
4.014120
 11
4.590520
 21
4.748480
 12
4.610320
 22
3.985960
 13
4.611640
 23
4.720320
  0
POLYLINE
  8
0
 62
     1
  6
CONTINUOUS
 66
     1
 40
0.000000
 41
0.000000
  0
VERTEX
  8
0
 62
     1
  6
CONTINUOUS
 10
4.589200
 20
4.014120
  0
VERTEX
  8
0
 62
     1
  6
CONTINUOUS
 10
4.590520
 20
4.748480
  0
VERTEX
  8
0
 62
     1
  6
CONTINUOUS
 10
4.611640
 20
4.720320
  0
VERTEX
  8
0
 62
     1
  6
CONTINUOUS
 10
4.610320
 20
3.985960
  0
VERTEX
  8
0
 62
     1
  6
CONTINUOUS
 10
4.589200
 20
4.014120
  0
SEQEND
  8
0
  0
SOLID
  8
0
 62
    15
 10
4.610320
 20
3.985960
 11
4.611640
 21
4.720320
 12
4.635840
 22
3.961320
 13
4.636720
 23
4.695680
  0
POLYLINE
  8
0
 62
     1
  6
CONTINUOUS
 66
     1
 40
0.000000
 41
0.000000
  0
VERTEX
  8
0
 62
     1
  6
CONTINUOUS
 10
4.610320
 20
3.985960
  0
VERTEX
  8
0
 62
     1
  6
CONTINUOUS
 10
4.611640
 20
4.720320
  0
VERTEX
  8
0
 62
     1
  6
CONTINUOUS
 10
4.636720
 20
4.695680
  0
VERTEX
  8
0
 62
     1
  6
CONTINUOUS
 10
4.635840
 20
3.961320
  0
VERTEX
  8
0
 62
     1
  6
CONTINUOUS
 10
4.610320
 20
3.985960
  0
SEQEND
  8
0
  0
SOLID
  8
0
 62
    15
 10
4.635840
 20
3.961320
 11
4.636720
 21
4.695680
 12
4.664880
 22
3.941520
 13
4.666200
 23
4.675880
  0
POLYLINE
  8
0
 62
     1
  6
CONTINUOUS
 66
     1
 40
0.000000
 41
0.000000
  0
VERTEX
  8
0
 62
     1
  6
CONTINUOUS
 10
4.635840
 20
3.961320
  0
VERTEX
  8
0
 62
     1
  6
CONTINUOUS
 10
4.636720
 20
4.695680
  0
VERTEX
  8
0
 62
     1
  6
CONTINUOUS
 10
4.666200
 20
4.675880
  0
VERTEX
  8
0
 62
     1
  6
CONTINUOUS
 10
4.664880
 20
3.941520
  0
VERTEX
  8
0
 62
     1
  6
CONTINUOUS
 10
4.635840
 20
3.961320
  0
SEQEND
  8
0
  0
SOLID
  8
0
 62
    15
 10
4.664880
 20
3.941520
 11
4.666200
 21
4.675880
 12
4.697440
 22
3.926560
 13
4.698320
 23
4.660920
  0
POLYLINE
  8
0
 62
     1
  6
CONTINUOUS
 66
     1
 40
0.000000
 41
0.000000
  0
VERTEX
  8
0
 62
     1
  6
CONTINUOUS
 10
4.664880
 20
3.941520
  0
VERTEX
  8
0
 62
     1
  6
CONTINUOUS
 10
4.666200
 20
4.675880
  0
VERTEX
  8
0
 62
     1
  6
CONTINUOUS
 10
4.698320
 20
4.660920
  0
VERTEX
  8
0
 62
     1
  6
CONTINUOUS
 10
4.697440
 20
3.926560
  0
VERTEX
  8
0
 62
     1
  6
CONTINUOUS
 10
4.664880
 20
3.941520
  0
SEQEND
  8
0
  0
SOLID
  8
0
 62
    15
 10
4.697440
 20
3.926560
 11
4.698320
 21
4.660920
 12
4.732640
 22
3.917320
 13
4.733520
 23
4.651680
  0
POLYLINE
  8
0
 62
     1
  6
CONTINUOUS
 66
     1
 40
0.000000
 41
0.000000
  0
VERTEX
  8
0
 62
     1
  6
CONTINUOUS
 10
4.697440
 20
3.926560
  0
VERTEX
  8
0
 62
     1
  6
CONTINUOUS
 10
4.698320
 20
4.660920
  0
VERTEX
  8
0
 62
     1
  6
CONTINUOUS
 10
4.733520
 20
4.651680
  0
VERTEX
  8
0
 62
     1
  6
CONTINUOUS
 10
4.732640
 20
3.917320
  0
VERTEX
  8
0
 62
     1
  6
CONTINUOUS
 10
4.697440
 20
3.926560
  0
SEQEND
  8
0
  0
SOLID
  8
0
 62
    15
 10
4.732640
 20
3.917320
 11
4.733520
 21
4.651680
 12
4.769600
 22
3.913800
 13
4.770920
 23
4.648160
  0
POLYLINE
  8
0
 62
     1
  6
CONTINUOUS
 66
     1
 40
0.000000
 41
0.000000
  0
VERTEX
  8
0
 62
     1
  6
CONTINUOUS
 10
4.732640
 20
3.917320
  0
VERTEX
  8
0
 62
     1
  6
CONTINUOUS
 10
4.733520
 20
4.651680
  0
VERTEX
  8
0
 62
     1
  6
CONTINUOUS
 10
4.770920
 20
4.648160
  0
VERTEX
  8
0
 62
     1
  6
CONTINUOUS
 10
4.769600
 20
3.913800
  0
VERTEX
  8
0
 62
     1
  6
CONTINUOUS
 10
4.732640
 20
3.917320
  0
SEQEND
  8
0
  0
SOLID
  8
0
 62
    15
 10
4.769600
 20
3.913800
 11
4.770920
 21
4.648160
 12
4.807000
 22
3.917320
 13
4.807880
 23
4.651680
  0
POLYLINE
  8
0
 62
     1
  6
CONTINUOUS
 66
     1
 40
0.000000
 41
0.000000
  0
VERTEX
  8
0
 62
     1
  6
CONTINUOUS
 10
4.769600
 20
3.913800
  0
VERTEX
  8
0
 62
     1
  6
CONTINUOUS
 10
4.770920
 20
4.648160
  0
VERTEX
  8
0
 62
     1
  6
CONTINUOUS
 10
4.807880
 20
4.651680
  0
VERTEX
  8
0
 62
     1
  6
CONTINUOUS
 10
4.807000
 20
3.917320
  0
VERTEX
  8
0
 62
     1
  6
CONTINUOUS
 10
4.769600
 20
3.913800
  0
SEQEND
  8
0
  0
SOLID
  8
0
 62
    15
 10
4.807000
 20
3.917320
 11
4.807880
 21
4.651680
 12
4.841760
 22
3.927000
 13
4.842640
 23
4.661360
  0
POLYLINE
  8
0
 62
     1
  6
CONTINUOUS
 66
     1
 40
0.000000
 41
0.000000
  0
VERTEX
  8
0
 62
     1
  6
CONTINUOUS
 10
4.807000
 20
3.917320
  0
VERTEX
  8
0
 62
     1
  6
CONTINUOUS
 10
4.807880
 20
4.651680
  0
VERTEX
  8
0
 62
     1
  6
CONTINUOUS
 10
4.842640
 20
4.661360
  0
VERTEX
  8
0
 62
     1
  6
CONTINUOUS
 10
4.841760
 20
3.927000
  0
VERTEX
  8
0
 62
     1
  6
CONTINUOUS
 10
4.807000
 20
3.917320
  0
SEQEND
  8
0
  0
SOLID
  8
0
 62
    15
 10
4.841760
 20
3.927000
 11
4.842640
 21
4.661360
 12
4.873880
 22
3.941960
 13
4.874760
 23
4.676320
  0
POLYLINE
  8
0
 62
     1
  6
CONTINUOUS
 66
     1
 40
0.000000
 41
0.000000
  0
VERTEX
  8
0
 62
     1
  6
CONTINUOUS
 10
4.841760
 20
3.927000
  0
VERTEX
  8
0
 62
     1
  6
CONTINUOUS
 10
4.842640
 20
4.661360
  0
VERTEX
  8
0
 62
     1
  6
CONTINUOUS
 10
4.874760
 20
4.676320
  0
VERTEX
  8
0
 62
     1
  6
CONTINUOUS
 10
4.873880
 20
3.941960
  0
VERTEX
  8
0
 62
     1
  6
CONTINUOUS
 10
4.841760
 20
3.927000
  0
SEQEND
  8
0
  0
SOLID
  8
0
 62
    15
 10
4.873880
 20
3.941960
 11
4.874760
 21
4.676320
 12
4.902920
 22
3.962200
 13
4.904240
 23
4.696560
  0
POLYLINE
  8
0
 62
     1
  6
CONTINUOUS
 66
     1
 40
0.000000
 41
0.000000
  0
VERTEX
  8
0
 62
     1
  6
CONTINUOUS
 10
4.873880
 20
3.941960
  0
VERTEX
  8
0
 62
     1
  6
CONTINUOUS
 10
4.874760
 20
4.676320
  0
VERTEX
  8
0
 62
     1
  6
CONTINUOUS
 10
4.904240
 20
4.696560
  0
VERTEX
  8
0
 62
     1
  6
CONTINUOUS
 10
4.902920
 20
3.962200
  0
VERTEX
  8
0
 62
     1
  6
CONTINUOUS
 10
4.873880
 20
3.941960
  0
SEQEND
  8
0
  0
SOLID
  8
0
 62
    15
 10
4.902920
 20
3.962200
 11
4.904240
 21
4.696560
 12
4.928440
 22
3.986840
 13
4.929320
 23
4.721200
  0
POLYLINE
  8
0
 62
     1
  6
CONTINUOUS
 66
     1
 40
0.000000
 41
0.000000
  0
VERTEX
  8
0
 62
     1
  6
CONTINUOUS
 10
4.902920
 20
3.962200
  0
VERTEX
  8
0
 62
     1
  6
CONTINUOUS
 10
4.904240
 20
4.696560
  0
VERTEX
  8
0
 62
     1
  6
CONTINUOUS
 10
4.929320
 20
4.721200
  0
VERTEX
  8
0
 62
     1
  6
CONTINUOUS
 10
4.928440
 20
3.986840
  0
VERTEX
  8
0
 62
     1
  6
CONTINUOUS
 10
4.902920
 20
3.962200
  0
SEQEND
  8
0
  0
SOLID
  8
0
 62
    15
 10
4.928440
 20
3.986840
 11
4.929320
 21
4.721200
 12
4.949560
 22
4.015000
 13
4.950440
 23
4.749360
  0
POLYLINE
  8
0
 62
     1
  6
CONTINUOUS
 66
     1
 40
0.000000
 41
0.000000
  0
VERTEX
  8
0
 62
     1
  6
CONTINUOUS
 10
4.928440
 20
3.986840
  0
VERTEX
  8
0
 62
     1
  6
CONTINUOUS
 10
4.929320
 20
4.721200
  0
VERTEX
  8
0
 62
     1
  6
CONTINUOUS
 10
4.950440
 20
4.749360
  0
VERTEX
  8
0
 62
     1
  6
CONTINUOUS
 10
4.949560
 20
4.015000
  0
VERTEX
  8
0
 62
     1
  6
CONTINUOUS
 10
4.928440
 20
3.986840
  0
SEQEND
  8
0
  0
SOLID
  8
0
 62
    15
 10
4.949560
 20
4.015000
 11
4.950440
 21
4.749360
 12
4.965840
 22
4.046680
 13
4.966720
 23
4.781040
  0
POLYLINE
  8
0
 62
     1
  6
CONTINUOUS
 66
     1
 40
0.000000
 41
0.000000
  0
VERTEX
  8
0
 62
     1
  6
CONTINUOUS
 10
4.949560
 20
4.015000
  0
VERTEX
  8
0
 62
     1
  6
CONTINUOUS
 10
4.950440
 20
4.749360
  0
VERTEX
  8
0
 62
     1
  6
CONTINUOUS
 10
4.966720
 20
4.781040
  0
VERTEX
  8
0
 62
     1
  6
CONTINUOUS
 10
4.965840
 20
4.046680
  0
VERTEX
  8
0
 62
     1
  6
CONTINUOUS
 10
4.949560
 20
4.015000
  0
SEQEND
  8
0
  0
SOLID
  8
0
 62
    15
 10
4.965840
 20
4.046680
 11
4.966720
 21
4.781040
 12
4.976840
 22
4.080120
 13
4.977720
 23
4.814480
  0
POLYLINE
  8
0
 62
     1
  6
CONTINUOUS
 66
     1
 40
0.000000
 41
0.000000
  0
VERTEX
  8
0
 62
     1
  6
CONTINUOUS
 10
4.965840
 20
4.046680
  0
VERTEX
  8
0
 62
     1
  6
CONTINUOUS
 10
4.966720
 20
4.781040
  0
VERTEX
  8
0
 62
     1
  6
CONTINUOUS
 10
4.977720
 20
4.814480
  0
VERTEX
  8
0
 62
     1
  6
CONTINUOUS
 10
4.976840
 20
4.080120
  0
VERTEX
  8
0
 62
     1
  6
CONTINUOUS
 10
4.965840
 20
4.046680
  0
SEQEND
  8
0
  0
SOLID
  8
0
 62
    15
 10
4.976840
 20
4.080120
 11
4.977720
 21
4.814480
 12
5.227200
 22
4.080120
 13
5.228520
 23
4.814480
  0
POLYLINE
  8
0
 62
     1
  6
CONTINUOUS
 66
     1
 40
0.000000
 41
0.000000
  0
VERTEX
  8
0
 62
     1
  6
CONTINUOUS
 10
4.976840
 20
4.080120
  0
VERTEX
  8
0
 62
     1
  6
CONTINUOUS
 10
4.977720
 20
4.814480
  0
VERTEX
  8
0
 62
     1
  6
CONTINUOUS
 10
5.228520
 20
4.814480
  0
VERTEX
  8
0
 62
     1
  6
CONTINUOUS
 10
5.227200
 20
4.080120
  0
VERTEX
  8
0
 62
     1
  6
CONTINUOUS
 10
4.976840
 20
4.080120
  0
SEQEND
  8
0
  0
SOLID
  8
0
 62
    15
 10
5.227200
 20
4.080120
 11
5.228520
 21
4.814480
 12
5.228080
 22
4.080560
 13
5.228960
 23
4.814920
  0
POLYLINE
  8
0
 62
     1
  6
CONTINUOUS
 66
     1
 40
0.000000
 41
0.000000
  0
VERTEX
  8
0
 62
     1
  6
CONTINUOUS
 10
5.227200
 20
4.080120
  0
VERTEX
  8
0
 62
     1
  6
CONTINUOUS
 10
5.228520
 20
4.814480
  0
VERTEX
  8
0
 62
     1
  6
CONTINUOUS
 10
5.228960
 20
4.814920
  0
VERTEX
  8
0
 62
     1
  6
CONTINUOUS
 10
5.228080
 20
4.080560
  0
VERTEX
  8
0
 62
     1
  6
CONTINUOUS
 10
5.227200
 20
4.080120
  0
SEQEND
  8
0
  0
SOLID
  8
0
 62
    15
 10
5.228080
 20
4.080560
 11
5.228960
 21
4.814920
 12
5.238640
 22
4.045800
 13
5.239520
 23
4.780160
  0
POLYLINE
  8
0
 62
     1
  6
CONTINUOUS
 66
     1
 40
0.000000
 41
0.000000
  0
VERTEX
  8
0
 62
     1
  6
CONTINUOUS
 10
5.228080
 20
4.080560
  0
VERTEX
  8
0
 62
     1
  6
CONTINUOUS
 10
5.228960
 20
4.814920
  0
VERTEX
  8
0
 62
     1
  6
CONTINUOUS
 10
5.239520
 20
4.780160
  0
VERTEX
  8
0
 62
     1
  6
CONTINUOUS
 10
5.238640
 20
4.045800
  0
VERTEX
  8
0
 62
     1
  6
CONTINUOUS
 10
5.228080
 20
4.080560
  0
SEQEND
  8
0
  0
SOLID
  8
0
 62
    15
 10
5.238640
 20
4.045800
 11
5.239520
 21
4.780160
 12
5.254920
 22
4.014120
 13
5.255800
 23
4.748480
  0
POLYLINE
  8
0
 62
     1
  6
CONTINUOUS
 66
     1
 40
0.000000
 41
0.000000
  0
VERTEX
  8
0
 62
     1
  6
CONTINUOUS
 10
5.238640
 20
4.045800
  0
VERTEX
  8
0
 62
     1
  6
CONTINUOUS
 10
5.239520
 20
4.780160
  0
VERTEX
  8
0
 62
     1
  6
CONTINUOUS
 10
5.255800
 20
4.748480
  0
VERTEX
  8
0
 62
     1
  6
CONTINUOUS
 10
5.254920
 20
4.014120
  0
VERTEX
  8
0
 62
     1
  6
CONTINUOUS
 10
5.238640
 20
4.045800
  0
SEQEND
  8
0
  0
SOLID
  8
0
 62
    15
 10
5.254920
 20
4.014120
 11
5.255800
 21
4.748480
 12
5.276040
 22
3.985960
 13
5.276920
 23
4.720320
  0
POLYLINE
  8
0
 62
     1
  6
CONTINUOUS
 66
     1
 40
0.000000
 41
0.000000
  0
VERTEX
  8
0
 62
     1
  6
CONTINUOUS
 10
5.254920
 20
4.014120
  0
VERTEX
  8
0
 62
     1
  6
CONTINUOUS
 10
5.255800
 20
4.748480
  0
VERTEX
  8
0
 62
     1
  6
CONTINUOUS
 10
5.276920
 20
4.720320
  0
VERTEX
  8
0
 62
     1
  6
CONTINUOUS
 10
5.276040
 20
3.985960
  0
VERTEX
  8
0
 62
     1
  6
CONTINUOUS
 10
5.254920
 20
4.014120
  0
SEQEND
  8
0
  0
SOLID
  8
0
 62
    15
 10
5.276040
 20
3.985960
 11
5.276920
 21
4.720320
 12
5.301560
 22
3.961320
 13
5.302440
 23
4.695680
  0
POLYLINE
  8
0
 62
     1
  6
CONTINUOUS
 66
     1
 40
0.000000
 41
0.000000
  0
VERTEX
  8
0
 62
     1
  6
CONTINUOUS
 10
5.276040
 20
3.985960
  0
VERTEX
  8
0
 62
     1
  6
CONTINUOUS
 10
5.276920
 20
4.720320
  0
VERTEX
  8
0
 62
     1
  6
CONTINUOUS
 10
5.302440
 20
4.695680
  0
VERTEX
  8
0
 62
     1
  6
CONTINUOUS
 10
5.301560
 20
3.961320
  0
VERTEX
  8
0
 62
     1
  6
CONTINUOUS
 10
5.276040
 20
3.985960
  0
SEQEND
  8
0
  0
SOLID
  8
0
 62
    15
 10
5.301560
 20
3.961320
 11
5.302440
 21
4.695680
 12
5.330600
 22
3.941520
 13
5.331480
 23
4.675880
  0
POLYLINE
  8
0
 62
     1
  6
CONTINUOUS
 66
     1
 40
0.000000
 41
0.000000
  0
VERTEX
  8
0
 62
     1
  6
CONTINUOUS
 10
5.301560
 20
3.961320
  0
VERTEX
  8
0
 62
     1
  6
CONTINUOUS
 10
5.302440
 20
4.695680
  0
VERTEX
  8
0
 62
     1
  6
CONTINUOUS
 10
5.331480
 20
4.675880
  0
VERTEX
  8
0
 62
     1
  6
CONTINUOUS
 10
5.330600
 20
3.941520
  0
VERTEX
  8
0
 62
     1
  6
CONTINUOUS
 10
5.301560
 20
3.961320
  0
SEQEND
  8
0
  0
SOLID
  8
0
 62
    15
 10
5.330600
 20
3.941520
 11
5.331480
 21
4.675880
 12
5.363160
 22
3.926560
 13
5.364040
 23
4.660920
  0
POLYLINE
  8
0
 62
     1
  6
CONTINUOUS
 66
     1
 40
0.000000
 41
0.000000
  0
VERTEX
  8
0
 62
     1
  6
CONTINUOUS
 10
5.330600
 20
3.941520
  0
VERTEX
  8
0
 62
     1
  6
CONTINUOUS
 10
5.331480
 20
4.675880
  0
VERTEX
  8
0
 62
     1
  6
CONTINUOUS
 10
5.364040
 20
4.660920
  0
VERTEX
  8
0
 62
     1
  6
CONTINUOUS
 10
5.363160
 20
3.926560
  0
VERTEX
  8
0
 62
     1
  6
CONTINUOUS
 10
5.330600
 20
3.941520
  0
SEQEND
  8
0
  0
SOLID
  8
0
 62
    15
 10
5.363160
 20
3.926560
 11
5.364040
 21
4.660920
 12
5.398360
 22
3.917320
 13
5.399240
 23
4.651680
  0
POLYLINE
  8
0
 62
     1
  6
CONTINUOUS
 66
     1
 40
0.000000
 41
0.000000
  0
VERTEX
  8
0
 62
     1
  6
CONTINUOUS
 10
5.363160
 20
3.926560
  0
VERTEX
  8
0
 62
     1
  6
CONTINUOUS
 10
5.364040
 20
4.660920
  0
VERTEX
  8
0
 62
     1
  6
CONTINUOUS
 10
5.399240
 20
4.651680
  0
VERTEX
  8
0
 62
     1
  6
CONTINUOUS
 10
5.398360
 20
3.917320
  0
VERTEX
  8
0
 62
     1
  6
CONTINUOUS
 10
5.363160
 20
3.926560
  0
SEQEND
  8
0
  0
SOLID
  8
0
 62
    15
 10
5.398360
 20
3.917320
 11
5.399240
 21
4.651680
 12
5.435320
 22
3.913800
 13
5.436200
 23
4.648160
  0
POLYLINE
  8
0
 62
     1
  6
CONTINUOUS
 66
     1
 40
0.000000
 41
0.000000
  0
VERTEX
  8
0
 62
     1
  6
CONTINUOUS
 10
5.398360
 20
3.917320
  0
VERTEX
  8
0
 62
     1
  6
CONTINUOUS
 10
5.399240
 20
4.651680
  0
VERTEX
  8
0
 62
     1
  6
CONTINUOUS
 10
5.436200
 20
4.648160
  0
VERTEX
  8
0
 62
     1
  6
CONTINUOUS
 10
5.435320
 20
3.913800
  0
VERTEX
  8
0
 62
     1
  6
CONTINUOUS
 10
5.398360
 20
3.917320
  0
SEQEND
  8
0
  0
SOLID
  8
0
 62
    15
 10
5.435320
 20
3.913800
 11
5.436200
 21
4.648160
 12
5.472280
 22
3.917320
 13
5.473160
 23
4.651680
  0
POLYLINE
  8
0
 62
     1
  6
CONTINUOUS
 66
     1
 40
0.000000
 41
0.000000
  0
VERTEX
  8
0
 62
     1
  6
CONTINUOUS
 10
5.435320
 20
3.913800
  0
VERTEX
  8
0
 62
     1
  6
CONTINUOUS
 10
5.436200
 20
4.648160
  0
VERTEX
  8
0
 62
     1
  6
CONTINUOUS
 10
5.473160
 20
4.651680
  0
VERTEX
  8
0
 62
     1
  6
CONTINUOUS
 10
5.472280
 20
3.917320
  0
VERTEX
  8
0
 62
     1
  6
CONTINUOUS
 10
5.435320
 20
3.913800
  0
SEQEND
  8
0
  0
SOLID
  8
0
 62
    15
 10
5.472280
 20
3.917320
 11
5.473160
 21
4.651680
 12
5.507480
 22
3.927000
 13
5.508360
 23
4.661360
  0
POLYLINE
  8
0
 62
     1
  6
CONTINUOUS
 66
     1
 40
0.000000
 41
0.000000
  0
VERTEX
  8
0
 62
     1
  6
CONTINUOUS
 10
5.472280
 20
3.917320
  0
VERTEX
  8
0
 62
     1
  6
CONTINUOUS
 10
5.473160
 20
4.651680
  0
VERTEX
  8
0
 62
     1
  6
CONTINUOUS
 10
5.508360
 20
4.661360
  0
VERTEX
  8
0
 62
     1
  6
CONTINUOUS
 10
5.507480
 20
3.927000
  0
VERTEX
  8
0
 62
     1
  6
CONTINUOUS
 10
5.472280
 20
3.917320
  0
SEQEND
  8
0
  0
SOLID
  8
0
 62
    15
 10
5.507480
 20
3.927000
 11
5.508360
 21
4.661360
 12
5.539600
 22
3.941960
 13
5.540480
 23
4.676760
  0
POLYLINE
  8
0
 62
     1
  6
CONTINUOUS
 66
     1
 40
0.000000
 41
0.000000
  0
VERTEX
  8
0
 62
     1
  6
CONTINUOUS
 10
5.507480
 20
3.927000
  0
VERTEX
  8
0
 62
     1
  6
CONTINUOUS
 10
5.508360
 20
4.661360
  0
VERTEX
  8
0
 62
     1
  6
CONTINUOUS
 10
5.540480
 20
4.676760
  0
VERTEX
  8
0
 62
     1
  6
CONTINUOUS
 10
5.539600
 20
3.941960
  0
VERTEX
  8
0
 62
     1
  6
CONTINUOUS
 10
5.507480
 20
3.927000
  0
SEQEND
  8
0
  0
SOLID
  8
0
 62
    15
 10
5.539600
 20
3.941960
 11
5.540480
 21
4.676760
 12
5.568640
 22
3.962200
 13
5.569520
 23
4.696560
  0
POLYLINE
  8
0
 62
     1
  6
CONTINUOUS
 66
     1
 40
0.000000
 41
0.000000
  0
VERTEX
  8
0
 62
     1
  6
CONTINUOUS
 10
5.539600
 20
3.941960
  0
VERTEX
  8
0
 62
     1
  6
CONTINUOUS
 10
5.540480
 20
4.676760
  0
VERTEX
  8
0
 62
     1
  6
CONTINUOUS
 10
5.569520
 20
4.696560
  0
VERTEX
  8
0
 62
     1
  6
CONTINUOUS
 10
5.568640
 20
3.962200
  0
VERTEX
  8
0
 62
     1
  6
CONTINUOUS
 10
5.539600
 20
3.941960
  0
SEQEND
  8
0
  0
SOLID
  8
0
 62
    15
 10
5.568640
 20
3.962200
 11
5.569520
 21
4.696560
 12
5.594160
 22
3.986840
 13
5.595040
 23
4.721200
  0
POLYLINE
  8
0
 62
     1
  6
CONTINUOUS
 66
     1
 40
0.000000
 41
0.000000
  0
VERTEX
  8
0
 62
     1
  6
CONTINUOUS
 10
5.568640
 20
3.962200
  0
VERTEX
  8
0
 62
     1
  6
CONTINUOUS
 10
5.569520
 20
4.696560
  0
VERTEX
  8
0
 62
     1
  6
CONTINUOUS
 10
5.595040
 20
4.721200
  0
VERTEX
  8
0
 62
     1
  6
CONTINUOUS
 10
5.594160
 20
3.986840
  0
VERTEX
  8
0
 62
     1
  6
CONTINUOUS
 10
5.568640
 20
3.962200
  0
SEQEND
  8
0
  0
SOLID
  8
0
 62
    15
 10
5.594160
 20
3.986840
 11
5.595040
 21
4.721200
 12
5.615280
 22
4.015440
 13
5.616160
 23
4.749800
  0
POLYLINE
  8
0
 62
     1
  6
CONTINUOUS
 66
     1
 40
0.000000
 41
0.000000
  0
VERTEX
  8
0
 62
     1
  6
CONTINUOUS
 10
5.594160
 20
3.986840
  0
VERTEX
  8
0
 62
     1
  6
CONTINUOUS
 10
5.595040
 20
4.721200
  0
VERTEX
  8
0
 62
     1
  6
CONTINUOUS
 10
5.616160
 20
4.749800
  0
VERTEX
  8
0
 62
     1
  6
CONTINUOUS
 10
5.615280
 20
4.015440
  0
VERTEX
  8
0
 62
     1
  6
CONTINUOUS
 10
5.594160
 20
3.986840
  0
SEQEND
  8
0
  0
SOLID
  8
0
 62
    15
 10
5.615280
 20
4.015440
 11
5.616160
 21
4.749800
 12
5.631560
 22
4.046680
 13
5.632440
 23
4.781040
  0
POLYLINE
  8
0
 62
     1
  6
CONTINUOUS
 66
     1
 40
0.000000
 41
0.000000
  0
VERTEX
  8
0
 62
     1
  6
CONTINUOUS
 10
5.615280
 20
4.015440
  0
VERTEX
  8
0
 62
     1
  6
CONTINUOUS
 10
5.616160
 20
4.749800
  0
VERTEX
  8
0
 62
     1
  6
CONTINUOUS
 10
5.632440
 20
4.781040
  0
VERTEX
  8
0
 62
     1
  6
CONTINUOUS
 10
5.631560
 20
4.046680
  0
VERTEX
  8
0
 62
     1
  6
CONTINUOUS
 10
5.615280
 20
4.015440
  0
SEQEND
  8
0
  0
SOLID
  8
0
 62
    15
 10
5.631560
 20
4.046680
 11
5.632440
 21
4.781040
 12
5.642560
 22
4.080120
 13
5.643440
 23
4.814480
  0
POLYLINE
  8
0
 62
     1
  6
CONTINUOUS
 66
     1
 40
0.000000
 41
0.000000
  0
VERTEX
  8
0
 62
     1
  6
CONTINUOUS
 10
5.631560
 20
4.046680
  0
VERTEX
  8
0
 62
     1
  6
CONTINUOUS
 10
5.632440
 20
4.781040
  0
VERTEX
  8
0
 62
     1
  6
CONTINUOUS
 10
5.643440
 20
4.814480
  0
VERTEX
  8
0
 62
     1
  6
CONTINUOUS
 10
5.642560
 20
4.080120
  0
VERTEX
  8
0
 62
     1
  6
CONTINUOUS
 10
5.631560
 20
4.046680
  0
SEQEND
  8
0
  0
SOLID
  8
0
 62
    15
 10
5.642560
 20
4.080120
 11
5.643440
 21
4.814480
 12
5.892920
 22
4.080120
 13
5.893800
 23
4.814480
  0
POLYLINE
  8
0
 62
     1
  6
CONTINUOUS
 66
     1
 40
0.000000
 41
0.000000
  0
VERTEX
  8
0
 62
     1
  6
CONTINUOUS
 10
5.642560
 20
4.080120
  0
VERTEX
  8
0
 62
     1
  6
CONTINUOUS
 10
5.643440
 20
4.814480
  0
VERTEX
  8
0
 62
     1
  6
CONTINUOUS
 10
5.893800
 20
4.814480
  0
VERTEX
  8
0
 62
     1
  6
CONTINUOUS
 10
5.892920
 20
4.080120
  0
VERTEX
  8
0
 62
     1
  6
CONTINUOUS
 10
5.642560
 20
4.080120
  0
SEQEND
  8
0
  0
SOLID
  8
0
 62
    15
 10
5.904360
 20
4.045800
 11
5.905240
 21
4.780160
 12
5.920640
 22
4.014120
 13
5.921520
 23
4.748480
  0
POLYLINE
  8
0
 62
     1
  6
CONTINUOUS
 66
     1
 40
0.000000
 41
0.000000
  0
VERTEX
  8
0
 62
     1
  6
CONTINUOUS
 10
5.904360
 20
4.045800
  0
VERTEX
  8
0
 62
     1
  6
CONTINUOUS
 10
5.905240
 20
4.780160
  0
VERTEX
  8
0
 62
     1
  6
CONTINUOUS
 10
5.921520
 20
4.748480
  0
VERTEX
  8
0
 62
     1
  6
CONTINUOUS
 10
5.920640
 20
4.014120
  0
VERTEX
  8
0
 62
     1
  6
CONTINUOUS
 10
5.904360
 20
4.045800
  0
SEQEND
  8
0
  0
SOLID
  8
0
 62
    15
 10
5.893800
 20
4.080560
 11
5.894680
 21
4.814920
 12
5.904360
 22
4.045800
 13
5.905240
 23
4.780160
  0
POLYLINE
  8
0
 62
     1
  6
CONTINUOUS
 66
     1
 40
0.000000
 41
0.000000
  0
VERTEX
  8
0
 62
     1
  6
CONTINUOUS
 10
5.893800
 20
4.080560
  0
VERTEX
  8
0
 62
     1
  6
CONTINUOUS
 10
5.894680
 20
4.814920
  0
VERTEX
  8
0
 62
     1
  6
CONTINUOUS
 10
5.905240
 20
4.780160
  0
VERTEX
  8
0
 62
     1
  6
CONTINUOUS
 10
5.904360
 20
4.045800
  0
VERTEX
  8
0
 62
     1
  6
CONTINUOUS
 10
5.893800
 20
4.080560
  0
SEQEND
  8
0
  0
SOLID
  8
0
 62
    15
 10
5.892920
 20
4.080120
 11
5.893800
 21
4.814480
 12
5.893800
 22
4.080560
 13
5.894680
 23
4.814920
  0
POLYLINE
  8
0
 62
     1
  6
CONTINUOUS
 66
     1
 40
0.000000
 41
0.000000
  0
VERTEX
  8
0
 62
     1
  6
CONTINUOUS
 10
5.892920
 20
4.080120
  0
VERTEX
  8
0
 62
     1
  6
CONTINUOUS
 10
5.893800
 20
4.814480
  0
VERTEX
  8
0
 62
     1
  6
CONTINUOUS
 10
5.894680
 20
4.814920
  0
VERTEX
  8
0
 62
     1
  6
CONTINUOUS
 10
5.893800
 20
4.080560
  0
VERTEX
  8
0
 62
     1
  6
CONTINUOUS
 10
5.892920
 20
4.080120
  0
SEQEND
  8
0
  0
SOLID
  8
0
 62
    15
 10
5.920640
 20
4.014120
 11
5.921520
 21
4.748480
 12
5.941760
 22
3.985960
 13
5.942640
 23
4.720320
  0
POLYLINE
  8
0
 62
     1
  6
CONTINUOUS
 66
     1
 40
0.000000
 41
0.000000
  0
VERTEX
  8
0
 62
     1
  6
CONTINUOUS
 10
5.920640
 20
4.014120
  0
VERTEX
  8
0
 62
     1
  6
CONTINUOUS
 10
5.921520
 20
4.748480
  0
VERTEX
  8
0
 62
     1
  6
CONTINUOUS
 10
5.942640
 20
4.720320
  0
VERTEX
  8
0
 62
     1
  6
CONTINUOUS
 10
5.941760
 20
3.985960
  0
VERTEX
  8
0
 62
     1
  6
CONTINUOUS
 10
5.920640
 20
4.014120
  0
SEQEND
  8
0
  0
SOLID
  8
0
 62
    15
 10
5.941760
 20
3.985960
 11
5.942640
 21
4.720320
 12
5.967280
 22
3.961320
 13
5.968160
 23
4.695680
  0
POLYLINE
  8
0
 62
     1
  6
CONTINUOUS
 66
     1
 40
0.000000
 41
0.000000
  0
VERTEX
  8
0
 62
     1
  6
CONTINUOUS
 10
5.941760
 20
3.985960
  0
VERTEX
  8
0
 62
     1
  6
CONTINUOUS
 10
5.942640
 20
4.720320
  0
VERTEX
  8
0
 62
     1
  6
CONTINUOUS
 10
5.968160
 20
4.695680
  0
VERTEX
  8
0
 62
     1
  6
CONTINUOUS
 10
5.967280
 20
3.961320
  0
VERTEX
  8
0
 62
     1
  6
CONTINUOUS
 10
5.941760
 20
3.985960
  0
SEQEND
  8
0
  0
SOLID
  8
0
 62
    15
 10
5.967280
 20
3.961320
 11
5.968160
 21
4.695680
 12
5.996320
 22
3.941520
 13
5.997200
 23
4.675880
  0
POLYLINE
  8
0
 62
     1
  6
CONTINUOUS
 66
     1
 40
0.000000
 41
0.000000
  0
VERTEX
  8
0
 62
     1
  6
CONTINUOUS
 10
5.967280
 20
3.961320
  0
VERTEX
  8
0
 62
     1
  6
CONTINUOUS
 10
5.968160
 20
4.695680
  0
VERTEX
  8
0
 62
     1
  6
CONTINUOUS
 10
5.997200
 20
4.675880
  0
VERTEX
  8
0
 62
     1
  6
CONTINUOUS
 10
5.996320
 20
3.941520
  0
VERTEX
  8
0
 62
     1
  6
CONTINUOUS
 10
5.967280
 20
3.961320
  0
SEQEND
  8
0
  0
SOLID
  8
0
 62
    15
 10
5.996320
 20
3.941520
 11
5.997200
 21
4.675880
 12
6.028880
 22
3.926560
 13
6.029760
 23
4.660920
  0
POLYLINE
  8
0
 62
     1
  6
CONTINUOUS
 66
     1
 40
0.000000
 41
0.000000
  0
VERTEX
  8
0
 62
     1
  6
CONTINUOUS
 10
5.996320
 20
3.941520
  0
VERTEX
  8
0
 62
     1
  6
CONTINUOUS
 10
5.997200
 20
4.675880
  0
VERTEX
  8
0
 62
     1
  6
CONTINUOUS
 10
6.029760
 20
4.660920
  0
VERTEX
  8
0
 62
     1
  6
CONTINUOUS
 10
6.028880
 20
3.926560
  0
VERTEX
  8
0
 62
     1
  6
CONTINUOUS
 10
5.996320
 20
3.941520
  0
SEQEND
  8
0
  0
SOLID
  8
0
 62
    15
 10
6.028880
 20
3.926560
 11
6.029760
 21
4.660920
 12
6.063640
 22
3.917320
 13
6.064960
 23
4.651680
  0
POLYLINE
  8
0
 62
     1
  6
CONTINUOUS
 66
     1
 40
0.000000
 41
0.000000
  0
VERTEX
  8
0
 62
     1
  6
CONTINUOUS
 10
6.028880
 20
3.926560
  0
VERTEX
  8
0
 62
     1
  6
CONTINUOUS
 10
6.029760
 20
4.660920
  0
VERTEX
  8
0
 62
     1
  6
CONTINUOUS
 10
6.064960
 20
4.651680
  0
VERTEX
  8
0
 62
     1
  6
CONTINUOUS
 10
6.063640
 20
3.917320
  0
VERTEX
  8
0
 62
     1
  6
CONTINUOUS
 10
6.028880
 20
3.926560
  0
SEQEND
  8
0
  0
SOLID
  8
0
 62
    15
 10
6.063640
 20
3.917320
 11
6.064960
 21
4.651680
 12
6.101040
 22
3.913800
 13
6.101920
 23
4.648160
  0
POLYLINE
  8
0
 62
     1
  6
CONTINUOUS
 66
     1
 40
0.000000
 41
0.000000
  0
VERTEX
  8
0
 62
     1
  6
CONTINUOUS
 10
6.063640
 20
3.917320
  0
VERTEX
  8
0
 62
     1
  6
CONTINUOUS
 10
6.064960
 20
4.651680
  0
VERTEX
  8
0
 62
     1
  6
CONTINUOUS
 10
6.101920
 20
4.648160
  0
VERTEX
  8
0
 62
     1
  6
CONTINUOUS
 10
6.101040
 20
3.913800
  0
VERTEX
  8
0
 62
     1
  6
CONTINUOUS
 10
6.063640
 20
3.917320
  0
SEQEND
  8
0
  0
SOLID
  8
0
 62
    15
 10
6.101040
 20
3.913800
 11
6.101920
 21
4.648160
 12
6.138000
 22
3.917320
 13
6.138880
 23
4.651680
  0
POLYLINE
  8
0
 62
     1
  6
CONTINUOUS
 66
     1
 40
0.000000
 41
0.000000
  0
VERTEX
  8
0
 62
     1
  6
CONTINUOUS
 10
6.101040
 20
3.913800
  0
VERTEX
  8
0
 62
     1
  6
CONTINUOUS
 10
6.101920
 20
4.648160
  0
VERTEX
  8
0
 62
     1
  6
CONTINUOUS
 10
6.138880
 20
4.651680
  0
VERTEX
  8
0
 62
     1
  6
CONTINUOUS
 10
6.138000
 20
3.917320
  0
VERTEX
  8
0
 62
     1
  6
CONTINUOUS
 10
6.101040
 20
3.913800
  0
SEQEND
  8
0
  0
SOLID
  8
0
 62
    15
 10
6.138000
 20
3.917320
 11
6.138880
 21
4.651680
 12
6.173200
 22
3.927000
 13
6.174080
 23
4.661360
  0
POLYLINE
  8
0
 62
     1
  6
CONTINUOUS
 66
     1
 40
0.000000
 41
0.000000
  0
VERTEX
  8
0
 62
     1
  6
CONTINUOUS
 10
6.138000
 20
3.917320
  0
VERTEX
  8
0
 62
     1
  6
CONTINUOUS
 10
6.138880
 20
4.651680
  0
VERTEX
  8
0
 62
     1
  6
CONTINUOUS
 10
6.174080
 20
4.661360
  0
VERTEX
  8
0
 62
     1
  6
CONTINUOUS
 10
6.173200
 20
3.927000
  0
VERTEX
  8
0
 62
     1
  6
CONTINUOUS
 10
6.138000
 20
3.917320
  0
SEQEND
  8
0
  0
SOLID
  8
0
 62
    15
 10
6.173200
 20
3.927000
 11
6.174080
 21
4.661360
 12
6.205320
 22
3.941960
 13
6.206200
 23
4.676320
  0
POLYLINE
  8
0
 62
     1
  6
CONTINUOUS
 66
     1
 40
0.000000
 41
0.000000
  0
VERTEX
  8
0
 62
     1
  6
CONTINUOUS
 10
6.173200
 20
3.927000
  0
VERTEX
  8
0
 62
     1
  6
CONTINUOUS
 10
6.174080
 20
4.661360
  0
VERTEX
  8
0
 62
     1
  6
CONTINUOUS
 10
6.206200
 20
4.676320
  0
VERTEX
  8
0
 62
     1
  6
CONTINUOUS
 10
6.205320
 20
3.941960
  0
VERTEX
  8
0
 62
     1
  6
CONTINUOUS
 10
6.173200
 20
3.927000
  0
SEQEND
  8
0
  0
SOLID
  8
0
 62
    15
 10
6.205320
 20
3.941960
 11
6.206200
 21
4.676320
 12
6.234360
 22
3.962200
 13
6.235240
 23
4.696560
  0
POLYLINE
  8
0
 62
     1
  6
CONTINUOUS
 66
     1
 40
0.000000
 41
0.000000
  0
VERTEX
  8
0
 62
     1
  6
CONTINUOUS
 10
6.205320
 20
3.941960
  0
VERTEX
  8
0
 62
     1
  6
CONTINUOUS
 10
6.206200
 20
4.676320
  0
VERTEX
  8
0
 62
     1
  6
CONTINUOUS
 10
6.235240
 20
4.696560
  0
VERTEX
  8
0
 62
     1
  6
CONTINUOUS
 10
6.234360
 20
3.962200
  0
VERTEX
  8
0
 62
     1
  6
CONTINUOUS
 10
6.205320
 20
3.941960
  0
SEQEND
  8
0
  0
SOLID
  8
0
 62
    15
 10
6.234360
 20
3.962200
 11
6.235240
 21
4.696560
 12
6.259880
 22
3.986840
 13
6.260760
 23
4.721200
  0
POLYLINE
  8
0
 62
     1
  6
CONTINUOUS
 66
     1
 40
0.000000
 41
0.000000
  0
VERTEX
  8
0
 62
     1
  6
CONTINUOUS
 10
6.234360
 20
3.962200
  0
VERTEX
  8
0
 62
     1
  6
CONTINUOUS
 10
6.235240
 20
4.696560
  0
VERTEX
  8
0
 62
     1
  6
CONTINUOUS
 10
6.260760
 20
4.721200
  0
VERTEX
  8
0
 62
     1
  6
CONTINUOUS
 10
6.259880
 20
3.986840
  0
VERTEX
  8
0
 62
     1
  6
CONTINUOUS
 10
6.234360
 20
3.962200
  0
SEQEND
  8
0
  0
SOLID
  8
0
 62
    15
 10
6.259880
 20
3.986840
 11
6.260760
 21
4.721200
 12
6.281000
 22
4.015000
 13
6.281880
 23
4.749360
  0
POLYLINE
  8
0
 62
     1
  6
CONTINUOUS
 66
     1
 40
0.000000
 41
0.000000
  0
VERTEX
  8
0
 62
     1
  6
CONTINUOUS
 10
6.259880
 20
3.986840
  0
VERTEX
  8
0
 62
     1
  6
CONTINUOUS
 10
6.260760
 20
4.721200
  0
VERTEX
  8
0
 62
     1
  6
CONTINUOUS
 10
6.281880
 20
4.749360
  0
VERTEX
  8
0
 62
     1
  6
CONTINUOUS
 10
6.281000
 20
4.015000
  0
VERTEX
  8
0
 62
     1
  6
CONTINUOUS
 10
6.259880
 20
3.986840
  0
SEQEND
  8
0
  0
SOLID
  8
0
 62
    15
 10
6.281000
 20
4.015000
 11
6.281880
 21
4.749360
 12
6.297280
 22
4.046680
 13
6.298160
 23
4.781040
  0
POLYLINE
  8
0
 62
     1
  6
CONTINUOUS
 66
     1
 40
0.000000
 41
0.000000
  0
VERTEX
  8
0
 62
     1
  6
CONTINUOUS
 10
6.281000
 20
4.015000
  0
VERTEX
  8
0
 62
     1
  6
CONTINUOUS
 10
6.281880
 20
4.749360
  0
VERTEX
  8
0
 62
     1
  6
CONTINUOUS
 10
6.298160
 20
4.781040
  0
VERTEX
  8
0
 62
     1
  6
CONTINUOUS
 10
6.297280
 20
4.046680
  0
VERTEX
  8
0
 62
     1
  6
CONTINUOUS
 10
6.281000
 20
4.015000
  0
SEQEND
  8
0
  0
SOLID
  8
0
 62
    15
 10
6.297280
 20
4.046680
 11
6.298160
 21
4.781040
 12
6.307840
 22
4.080120
 13
6.309160
 23
4.814480
  0
POLYLINE
  8
0
 62
     1
  6
CONTINUOUS
 66
     1
 40
0.000000
 41
0.000000
  0
VERTEX
  8
0
 62
     1
  6
CONTINUOUS
 10
6.297280
 20
4.046680
  0
VERTEX
  8
0
 62
     1
  6
CONTINUOUS
 10
6.298160
 20
4.781040
  0
VERTEX
  8
0
 62
     1
  6
CONTINUOUS
 10
6.309160
 20
4.814480
  0
VERTEX
  8
0
 62
     1
  6
CONTINUOUS
 10
6.307840
 20
4.080120
  0
VERTEX
  8
0
 62
     1
  6
CONTINUOUS
 10
6.297280
 20
4.046680
  0
SEQEND
  8
0
  0
SOLID
  8
0
 62
    15
 10
6.307840
 20
4.080120
 11
6.309160
 21
4.814480
 12
6.558640
 22
4.080120
 13
6.559520
 23
4.814480
  0
POLYLINE
  8
0
 62
     1
  6
CONTINUOUS
 66
     1
 40
0.000000
 41
0.000000
  0
VERTEX
  8
0
 62
     1
  6
CONTINUOUS
 10
6.307840
 20
4.080120
  0
VERTEX
  8
0
 62
     1
  6
CONTINUOUS
 10
6.309160
 20
4.814480
  0
VERTEX
  8
0
 62
     1
  6
CONTINUOUS
 10
6.559520
 20
4.814480
  0
VERTEX
  8
0
 62
     1
  6
CONTINUOUS
 10
6.558640
 20
4.080120
  0
VERTEX
  8
0
 62
     1
  6
CONTINUOUS
 10
6.307840
 20
4.080120
  0
SEQEND
  8
0
  0
SOLID
  8
0
 62
    15
 10
6.558640
 20
4.080120
 11
6.559520
 21
4.814480
 12
6.561720
 22
4.081440
 13
6.562600
 23
4.815800
  0
POLYLINE
  8
0
 62
     1
  6
CONTINUOUS
 66
     1
 40
0.000000
 41
0.000000
  0
VERTEX
  8
0
 62
     1
  6
CONTINUOUS
 10
6.558640
 20
4.080120
  0
VERTEX
  8
0
 62
     1
  6
CONTINUOUS
 10
6.559520
 20
4.814480
  0
VERTEX
  8
0
 62
     1
  6
CONTINUOUS
 10
6.562600
 20
4.815800
  0
VERTEX
  8
0
 62
     1
  6
CONTINUOUS
 10
6.561720
 20
4.081440
  0
VERTEX
  8
0
 62
     1
  6
CONTINUOUS
 10
6.558640
 20
4.080120
  0
SEQEND
  8
0
  0
POLYLINE
  8
0
 62
     1
  6
CONTINUOUS
 66
     1
 40
0.000000
 41
0.000000
  0
VERTEX
  8
0
 62
     1
  6
CONTINUOUS
 10
6.561720
 20
4.081440
  0
VERTEX
  8
0
 62
     1
  6
CONTINUOUS
 10
6.561720
 20
3.333880
  0
VERTEX
  8
0
 62
     1
  6
CONTINUOUS
 10
1.651760
 20
3.333880
  0
VERTEX
  8
0
 62
     1
  6
CONTINUOUS
 10
1.651760
 20
4.080120
  0
VERTEX
  8
0
 62
     1
  6
CONTINUOUS
 10
1.902120
 20
4.080120
  0
VERTEX
  8
0
 62
     1
  6
CONTINUOUS
 10
1.912680
 20
4.046240
  0
VERTEX
  8
0
 62
     1
  6
CONTINUOUS
 10
1.928960
 20
4.014560
  0
VERTEX
  8
0
 62
     1
  6
CONTINUOUS
 10
1.950080
 20
3.985960
  0
VERTEX
  8
0
 62
     1
  6
CONTINUOUS
 10
1.975600
 20
3.961760
  0
VERTEX
  8
0
 62
     1
  6
CONTINUOUS
 10
2.004640
 20
3.941520
  0
VERTEX
  8
0
 62
     1
  6
CONTINUOUS
 10
2.037200
 20
3.926560
  0
VERTEX
  8
0
 62
     1
  6
CONTINUOUS
 10
2.071960
 20
3.917320
  0
VERTEX
  8
0
 62
     1
  6
CONTINUOUS
 10
2.109360
 20
3.914240
  0
VERTEX
  8
0
 62
     1
  6
CONTINUOUS
 10
2.146320
 20
3.917320
  0
VERTEX
  8
0
 62
     1
  6
CONTINUOUS
 10
2.181080
 20
3.927000
  0
VERTEX
  8
0
 62
     1
  6
CONTINUOUS
 10
2.213640
 20
3.942400
  0
VERTEX
  8
0
 62
     1
  6
CONTINUOUS
 10
2.242680
 20
3.962640
  0
VERTEX
  8
0
 62
     1
  6
CONTINUOUS
 10
2.268200
 20
3.987280
  0
VERTEX
  8
0
 62
     1
  6
CONTINUOUS
 10
2.289320
 20
4.015440
  0
VERTEX
  8
0
 62
     1
  6
CONTINUOUS
 10
2.305600
 20
4.046680
  0
VERTEX
  8
0
 62
     1
  6
CONTINUOUS
 10
2.316160
 20
4.080560
  0
VERTEX
  8
0
 62
     1
  6
CONTINUOUS
 10
2.566960
 20
4.080560
  0
VERTEX
  8
0
 62
     1
  6
CONTINUOUS
 10
2.577520
 20
4.046240
  0
VERTEX
  8
0
 62
     1
  6
CONTINUOUS
 10
2.593800
 20
4.014560
  0
VERTEX
  8
0
 62
     1
  6
CONTINUOUS
 10
2.614920
 20
3.985960
  0
VERTEX
  8
0
 62
     1
  6
CONTINUOUS
 10
2.640440
 20
3.961760
  0
VERTEX
  8
0
 62
     1
  6
CONTINUOUS
 10
2.669480
 20
3.941520
  0
VERTEX
  8
0
 62
     1
  6
CONTINUOUS
 10
2.702040
 20
3.926560
  0
VERTEX
  8
0
 62
     1
  6
CONTINUOUS
 10
2.737240
 20
3.917320
  0
VERTEX
  8
0
 62
     1
  6
CONTINUOUS
 10
2.774200
 20
3.913800
  0
VERTEX
  8
0
 62
     1
  6
CONTINUOUS
 10
2.811160
 20
3.917320
  0
VERTEX
  8
0
 62
     1
  6
CONTINUOUS
 10
2.846360
 20
3.927000
  0
VERTEX
  8
0
 62
     1
  6
CONTINUOUS
 10
2.878480
 20
3.942400
  0
VERTEX
  8
0
 62
     1
  6
CONTINUOUS
 10
2.907520
 20
3.962640
  0
VERTEX
  8
0
 62
     1
  6
CONTINUOUS
 10
2.933040
 20
3.986840
  0
VERTEX
  8
0
 62
     1
  6
CONTINUOUS
 10
2.954160
 20
4.015440
  0
VERTEX
  8
0
 62
     1
  6
CONTINUOUS
 10
2.970440
 20
4.046680
  0
VERTEX
  8
0
 62
     1
  6
CONTINUOUS
 10
2.981440
 20
4.080560
  0
VERTEX
  8
0
 62
     1
  6
CONTINUOUS
 10
3.231800
 20
4.080560
  0
VERTEX
  8
0
 62
     1
  6
CONTINUOUS
 10
3.242800
 20
4.045800
  0
VERTEX
  8
0
 62
     1
  6
CONTINUOUS
 10
3.259080
 20
4.014120
  0
VERTEX
  8
0
 62
     1
  6
CONTINUOUS
 10
3.280200
 20
3.985960
  0
VERTEX
  8
0
 62
     1
  6
CONTINUOUS
 10
3.305280
 20
3.961320
  0
VERTEX
  8
0
 62
     1
  6
CONTINUOUS
 10
3.334760
 20
3.941520
  0
VERTEX
  8
0
 62
     1
  6
CONTINUOUS
 10
3.366880
 20
3.926560
  0
VERTEX
  8
0
 62
     1
  6
CONTINUOUS
 10
3.402080
 20
3.917320
  0
VERTEX
  8
0
 62
     1
  6
CONTINUOUS
 10
3.439480
 20
3.913800
  0
VERTEX
  8
0
 62
     1
  6
CONTINUOUS
 10
3.476440
 20
3.917320
  0
VERTEX
  8
0
 62
     1
  6
CONTINUOUS
 10
3.511200
 20
3.927000
  0
VERTEX
  8
0
 62
     1
  6
CONTINUOUS
 10
3.543320
 20
3.941960
  0
VERTEX
  8
0
 62
     1
  6
CONTINUOUS
 10
3.572800
 20
3.962200
  0
VERTEX
  8
0
 62
     1
  6
CONTINUOUS
 10
3.597880
 20
3.986840
  0
VERTEX
  8
0
 62
     1
  6
CONTINUOUS
 10
3.619000
 20
4.015000
  0
VERTEX
  8
0
 62
     1
  6
CONTINUOUS
 10
3.635280
 20
4.046680
  0
VERTEX
  8
0
 62
     1
  6
CONTINUOUS
 10
3.646280
 20
4.080120
  0
VERTEX
  8
0
 62
     1
  6
CONTINUOUS
 10
3.897080
 20
4.080560
  0
VERTEX
  8
0
 62
     1
  6
CONTINUOUS
 10
3.907640
 20
4.045800
  0
VERTEX
  8
0
 62
     1
  6
CONTINUOUS
 10
3.923920
 20
4.014120
  0
VERTEX
  8
0
 62
     1
  6
CONTINUOUS
 10
3.945040
 20
3.985960
  0
VERTEX
  8
0
 62
     1
  6
CONTINUOUS
 10
3.970120
 20
3.961320
  0
VERTEX
  8
0
 62
     1
  6
CONTINUOUS
 10
3.999600
 20
3.941520
  0
VERTEX
  8
0
 62
     1
  6
CONTINUOUS
 10
4.031720
 20
3.926560
  0
VERTEX
  8
0
 62
     1
  6
CONTINUOUS
 10
4.066920
 20
3.917320
  0
VERTEX
  8
0
 62
     1
  6
CONTINUOUS
 10
4.104320
 20
3.913800
  0
VERTEX
  8
0
 62
     1
  6
CONTINUOUS
 10
4.141280
 20
3.917320
  0
VERTEX
  8
0
 62
     1
  6
CONTINUOUS
 10
4.176040
 20
3.927000
  0
VERTEX
  8
0
 62
     1
  6
CONTINUOUS
 10
4.208600
 20
3.941960
  0
VERTEX
  8
0
 62
     1
  6
CONTINUOUS
 10
4.237640
 20
3.962200
  0
VERTEX
  8
0
 62
     1
  6
CONTINUOUS
 10
4.262720
 20
3.986840
  0
VERTEX
  8
0
 62
     1
  6
CONTINUOUS
 10
4.283840
 20
4.015000
  0
VERTEX
  8
0
 62
     1
  6
CONTINUOUS
 10
4.300120
 20
4.046680
  0
VERTEX
  8
0
 62
     1
  6
CONTINUOUS
 10
4.311120
 20
4.080120
  0
VERTEX
  8
0
 62
     1
  6
CONTINUOUS
 10
4.562360
 20
4.080560
  0
VERTEX
  8
0
 62
     1
  6
CONTINUOUS
 10
4.573360
 20
4.045800
  0
VERTEX
  8
0
 62
     1
  6
CONTINUOUS
 10
4.589200
 20
4.014120
  0
VERTEX
  8
0
 62
     1
  6
CONTINUOUS
 10
4.610320
 20
3.985960
  0
VERTEX
  8
0
 62
     1
  6
CONTINUOUS
 10
4.635840
 20
3.961320
  0
VERTEX
  8
0
 62
     1
  6
CONTINUOUS
 10
4.664880
 20
3.941520
  0
VERTEX
  8
0
 62
     1
  6
CONTINUOUS
 10
4.697440
 20
3.926560
  0
VERTEX
  8
0
 62
     1
  6
CONTINUOUS
 10
4.732640
 20
3.917320
  0
VERTEX
  8
0
 62
     1
  6
CONTINUOUS
 10
4.769600
 20
3.913800
  0
VERTEX
  8
0
 62
     1
  6
CONTINUOUS
 10
4.807000
 20
3.917320
  0
VERTEX
  8
0
 62
     1
  6
CONTINUOUS
 10
4.841760
 20
3.927000
  0
VERTEX
  8
0
 62
     1
  6
CONTINUOUS
 10
4.873880
 20
3.941960
  0
VERTEX
  8
0
 62
     1
  6
CONTINUOUS
 10
4.902920
 20
3.962200
  0
VERTEX
  8
0
 62
     1
  6
CONTINUOUS
 10
4.928440
 20
3.986840
  0
VERTEX
  8
0
 62
     1
  6
CONTINUOUS
 10
4.949560
 20
4.015000
  0
VERTEX
  8
0
 62
     1
  6
CONTINUOUS
 10
4.965840
 20
4.046680
  0
VERTEX
  8
0
 62
     1
  6
CONTINUOUS
 10
4.976840
 20
4.080120
  0
VERTEX
  8
0
 62
     1
  6
CONTINUOUS
 10
5.228080
 20
4.080560
  0
VERTEX
  8
0
 62
     1
  6
CONTINUOUS
 10
5.238640
 20
4.045800
  0
VERTEX
  8
0
 62
     1
  6
CONTINUOUS
 10
5.254920
 20
4.014120
  0
VERTEX
  8
0
 62
     1
  6
CONTINUOUS
 10
5.276040
 20
3.985960
  0
VERTEX
  8
0
 62
     1
  6
CONTINUOUS
 10
5.301560
 20
3.961320
  0
VERTEX
  8
0
 62
     1
  6
CONTINUOUS
 10
5.330600
 20
3.941520
  0
VERTEX
  8
0
 62
     1
  6
CONTINUOUS
 10
5.363160
 20
3.926560
  0
VERTEX
  8
0
 62
     1
  6
CONTINUOUS
 10
5.398360
 20
3.917320
  0
VERTEX
  8
0
 62
     1
  6
CONTINUOUS
 10
5.435320
 20
3.913800
  0
VERTEX
  8
0
 62
     1
  6
CONTINUOUS
 10
5.472280
 20
3.917320
  0
VERTEX
  8
0
 62
     1
  6
CONTINUOUS
 10
5.507480
 20
3.927000
  0
VERTEX
  8
0
 62
     1
  6
CONTINUOUS
 10
5.539600
 20
3.941960
  0
VERTEX
  8
0
 62
     1
  6
CONTINUOUS
 10
5.568640
 20
3.962200
  0
VERTEX
  8
0
 62
     1
  6
CONTINUOUS
 10
5.594160
 20
3.986840
  0
VERTEX
  8
0
 62
     1
  6
CONTINUOUS
 10
5.615280
 20
4.015440
  0
VERTEX
  8
0
 62
     1
  6
CONTINUOUS
 10
5.631560
 20
4.046680
  0
VERTEX
  8
0
 62
     1
  6
CONTINUOUS
 10
5.642560
 20
4.080120
  0
VERTEX
  8
0
 62
     1
  6
CONTINUOUS
 10
5.893800
 20
4.080560
  0
VERTEX
  8
0
 62
     1
  6
CONTINUOUS
 10
5.904360
 20
4.045800
  0
VERTEX
  8
0
 62
     1
  6
CONTINUOUS
 10
5.920640
 20
4.014120
  0
VERTEX
  8
0
 62
     1
  6
CONTINUOUS
 10
5.941760
 20
3.985960
  0
VERTEX
  8
0
 62
     1
  6
CONTINUOUS
 10
5.967280
 20
3.961320
  0
VERTEX
  8
0
 62
     1
  6
CONTINUOUS
 10
5.996320
 20
3.941520
  0
VERTEX
  8
0
 62
     1
  6
CONTINUOUS
 10
6.028880
 20
3.926560
  0
VERTEX
  8
0
 62
     1
  6
CONTINUOUS
 10
6.063640
 20
3.917320
  0
VERTEX
  8
0
 62
     1
  6
CONTINUOUS
 10
6.101040
 20
3.913800
  0
VERTEX
  8
0
 62
     1
  6
CONTINUOUS
 10
6.138000
 20
3.917320
  0
VERTEX
  8
0
 62
     1
  6
CONTINUOUS
 10
6.173200
 20
3.927000
  0
VERTEX
  8
0
 62
     1
  6
CONTINUOUS
 10
6.205320
 20
3.941960
  0
VERTEX
  8
0
 62
     1
  6
CONTINUOUS
 10
6.234360
 20
3.962200
  0
VERTEX
  8
0
 62
     1
  6
CONTINUOUS
 10
6.259880
 20
3.986840
  0
VERTEX
  8
0
 62
     1
  6
CONTINUOUS
 10
6.281000
 20
4.015000
  0
VERTEX
  8
0
 62
     1
  6
CONTINUOUS
 10
6.297280
 20
4.046680
  0
VERTEX
  8
0
 62
     1
  6
CONTINUOUS
 10
6.307840
 20
4.080120
  0
VERTEX
  8
0
 62
     1
  6
CONTINUOUS
 10
6.558640
 20
4.080120
  0
VERTEX
  8
0
 62
     1
  6
CONTINUOUS
 10
6.561720
 20
4.081440
  0
SEQEND
  8
0
  0
TEXT
  8
0
 10
3.766400
 20
3.021040
 40
0.138143
  1
BA  1170
 41
1.000000
  7
SN0
 71
     0
 72
     5
 11
4.450136
 21
3.021040
  0
TEXT
  8
0
 10
3.564440
 20
2.829640
 40
0.138143
  1
3/4" x 4-15/16"
 41
1.000000
  7
SN0
 71
     0
 72
     5
 11
4.651443
 21
2.829640
  0
ENDSEC
  0
EOF
