  0
SECTION
  2
HEADER
  9
$ACADVER
  1
AC1006
  9
$EXTMIN
 10
1.509640
 20
3.724600
  9
$EXTMAX
 10
7.408280
 20
7.014480
  9
$LTSCALE
 40
0.044000
  9
$PDMODE
 70
    35
  9
$PDSIZE
 40
0.035200
  0
ENDSEC
  0
SECTION
  2
TABLES
  0
TABLE
  2
LTYPE
 70
     9
  0
LTYPE
  2
CONTINUOUS
 70
    64
  3
Solid line
 72
    65
 73
     0
 40
0.000000
  0
LTYPE
  2
DASHED
 70
    64
  3
__ __ __ __ __ __ __ __ __ __ __ __ __ __ __
 72
    65
 73
     2
 40
0.000330
 49
0.000220
 49
-0.000110
  0
LTYPE
  2
HIDDEN
 70
    64
  3
 _ _ _ _ _ _ _ _ _ _ _ _ _ _ _ _ _ _ _ _ _ _
 72
    65
 73
     2
 40
0.000165
 49
0.000110
 49
-0.000055
  0
LTYPE
  2
CENTER
 70
    64
  3
____ _ ____ _ ____ _ ____ _ ____ _ ____ _ ____
 72
    65
 73
     4
 40
0.000880
 49
0.000550
 49
-0.000110
 49
0.000110
 49
-0.000110
  0
LTYPE
  2
PHANTOM
 70
    64
  3
_____ _ _ _____ _ _ _____ _ _ _____ _ _ ____
 72
    65
 73
     6
 40
0.001100
 49
0.000550
 49
-0.000110
 49
0.000110
 49
-0.000110
 49
0.000110
 49
-0.000110
  0
LTYPE
  2
DOT
 70
    64
  3
...............................................
 72
    65
 73
     2
 40
0.000110
 49
0.000000
 49
-0.000110
  0
LTYPE
  2
DASHDOT
 70
    64
  3
__ . __ . __ . __ . __ . __ . __ . __ . __ . __
 72
    65
 73
     4
 40
0.000440
 49
0.000220
 49
-0.000110
 49
0.000000
 49
-0.000110
  0
LTYPE
  2
BORDER
 70
    64
  3
__ __ . __ __ . __ __ . __ __ . __ __ . __ __
 72
    65
 73
     6
 40
0.000770
 49
0.000220
 49
-0.000110
 49
0.000220
 49
-0.000110
 49
0.000000
 49
-0.000110
  0
LTYPE
  2
DIVIDE
 70
    64
  3
__ . . __ . . __ . . __ . . __ . . __ . . __
 72
    65
 73
     6
 40
0.000550
 49
0.000220
 49
-0.000110
 49
0.000000
 49
-0.000110
 49
0.000000
 49
-0.000110
  0
LTYPE
  2
DOTDOT
 70
    64
  3
 . .  . .  . .  . .  . .  . . 
 72
    65
 73
     5
 40
0.000242
 49
-0.000110
 49
0.000000
 49
-0.000110
 49
0.000000
 49
-0.000110
  0
ENDTAB
  0
TABLE
  2
STYLE
 70
     2
  0
STYLE
 70
     0
  2
SN0
 40
0.000000
 41
0.000440
 50
0.000000
 71
     0
 42
0.000000
  3
ROMAND
  0
STYLE
 70
    68
  2
SV0
 40
0.000000
 41
0.000440
 50
0.000000
 71
     0
 42
0.000000
  3
ROMAND
  0
ENDTAB
  0
TABLE
  2
LAYER
 70
     3
  0
LAYER
  2
FOREGROUND
 70
    64
 62
     7
  6
CONTINUOUS
  0
LAYER
  2
BACKGROUND
 70
    65
 62
    -7
  6
CONTINUOUS
  0
LAYER
  2
0
 70
    64
 62
     7
  6
CONTINUOUS
  0
ENDTAB
  0
ENDSEC
  0
SECTION
  2
ENTITIES
  0
POLYLINE
  8
FOREGROUND
  6
CONTINUOUS
 66
     1
 40
0.000000
 41
0.000000
  0
VERTEX
  8
FOREGROUND
  6
CONTINUOUS
 10
0.000000
 20
10.739080
  0
VERTEX
  8
FOREGROUND
  6
CONTINUOUS
 10
8.499920
 20
10.739080
  0
VERTEX
  8
FOREGROUND
  6
CONTINUOUS
 10
8.499920
 20
-0.260920
  0
VERTEX
  8
FOREGROUND
  6
CONTINUOUS
 10
0.000000
 20
-0.260920
  0
VERTEX
  8
FOREGROUND
  6
CONTINUOUS
 10
0.000000
 20
10.739080
  0
SEQEND
  8
0
  0
POLYLINE
  8
FOREGROUND
  6
CONTINUOUS
 66
     1
 40
0.000000
 41
0.000000
  0
VERTEX
  8
FOREGROUND
  6
CONTINUOUS
 10
0.000000
 20
10.739080
  0
VERTEX
  8
FOREGROUND
  6
CONTINUOUS
 10
8.499920
 20
10.739080
  0
VERTEX
  8
FOREGROUND
  6
CONTINUOUS
 10
8.499920
 20
-0.260920
  0
VERTEX
  8
FOREGROUND
  6
CONTINUOUS
 10
0.000000
 20
-0.260920
  0
VERTEX
  8
FOREGROUND
  6
CONTINUOUS
 10
0.000000
 20
10.739080
  0
SEQEND
  8
0
  0
SOLID
  8
0
 62
    15
 10
2.960760
 20
5.986200
 11
3.580280
 21
5.635520
 12
2.797520
 22
5.867840
 13
3.417040
 23
5.517160
  0
POLYLINE
  8
0
 62
     1
  6
CONTINUOUS
 66
     1
 40
0.000000
 41
0.000000
  0
VERTEX
  8
0
 62
     1
  6
CONTINUOUS
 10
2.960760
 20
5.986200
  0
VERTEX
  8
0
 62
     1
  6
CONTINUOUS
 10
3.580280
 20
5.635520
  0
VERTEX
  8
0
 62
     1
  6
CONTINUOUS
 10
3.417040
 20
5.517160
  0
VERTEX
  8
0
 62
     1
  6
CONTINUOUS
 10
2.797520
 20
5.867840
  0
VERTEX
  8
0
 62
     1
  6
CONTINUOUS
 10
2.960760
 20
5.986200
  0
SEQEND
  8
0
  0
SOLID
  8
0
 62
    15
 10
3.083080
 20
6.912400
 11
3.702600
 21
6.561720
 12
3.082640
 22
6.912840
 13
3.702160
 23
6.562160
  0
POLYLINE
  8
0
 62
     1
  6
CONTINUOUS
 66
     1
 40
0.000000
 41
0.000000
  0
VERTEX
  8
0
 62
     1
  6
CONTINUOUS
 10
3.083080
 20
6.912400
  0
VERTEX
  8
0
 62
     1
  6
CONTINUOUS
 10
3.702600
 20
6.561720
  0
VERTEX
  8
0
 62
     1
  6
CONTINUOUS
 10
3.702160
 20
6.562160
  0
VERTEX
  8
0
 62
     1
  6
CONTINUOUS
 10
3.082640
 20
6.912840
  0
VERTEX
  8
0
 62
     1
  6
CONTINUOUS
 10
3.083080
 20
6.912400
  0
SEQEND
  8
0
  0
SOLID
  8
0
 62
    15
 10
3.082640
 20
6.912840
 11
3.702160
 21
6.562160
 12
3.158320
 22
6.832760
 13
3.777840
 23
6.482080
  0
POLYLINE
  8
0
 62
     1
  6
CONTINUOUS
 66
     1
 40
0.000000
 41
0.000000
  0
VERTEX
  8
0
 62
     1
  6
CONTINUOUS
 10
3.082640
 20
6.912840
  0
VERTEX
  8
0
 62
     1
  6
CONTINUOUS
 10
3.702160
 20
6.562160
  0
VERTEX
  8
0
 62
     1
  6
CONTINUOUS
 10
3.777840
 20
6.482080
  0
VERTEX
  8
0
 62
     1
  6
CONTINUOUS
 10
3.158320
 20
6.832760
  0
VERTEX
  8
0
 62
     1
  6
CONTINUOUS
 10
3.082640
 20
6.912840
  0
SEQEND
  8
0
  0
SOLID
  8
0
 62
    15
 10
3.158320
 20
6.832760
 11
3.777840
 21
6.482080
 12
3.214640
 22
6.751800
 13
3.834160
 23
6.401120
  0
POLYLINE
  8
0
 62
     1
  6
CONTINUOUS
 66
     1
 40
0.000000
 41
0.000000
  0
VERTEX
  8
0
 62
     1
  6
CONTINUOUS
 10
3.158320
 20
6.832760
  0
VERTEX
  8
0
 62
     1
  6
CONTINUOUS
 10
3.777840
 20
6.482080
  0
VERTEX
  8
0
 62
     1
  6
CONTINUOUS
 10
3.834160
 20
6.401120
  0
VERTEX
  8
0
 62
     1
  6
CONTINUOUS
 10
3.214640
 20
6.751800
  0
VERTEX
  8
0
 62
     1
  6
CONTINUOUS
 10
3.158320
 20
6.832760
  0
SEQEND
  8
0
  0
SOLID
  8
0
 62
    15
 10
3.214640
 20
6.751800
 11
3.834160
 21
6.401120
 12
3.252040
 22
6.669960
 13
3.871560
 23
6.319280
  0
POLYLINE
  8
0
 62
     1
  6
CONTINUOUS
 66
     1
 40
0.000000
 41
0.000000
  0
VERTEX
  8
0
 62
     1
  6
CONTINUOUS
 10
3.214640
 20
6.751800
  0
VERTEX
  8
0
 62
     1
  6
CONTINUOUS
 10
3.834160
 20
6.401120
  0
VERTEX
  8
0
 62
     1
  6
CONTINUOUS
 10
3.871560
 20
6.319280
  0
VERTEX
  8
0
 62
     1
  6
CONTINUOUS
 10
3.252040
 20
6.669960
  0
VERTEX
  8
0
 62
     1
  6
CONTINUOUS
 10
3.214640
 20
6.751800
  0
SEQEND
  8
0
  0
SOLID
  8
0
 62
    15
 10
3.252040
 20
6.669960
 11
3.871560
 21
6.319280
 12
3.272280
 22
6.588120
 13
3.891800
 23
6.237440
  0
POLYLINE
  8
0
 62
     1
  6
CONTINUOUS
 66
     1
 40
0.000000
 41
0.000000
  0
VERTEX
  8
0
 62
     1
  6
CONTINUOUS
 10
3.252040
 20
6.669960
  0
VERTEX
  8
0
 62
     1
  6
CONTINUOUS
 10
3.871560
 20
6.319280
  0
VERTEX
  8
0
 62
     1
  6
CONTINUOUS
 10
3.891800
 20
6.237440
  0
VERTEX
  8
0
 62
     1
  6
CONTINUOUS
 10
3.272280
 20
6.588120
  0
VERTEX
  8
0
 62
     1
  6
CONTINUOUS
 10
3.252040
 20
6.669960
  0
SEQEND
  8
0
  0
SOLID
  8
0
 62
    15
 10
3.272280
 20
6.588120
 11
3.891800
 21
6.237440
 12
3.276680
 22
6.506720
 13
3.896200
 23
6.156040
  0
POLYLINE
  8
0
 62
     1
  6
CONTINUOUS
 66
     1
 40
0.000000
 41
0.000000
  0
VERTEX
  8
0
 62
     1
  6
CONTINUOUS
 10
3.272280
 20
6.588120
  0
VERTEX
  8
0
 62
     1
  6
CONTINUOUS
 10
3.891800
 20
6.237440
  0
VERTEX
  8
0
 62
     1
  6
CONTINUOUS
 10
3.896200
 20
6.156040
  0
VERTEX
  8
0
 62
     1
  6
CONTINUOUS
 10
3.276680
 20
6.506720
  0
VERTEX
  8
0
 62
     1
  6
CONTINUOUS
 10
3.272280
 20
6.588120
  0
SEQEND
  8
0
  0
SOLID
  8
0
 62
    15
 10
3.276680
 20
6.506720
 11
3.896200
 21
6.156040
 12
3.266120
 22
6.426200
 13
3.885640
 23
6.075520
  0
POLYLINE
  8
0
 62
     1
  6
CONTINUOUS
 66
     1
 40
0.000000
 41
0.000000
  0
VERTEX
  8
0
 62
     1
  6
CONTINUOUS
 10
3.276680
 20
6.506720
  0
VERTEX
  8
0
 62
     1
  6
CONTINUOUS
 10
3.896200
 20
6.156040
  0
VERTEX
  8
0
 62
     1
  6
CONTINUOUS
 10
3.885640
 20
6.075520
  0
VERTEX
  8
0
 62
     1
  6
CONTINUOUS
 10
3.266120
 20
6.426200
  0
VERTEX
  8
0
 62
     1
  6
CONTINUOUS
 10
3.276680
 20
6.506720
  0
SEQEND
  8
0
  0
SOLID
  8
0
 62
    15
 10
3.266120
 20
6.426200
 11
3.885640
 21
6.075520
 12
3.241920
 22
6.346560
 13
3.861440
 23
5.995880
  0
POLYLINE
  8
0
 62
     1
  6
CONTINUOUS
 66
     1
 40
0.000000
 41
0.000000
  0
VERTEX
  8
0
 62
     1
  6
CONTINUOUS
 10
3.266120
 20
6.426200
  0
VERTEX
  8
0
 62
     1
  6
CONTINUOUS
 10
3.885640
 20
6.075520
  0
VERTEX
  8
0
 62
     1
  6
CONTINUOUS
 10
3.861440
 20
5.995880
  0
VERTEX
  8
0
 62
     1
  6
CONTINUOUS
 10
3.241920
 20
6.346560
  0
VERTEX
  8
0
 62
     1
  6
CONTINUOUS
 10
3.266120
 20
6.426200
  0
SEQEND
  8
0
  0
SOLID
  8
0
 62
    15
 10
3.241920
 20
6.346560
 11
3.861440
 21
5.995880
 12
3.204960
 22
6.269120
 13
3.824480
 23
5.918440
  0
POLYLINE
  8
0
 62
     1
  6
CONTINUOUS
 66
     1
 40
0.000000
 41
0.000000
  0
VERTEX
  8
0
 62
     1
  6
CONTINUOUS
 10
3.241920
 20
6.346560
  0
VERTEX
  8
0
 62
     1
  6
CONTINUOUS
 10
3.861440
 20
5.995880
  0
VERTEX
  8
0
 62
     1
  6
CONTINUOUS
 10
3.824480
 20
5.918440
  0
VERTEX
  8
0
 62
     1
  6
CONTINUOUS
 10
3.204960
 20
6.269120
  0
VERTEX
  8
0
 62
     1
  6
CONTINUOUS
 10
3.241920
 20
6.346560
  0
SEQEND
  8
0
  0
SOLID
  8
0
 62
    15
 10
3.204960
 20
6.269120
 11
3.824480
 21
5.918440
 12
3.157440
 22
6.193440
 13
3.776960
 23
5.842760
  0
POLYLINE
  8
0
 62
     1
  6
CONTINUOUS
 66
     1
 40
0.000000
 41
0.000000
  0
VERTEX
  8
0
 62
     1
  6
CONTINUOUS
 10
3.204960
 20
6.269120
  0
VERTEX
  8
0
 62
     1
  6
CONTINUOUS
 10
3.824480
 20
5.918440
  0
VERTEX
  8
0
 62
     1
  6
CONTINUOUS
 10
3.776960
 20
5.842760
  0
VERTEX
  8
0
 62
     1
  6
CONTINUOUS
 10
3.157440
 20
6.193440
  0
VERTEX
  8
0
 62
     1
  6
CONTINUOUS
 10
3.204960
 20
6.269120
  0
SEQEND
  8
0
  0
SOLID
  8
0
 62
    15
 10
3.157440
 20
6.193440
 11
3.776960
 21
5.842760
 12
3.100240
 22
6.120840
 13
3.719760
 23
5.770160
  0
POLYLINE
  8
0
 62
     1
  6
CONTINUOUS
 66
     1
 40
0.000000
 41
0.000000
  0
VERTEX
  8
0
 62
     1
  6
CONTINUOUS
 10
3.157440
 20
6.193440
  0
VERTEX
  8
0
 62
     1
  6
CONTINUOUS
 10
3.776960
 20
5.842760
  0
VERTEX
  8
0
 62
     1
  6
CONTINUOUS
 10
3.719760
 20
5.770160
  0
VERTEX
  8
0
 62
     1
  6
CONTINUOUS
 10
3.100240
 20
6.120840
  0
VERTEX
  8
0
 62
     1
  6
CONTINUOUS
 10
3.157440
 20
6.193440
  0
SEQEND
  8
0
  0
SOLID
  8
0
 62
    15
 10
3.100240
 20
6.120840
 11
3.719760
 21
5.770160
 12
3.034240
 22
6.051760
 13
3.653760
 23
5.701080
  0
POLYLINE
  8
0
 62
     1
  6
CONTINUOUS
 66
     1
 40
0.000000
 41
0.000000
  0
VERTEX
  8
0
 62
     1
  6
CONTINUOUS
 10
3.100240
 20
6.120840
  0
VERTEX
  8
0
 62
     1
  6
CONTINUOUS
 10
3.719760
 20
5.770160
  0
VERTEX
  8
0
 62
     1
  6
CONTINUOUS
 10
3.653760
 20
5.701080
  0
VERTEX
  8
0
 62
     1
  6
CONTINUOUS
 10
3.034240
 20
6.051760
  0
VERTEX
  8
0
 62
     1
  6
CONTINUOUS
 10
3.100240
 20
6.120840
  0
SEQEND
  8
0
  0
SOLID
  8
0
 62
    15
 10
3.034240
 20
6.051760
 11
3.653760
 21
5.701080
 12
2.960760
 22
5.986200
 13
3.580280
 23
5.635520
  0
POLYLINE
  8
0
 62
     1
  6
CONTINUOUS
 66
     1
 40
0.000000
 41
0.000000
  0
VERTEX
  8
0
 62
     1
  6
CONTINUOUS
 10
3.034240
 20
6.051760
  0
VERTEX
  8
0
 62
     1
  6
CONTINUOUS
 10
3.653760
 20
5.701080
  0
VERTEX
  8
0
 62
     1
  6
CONTINUOUS
 10
3.580280
 20
5.635520
  0
VERTEX
  8
0
 62
     1
  6
CONTINUOUS
 10
2.960760
 20
5.986200
  0
VERTEX
  8
0
 62
     1
  6
CONTINUOUS
 10
3.034240
 20
6.051760
  0
SEQEND
  8
0
  0
SOLID
  8
0
 62
    15
 10
3.029840
 20
6.955960
 11
3.649360
 21
6.605280
 12
3.083080
 22
6.912400
 13
3.702600
 23
6.561720
  0
POLYLINE
  8
0
 62
     1
  6
CONTINUOUS
 66
     1
 40
0.000000
 41
0.000000
  0
VERTEX
  8
0
 62
     1
  6
CONTINUOUS
 10
3.029840
 20
6.955960
  0
VERTEX
  8
0
 62
     1
  6
CONTINUOUS
 10
3.649360
 20
6.605280
  0
VERTEX
  8
0
 62
     1
  6
CONTINUOUS
 10
3.702600
 20
6.561720
  0
VERTEX
  8
0
 62
     1
  6
CONTINUOUS
 10
3.083080
 20
6.912400
  0
VERTEX
  8
0
 62
     1
  6
CONTINUOUS
 10
3.029840
 20
6.955960
  0
SEQEND
  8
0
  0
SOLID
  8
0
 62
    15
 10
2.797520
 20
5.867840
 11
3.417040
 21
5.517160
 12
2.619760
 22
5.770600
 13
3.239280
 23
5.419920
  0
POLYLINE
  8
0
 62
     1
  6
CONTINUOUS
 66
     1
 40
0.000000
 41
0.000000
  0
VERTEX
  8
0
 62
     1
  6
CONTINUOUS
 10
2.797520
 20
5.867840
  0
VERTEX
  8
0
 62
     1
  6
CONTINUOUS
 10
3.417040
 20
5.517160
  0
VERTEX
  8
0
 62
     1
  6
CONTINUOUS
 10
3.239280
 20
5.419920
  0
VERTEX
  8
0
 62
     1
  6
CONTINUOUS
 10
2.619760
 20
5.770600
  0
VERTEX
  8
0
 62
     1
  6
CONTINUOUS
 10
2.797520
 20
5.867840
  0
SEQEND
  8
0
  0
SOLID
  8
0
 62
    15
 10
2.619760
 20
5.770600
 11
3.239280
 21
5.419920
 12
2.532200
 22
5.723520
 13
3.151720
 23
5.372840
  0
POLYLINE
  8
0
 62
     1
  6
CONTINUOUS
 66
     1
 40
0.000000
 41
0.000000
  0
VERTEX
  8
0
 62
     1
  6
CONTINUOUS
 10
2.619760
 20
5.770600
  0
VERTEX
  8
0
 62
     1
  6
CONTINUOUS
 10
3.239280
 20
5.419920
  0
VERTEX
  8
0
 62
     1
  6
CONTINUOUS
 10
3.151720
 20
5.372840
  0
VERTEX
  8
0
 62
     1
  6
CONTINUOUS
 10
2.532200
 20
5.723520
  0
VERTEX
  8
0
 62
     1
  6
CONTINUOUS
 10
2.619760
 20
5.770600
  0
SEQEND
  8
0
  0
SOLID
  8
0
 62
    15
 10
2.532200
 20
5.723520
 11
3.151720
 21
5.372840
 12
2.450360
 22
5.668080
 13
3.069880
 23
5.317400
  0
POLYLINE
  8
0
 62
     1
  6
CONTINUOUS
 66
     1
 40
0.000000
 41
0.000000
  0
VERTEX
  8
0
 62
     1
  6
CONTINUOUS
 10
2.532200
 20
5.723520
  0
VERTEX
  8
0
 62
     1
  6
CONTINUOUS
 10
3.151720
 20
5.372840
  0
VERTEX
  8
0
 62
     1
  6
CONTINUOUS
 10
3.069880
 20
5.317400
  0
VERTEX
  8
0
 62
     1
  6
CONTINUOUS
 10
2.450360
 20
5.668080
  0
VERTEX
  8
0
 62
     1
  6
CONTINUOUS
 10
2.532200
 20
5.723520
  0
SEQEND
  8
0
  0
SOLID
  8
0
 62
    15
 10
2.450360
 20
5.668080
 11
3.069880
 21
5.317400
 12
2.303400
 22
5.537840
 13
2.922920
 23
5.186720
  0
POLYLINE
  8
0
 62
     1
  6
CONTINUOUS
 66
     1
 40
0.000000
 41
0.000000
  0
VERTEX
  8
0
 62
     1
  6
CONTINUOUS
 10
2.450360
 20
5.668080
  0
VERTEX
  8
0
 62
     1
  6
CONTINUOUS
 10
3.069880
 20
5.317400
  0
VERTEX
  8
0
 62
     1
  6
CONTINUOUS
 10
2.922920
 20
5.186720
  0
VERTEX
  8
0
 62
     1
  6
CONTINUOUS
 10
2.303400
 20
5.537840
  0
VERTEX
  8
0
 62
     1
  6
CONTINUOUS
 10
2.450360
 20
5.668080
  0
SEQEND
  8
0
  0
SOLID
  8
0
 62
    15
 10
2.303400
 20
5.537840
 11
2.922920
 21
5.186720
 12
2.180200
 22
5.387360
 13
2.799720
 23
5.036680
  0
POLYLINE
  8
0
 62
     1
  6
CONTINUOUS
 66
     1
 40
0.000000
 41
0.000000
  0
VERTEX
  8
0
 62
     1
  6
CONTINUOUS
 10
2.303400
 20
5.537840
  0
VERTEX
  8
0
 62
     1
  6
CONTINUOUS
 10
2.922920
 20
5.186720
  0
VERTEX
  8
0
 62
     1
  6
CONTINUOUS
 10
2.799720
 20
5.036680
  0
VERTEX
  8
0
 62
     1
  6
CONTINUOUS
 10
2.180200
 20
5.387360
  0
VERTEX
  8
0
 62
     1
  6
CONTINUOUS
 10
2.303400
 20
5.537840
  0
SEQEND
  8
0
  0
SOLID
  8
0
 62
    15
 10
2.180200
 20
5.387360
 11
2.799720
 21
5.036680
 12
2.079880
 22
5.225000
 13
2.699400
 23
4.874320
  0
POLYLINE
  8
0
 62
     1
  6
CONTINUOUS
 66
     1
 40
0.000000
 41
0.000000
  0
VERTEX
  8
0
 62
     1
  6
CONTINUOUS
 10
2.180200
 20
5.387360
  0
VERTEX
  8
0
 62
     1
  6
CONTINUOUS
 10
2.799720
 20
5.036680
  0
VERTEX
  8
0
 62
     1
  6
CONTINUOUS
 10
2.699400
 20
4.874320
  0
VERTEX
  8
0
 62
     1
  6
CONTINUOUS
 10
2.079880
 20
5.225000
  0
VERTEX
  8
0
 62
     1
  6
CONTINUOUS
 10
2.180200
 20
5.387360
  0
SEQEND
  8
0
  0
SOLID
  8
0
 62
    15
 10
1.513600
 20
5.518920
 11
2.133120
 21
5.168240
 12
1.512280
 22
5.518040
 13
2.131800
 23
5.167360
  0
POLYLINE
  8
0
 62
     1
  6
CONTINUOUS
 66
     1
 40
0.000000
 41
0.000000
  0
VERTEX
  8
0
 62
     1
  6
CONTINUOUS
 10
1.513600
 20
5.518920
  0
VERTEX
  8
0
 62
     1
  6
CONTINUOUS
 10
2.133120
 20
5.168240
  0
VERTEX
  8
0
 62
     1
  6
CONTINUOUS
 10
2.131800
 20
5.167360
  0
VERTEX
  8
0
 62
     1
  6
CONTINUOUS
 10
1.512280
 20
5.518040
  0
VERTEX
  8
0
 62
     1
  6
CONTINUOUS
 10
1.513600
 20
5.518920
  0
SEQEND
  8
0
  0
SOLID
  8
0
 62
    15
 10
2.002880
 20
5.060000
 11
2.622400
 21
4.709320
 12
1.949640
 22
4.899400
 13
2.569160
 23
4.548720
  0
POLYLINE
  8
0
 62
     1
  6
CONTINUOUS
 66
     1
 40
0.000000
 41
0.000000
  0
VERTEX
  8
0
 62
     1
  6
CONTINUOUS
 10
2.002880
 20
5.060000
  0
VERTEX
  8
0
 62
     1
  6
CONTINUOUS
 10
2.622400
 20
4.709320
  0
VERTEX
  8
0
 62
     1
  6
CONTINUOUS
 10
2.569160
 20
4.548720
  0
VERTEX
  8
0
 62
     1
  6
CONTINUOUS
 10
1.949640
 20
4.899400
  0
VERTEX
  8
0
 62
     1
  6
CONTINUOUS
 10
2.002880
 20
5.060000
  0
SEQEND
  8
0
  0
SOLID
  8
0
 62
    15
 10
1.949640
 20
4.899400
 11
2.569160
 21
4.548720
 12
1.920160
 22
4.752440
 13
2.539680
 23
4.401760
  0
POLYLINE
  8
0
 62
     1
  6
CONTINUOUS
 66
     1
 40
0.000000
 41
0.000000
  0
VERTEX
  8
0
 62
     1
  6
CONTINUOUS
 10
1.949640
 20
4.899400
  0
VERTEX
  8
0
 62
     1
  6
CONTINUOUS
 10
2.569160
 20
4.548720
  0
VERTEX
  8
0
 62
     1
  6
CONTINUOUS
 10
2.539680
 20
4.401760
  0
VERTEX
  8
0
 62
     1
  6
CONTINUOUS
 10
1.920160
 20
4.752440
  0
VERTEX
  8
0
 62
     1
  6
CONTINUOUS
 10
1.949640
 20
4.899400
  0
SEQEND
  8
0
  0
SOLID
  8
0
 62
    15
 10
1.920160
 20
4.752440
 11
2.539680
 21
4.401760
 12
1.914000
 22
4.686440
 13
2.533520
 23
4.335760
  0
POLYLINE
  8
0
 62
     1
  6
CONTINUOUS
 66
     1
 40
0.000000
 41
0.000000
  0
VERTEX
  8
0
 62
     1
  6
CONTINUOUS
 10
1.920160
 20
4.752440
  0
VERTEX
  8
0
 62
     1
  6
CONTINUOUS
 10
2.539680
 20
4.401760
  0
VERTEX
  8
0
 62
     1
  6
CONTINUOUS
 10
2.533520
 20
4.335760
  0
VERTEX
  8
0
 62
     1
  6
CONTINUOUS
 10
1.914000
 20
4.686440
  0
VERTEX
  8
0
 62
     1
  6
CONTINUOUS
 10
1.920160
 20
4.752440
  0
SEQEND
  8
0
  0
SOLID
  8
0
 62
    15
 10
1.914000
 20
4.686440
 11
2.533520
 21
4.335760
 12
1.914000
 22
4.627040
 13
2.533520
 23
4.276360
  0
POLYLINE
  8
0
 62
     1
  6
CONTINUOUS
 66
     1
 40
0.000000
 41
0.000000
  0
VERTEX
  8
0
 62
     1
  6
CONTINUOUS
 10
1.914000
 20
4.686440
  0
VERTEX
  8
0
 62
     1
  6
CONTINUOUS
 10
2.533520
 20
4.335760
  0
VERTEX
  8
0
 62
     1
  6
CONTINUOUS
 10
2.533520
 20
4.276360
  0
VERTEX
  8
0
 62
     1
  6
CONTINUOUS
 10
1.914000
 20
4.627040
  0
VERTEX
  8
0
 62
     1
  6
CONTINUOUS
 10
1.914000
 20
4.686440
  0
SEQEND
  8
0
  0
SOLID
  8
0
 62
    15
 10
1.914000
 20
4.627040
 11
2.533520
 21
4.276360
 12
1.510080
 22
4.565880
 13
2.129600
 23
4.215200
  0
POLYLINE
  8
0
 62
     1
  6
CONTINUOUS
 66
     1
 40
0.000000
 41
0.000000
  0
VERTEX
  8
0
 62
     1
  6
CONTINUOUS
 10
1.914000
 20
4.627040
  0
VERTEX
  8
0
 62
     1
  6
CONTINUOUS
 10
2.533520
 20
4.276360
  0
VERTEX
  8
0
 62
     1
  6
CONTINUOUS
 10
2.129600
 20
4.215200
  0
VERTEX
  8
0
 62
     1
  6
CONTINUOUS
 10
1.510080
 20
4.565880
  0
VERTEX
  8
0
 62
     1
  6
CONTINUOUS
 10
1.914000
 20
4.627040
  0
SEQEND
  8
0
  0
SOLID
  8
0
 62
    15
 10
2.079880
 20
5.225000
 11
2.699400
 21
4.874320
 12
2.002880
 22
5.060000
 13
2.622400
 23
4.709320
  0
POLYLINE
  8
0
 62
     1
  6
CONTINUOUS
 66
     1
 40
0.000000
 41
0.000000
  0
VERTEX
  8
0
 62
     1
  6
CONTINUOUS
 10
2.079880
 20
5.225000
  0
VERTEX
  8
0
 62
     1
  6
CONTINUOUS
 10
2.699400
 20
4.874320
  0
VERTEX
  8
0
 62
     1
  6
CONTINUOUS
 10
2.622400
 20
4.709320
  0
VERTEX
  8
0
 62
     1
  6
CONTINUOUS
 10
2.002880
 20
5.060000
  0
VERTEX
  8
0
 62
     1
  6
CONTINUOUS
 10
2.079880
 20
5.225000
  0
SEQEND
  8
0
  0
POLYLINE
  8
0
 62
     1
  6
CONTINUOUS
 66
     1
 40
0.000000
 41
0.000000
  0
VERTEX
  8
0
 62
     1
  6
CONTINUOUS
 10
1.512280
 20
5.518040
  0
VERTEX
  8
0
 62
     1
  6
CONTINUOUS
 10
2.573120
 20
6.880280
  0
VERTEX
  8
0
 62
     1
  6
CONTINUOUS
 10
2.626800
 20
6.939680
  0
VERTEX
  8
0
 62
     1
  6
CONTINUOUS
 10
2.689280
 20
6.981040
  0
VERTEX
  8
0
 62
     1
  6
CONTINUOUS
 10
2.757480
 20
7.005240
  0
VERTEX
  8
0
 62
     1
  6
CONTINUOUS
 10
2.828760
 20
7.014040
  0
VERTEX
  8
0
 62
     1
  6
CONTINUOUS
 10
2.899600
 20
7.007880
  0
VERTEX
  8
0
 62
     1
  6
CONTINUOUS
 10
2.967800
 20
6.988080
  0
VERTEX
  8
0
 62
     1
  6
CONTINUOUS
 10
3.029840
 20
6.955960
  0
VERTEX
  8
0
 62
     1
  6
CONTINUOUS
 10
3.083080
 20
6.912400
  0
VERTEX
  8
0
 62
     1
  6
CONTINUOUS
 10
3.082640
 20
6.912840
  0
VERTEX
  8
0
 62
     1
  6
CONTINUOUS
 10
3.158320
 20
6.832760
  0
VERTEX
  8
0
 62
     1
  6
CONTINUOUS
 10
3.214640
 20
6.751800
  0
VERTEX
  8
0
 62
     1
  6
CONTINUOUS
 10
3.252040
 20
6.669960
  0
VERTEX
  8
0
 62
     1
  6
CONTINUOUS
 10
3.272280
 20
6.588120
  0
VERTEX
  8
0
 62
     1
  6
CONTINUOUS
 10
3.276680
 20
6.506720
  0
VERTEX
  8
0
 62
     1
  6
CONTINUOUS
 10
3.266120
 20
6.426200
  0
VERTEX
  8
0
 62
     1
  6
CONTINUOUS
 10
3.241920
 20
6.346560
  0
VERTEX
  8
0
 62
     1
  6
CONTINUOUS
 10
3.204960
 20
6.269120
  0
VERTEX
  8
0
 62
     1
  6
CONTINUOUS
 10
3.157440
 20
6.193440
  0
VERTEX
  8
0
 62
     1
  6
CONTINUOUS
 10
3.100240
 20
6.120840
  0
VERTEX
  8
0
 62
     1
  6
CONTINUOUS
 10
3.034240
 20
6.051760
  0
VERTEX
  8
0
 62
     1
  6
CONTINUOUS
 10
2.960760
 20
5.986200
  0
VERTEX
  8
0
 62
     1
  6
CONTINUOUS
 10
2.797520
 20
5.867840
  0
VERTEX
  8
0
 62
     1
  6
CONTINUOUS
 10
2.619760
 20
5.770600
  0
VERTEX
  8
0
 62
     1
  6
CONTINUOUS
 10
2.532200
 20
5.723520
  0
VERTEX
  8
0
 62
     1
  6
CONTINUOUS
 10
2.450360
 20
5.668080
  0
VERTEX
  8
0
 62
     1
  6
CONTINUOUS
 10
2.303400
 20
5.537840
  0
VERTEX
  8
0
 62
     1
  6
CONTINUOUS
 10
2.180200
 20
5.387360
  0
VERTEX
  8
0
 62
     1
  6
CONTINUOUS
 10
2.079880
 20
5.225000
  0
VERTEX
  8
0
 62
     1
  6
CONTINUOUS
 10
2.002880
 20
5.060000
  0
VERTEX
  8
0
 62
     1
  6
CONTINUOUS
 10
1.949640
 20
4.899400
  0
VERTEX
  8
0
 62
     1
  6
CONTINUOUS
 10
1.920160
 20
4.752440
  0
VERTEX
  8
0
 62
     1
  6
CONTINUOUS
 10
1.914000
 20
4.686440
  0
VERTEX
  8
0
 62
     1
  6
CONTINUOUS
 10
1.914000
 20
4.627040
  0
VERTEX
  8
0
 62
     1
  6
CONTINUOUS
 10
1.510080
 20
4.565880
  0
VERTEX
  8
0
 62
     1
  6
CONTINUOUS
 10
1.513600
 20
5.518920
  0
VERTEX
  8
0
 62
     1
  6
CONTINUOUS
 10
1.512280
 20
5.518040
  0
SEQEND
  8
0
  0
TEXT
  8
0
 10
2.361920
 20
3.960440
 40
0.138156
  1
BA  1169
 41
1.000000
  7
SN0
 71
     0
 72
     5
 11
3.044688
 21
3.960440
  0
TEXT
  8
0
 10
2.067560
 20
3.769040
 40
0.138156
  1
15/16" x 2-13/16"
 41
1.000000
  7
SN0
 71
     0
 72
     5
 11
3.338127
 21
3.769040
  0
TEXT
  8
0
 10
3.913800
 20
3.876840
 40
0.138156
  1
#  745
 41
1.000000
  7
SN0
 71
     0
 72
     5
 11
4.375369
 21
3.876840
  0
POLYLINE
  8
0
 62
     1
  6
CONTINUOUS
 66
     1
 40
0.014080
 41
0.014080
  0
VERTEX
  8
0
 62
     1
  6
CONTINUOUS
 10
6.586360
 20
3.860120
  0
VERTEX
  8
0
 62
     1
  6
CONTINUOUS
 10
7.340520
 20
4.442680
  0
VERTEX
  8
0
 62
     1
  6
CONTINUOUS
 10
7.043960
 20
4.723840
  0
VERTEX
  8
0
 62
     1
  6
CONTINUOUS
 10
6.996880
 20
4.687320
  0
VERTEX
  8
0
 62
     1
  6
CONTINUOUS
 10
6.941440
 20
4.651680
  0
VERTEX
  8
0
 62
     1
  6
CONTINUOUS
 10
6.877640
 20
4.616920
  0
VERTEX
  8
0
 62
     1
  6
CONTINUOUS
 10
6.807240
 20
4.584360
  0
VERTEX
  8
0
 62
     1
  6
CONTINUOUS
 10
6.730240
 20
4.554880
  0
VERTEX
  8
0
 62
     1
  6
CONTINUOUS
 10
6.689760
 20
4.540800
  0
VERTEX
  8
0
 62
     1
  6
CONTINUOUS
 10
6.604840
 20
4.516160
  0
VERTEX
  8
0
 62
     1
  6
CONTINUOUS
 10
6.515960
 20
4.495480
  0
VERTEX
  8
0
 62
     1
  6
CONTINUOUS
 10
6.423560
 20
4.480080
  0
VERTEX
  8
0
 62
     1
  6
CONTINUOUS
 10
6.376480
 20
4.473920
  0
VERTEX
  8
0
 62
     1
  6
CONTINUOUS
 10
6.328960
 20
4.469520
  0
VERTEX
  8
0
 62
     1
  6
CONTINUOUS
 10
6.232600
 20
4.465560
  0
VERTEX
  8
0
 62
     1
  6
CONTINUOUS
 10
6.183760
 20
4.465560
  0
VERTEX
  8
0
 62
     1
  6
CONTINUOUS
 10
6.134920
 20
4.467760
  0
VERTEX
  8
0
 62
     1
  6
CONTINUOUS
 10
6.086520
 20
4.471720
  0
VERTEX
  8
0
 62
     1
  6
CONTINUOUS
 10
6.037680
 20
4.477440
  0
VERTEX
  8
0
 62
     1
  6
CONTINUOUS
 10
5.989280
 20
4.485360
  0
VERTEX
  8
0
 62
     1
  6
CONTINUOUS
 10
5.940880
 20
4.495040
  0
VERTEX
  8
0
 62
     1
  6
CONTINUOUS
 10
5.893360
 20
4.507360
  0
VERTEX
  8
0
 62
     1
  6
CONTINUOUS
 10
5.845840
 20
4.521440
  0
VERTEX
  8
0
 62
     1
  6
CONTINUOUS
 10
5.776320
 20
4.546960
  0
VERTEX
  8
0
 62
     1
  6
CONTINUOUS
 10
5.616600
 20
4.620880
  0
VERTEX
  8
0
 62
     1
  6
CONTINUOUS
 10
5.522000
 20
4.658720
  0
VERTEX
  8
0
 62
     1
  6
CONTINUOUS
 10
5.425640
 20
4.689960
  0
VERTEX
  8
0
 62
     1
  6
CONTINUOUS
 10
5.328400
 20
4.715040
  0
VERTEX
  8
0
 62
     1
  6
CONTINUOUS
 10
5.280000
 20
4.724720
  0
VERTEX
  8
0
 62
     1
  6
CONTINUOUS
 10
5.184080
 20
4.738360
  0
VERTEX
  8
0
 62
     1
  6
CONTINUOUS
 10
5.136560
 20
4.741880
  0
VERTEX
  8
0
 62
     1
  6
CONTINUOUS
 10
5.066600
 20
4.743200
  0
VERTEX
  8
0
 62
     1
  6
CONTINUOUS
 10
5.021280
 20
4.741440
  0
VERTEX
  8
0
 62
     1
  6
CONTINUOUS
 10
4.955280
 20
4.733960
  0
VERTEX
  8
0
 62
     1
  6
CONTINUOUS
 10
4.891920
 20
4.720760
  0
VERTEX
  8
0
 62
     1
  6
CONTINUOUS
 10
4.832080
 20
4.701400
  0
VERTEX
  8
0
 62
     1
  6
CONTINUOUS
 10
4.793800
 20
4.685120
  0
VERTEX
  8
0
 62
     1
  6
CONTINUOUS
 10
4.757720
 20
4.666200
  0
VERTEX
  8
0
 62
     1
  6
CONTINUOUS
 10
4.723840
 20
4.644200
  0
VERTEX
  8
0
 62
     1
  6
CONTINUOUS
 10
4.691720
 20
4.619120
  0
VERTEX
  8
0
 62
     1
  6
CONTINUOUS
 10
4.661800
 20
4.590960
  0
VERTEX
  8
0
 62
     1
  6
CONTINUOUS
 10
4.634520
 20
4.559280
  0
VERTEX
  8
0
 62
     1
  6
CONTINUOUS
 10
4.609880
 20
4.524520
  0
VERTEX
  8
0
 62
     1
  6
CONTINUOUS
 10
4.587880
 20
4.486240
  0
VERTEX
  8
0
 62
     1
  6
CONTINUOUS
 10
4.568520
 20
4.444880
  0
VERTEX
  8
0
 62
     1
  6
CONTINUOUS
 10
4.552240
 20
4.399560
  0
VERTEX
  8
0
 62
     1
  6
CONTINUOUS
 10
4.539040
 20
4.350720
  0
VERTEX
  8
0
 62
     1
  6
CONTINUOUS
 10
4.529360
 20
4.297920
  0
VERTEX
  8
0
 62
     1
  6
CONTINUOUS
 10
4.522760
 20
4.241600
  0
VERTEX
  8
0
 62
     1
  6
CONTINUOUS
 10
4.522320
 20
4.242040
  0
VERTEX
  8
0
 62
     1
  6
CONTINUOUS
 10
4.519680
 20
4.207720
  0
VERTEX
  8
0
 62
     1
  6
CONTINUOUS
 10
4.521000
 20
4.173400
  0
VERTEX
  8
0
 62
     1
  6
CONTINUOUS
 10
4.525400
 20
4.138640
  0
VERTEX
  8
0
 62
     1
  6
CONTINUOUS
 10
4.539040
 20
4.087600
  0
VERTEX
  8
0
 62
     1
  6
CONTINUOUS
 10
4.560160
 20
4.038760
  0
VERTEX
  8
0
 62
     1
  6
CONTINUOUS
 10
4.577760
 20
4.007960
  0
VERTEX
  8
0
 62
     1
  6
CONTINUOUS
 10
4.610320
 20
3.965280
  0
VERTEX
  8
0
 62
     1
  6
CONTINUOUS
 10
4.635400
 20
3.939760
  0
VERTEX
  8
0
 62
     1
  6
CONTINUOUS
 10
4.663560
 20
3.917320
  0
VERTEX
  8
0
 62
     1
  6
CONTINUOUS
 10
4.693920
 20
3.897960
  0
VERTEX
  8
0
 62
     1
  6
CONTINUOUS
 10
4.727360
 20
3.882120
  0
VERTEX
  8
0
 62
     1
  6
CONTINUOUS
 10
4.762560
 20
3.869800
  0
VERTEX
  8
0
 62
     1
  6
CONTINUOUS
 10
4.800400
 20
3.862320
  0
VERTEX
  8
0
 62
     1
  6
CONTINUOUS
 10
4.840440
 20
3.859240
  0
VERTEX
  8
0
 62
     1
  6
CONTINUOUS
 10
6.587680
 20
3.859680
  0
VERTEX
  8
0
 62
     1
  6
CONTINUOUS
 10
6.586360
 20
3.860120
  0
SEQEND
  8
0
  0
TEXT
  8
0
 10
5.320920
 20
4.223560
 40
0.138156
  1
BA  1169
 41
1.000000
  7
SN0
 71
     0
 72
     5
 11
6.003688
 21
4.223560
  0
TEXT
  8
0
 10
5.026560
 20
4.031720
 40
0.138156
  1
15/16" x 2-13/16"
 41
1.000000
  7
SN0
 71
     0
 72
     5
 11
6.297127
 21
4.031720
  0
TEXT
  8
0
 10
6.974880
 20
3.858360
 40
0.138156
  1
#40B
 41
1.000000
  7
SN0
 71
     0
 72
     5
 11
7.362716
 21
3.858360
  0
ENDSEC
  0
EOF
