  0
SECTION
  2
HEADER
  9
$ACADVER
  1
AC1006
  9
$EXTMIN
 10
2.106720
 20
2.509760
  9
$EXTMAX
 10
5.719560
 20
8.586600
  9
$LTSCALE
 40
0.044000
  9
$PDMODE
 70
    35
  9
$PDSIZE
 40
0.035200
  0
ENDSEC
  0
SECTION
  2
TABLES
  0
TABLE
  2
LTYPE
 70
     9
  0
LTYPE
  2
CONTINUOUS
 70
    64
  3
Solid line
 72
    65
 73
     0
 40
0.000000
  0
LTYPE
  2
DASHED
 70
    64
  3
__ __ __ __ __ __ __ __ __ __ __ __ __ __ __
 72
    65
 73
     2
 40
0.000330
 49
0.000220
 49
-0.000110
  0
LTYPE
  2
HIDDEN
 70
    64
  3
 _ _ _ _ _ _ _ _ _ _ _ _ _ _ _ _ _ _ _ _ _ _
 72
    65
 73
     2
 40
0.000165
 49
0.000110
 49
-0.000055
  0
LTYPE
  2
CENTER
 70
    64
  3
____ _ ____ _ ____ _ ____ _ ____ _ ____ _ ____
 72
    65
 73
     4
 40
0.000880
 49
0.000550
 49
-0.000110
 49
0.000110
 49
-0.000110
  0
LTYPE
  2
PHANTOM
 70
    64
  3
_____ _ _ _____ _ _ _____ _ _ _____ _ _ ____
 72
    65
 73
     6
 40
0.001100
 49
0.000550
 49
-0.000110
 49
0.000110
 49
-0.000110
 49
0.000110
 49
-0.000110
  0
LTYPE
  2
DOT
 70
    64
  3
...............................................
 72
    65
 73
     2
 40
0.000110
 49
0.000000
 49
-0.000110
  0
LTYPE
  2
DASHDOT
 70
    64
  3
__ . __ . __ . __ . __ . __ . __ . __ . __ . __
 72
    65
 73
     4
 40
0.000440
 49
0.000220
 49
-0.000110
 49
0.000000
 49
-0.000110
  0
LTYPE
  2
BORDER
 70
    64
  3
__ __ . __ __ . __ __ . __ __ . __ __ . __ __
 72
    65
 73
     6
 40
0.000770
 49
0.000220
 49
-0.000110
 49
0.000220
 49
-0.000110
 49
0.000000
 49
-0.000110
  0
LTYPE
  2
DIVIDE
 70
    64
  3
__ . . __ . . __ . . __ . . __ . . __ . . __
 72
    65
 73
     6
 40
0.000550
 49
0.000220
 49
-0.000110
 49
0.000000
 49
-0.000110
 49
0.000000
 49
-0.000110
  0
LTYPE
  2
DOTDOT
 70
    64
  3
 . .  . .  . .  . .  . .  . . 
 72
    65
 73
     5
 40
0.000242
 49
-0.000110
 49
0.000000
 49
-0.000110
 49
0.000000
 49
-0.000110
  0
ENDTAB
  0
TABLE
  2
STYLE
 70
     2
  0
STYLE
 70
     0
  2
SN0
 40
0.000000
 41
0.000440
 50
0.000000
 71
     0
 42
0.000000
  3
ROMAND
  0
STYLE
 70
    68
  2
SV0
 40
0.000000
 41
0.000440
 50
0.000000
 71
     0
 42
0.000000
  3
ROMAND
  0
ENDTAB
  0
TABLE
  2
LAYER
 70
     3
  0
LAYER
  2
FOREGROUND
 70
    64
 62
     7
  6
CONTINUOUS
  0
LAYER
  2
BACKGROUND
 70
    65
 62
    -7
  6
CONTINUOUS
  0
LAYER
  2
0
 70
    64
 62
     7
  6
CONTINUOUS
  0
ENDTAB
  0
ENDSEC
  0
SECTION
  2
ENTITIES
  0
POLYLINE
  8
FOREGROUND
  6
CONTINUOUS
 66
     1
 40
0.000000
 41
0.000000
  0
VERTEX
  8
FOREGROUND
  6
CONTINUOUS
 10
0.000000
 20
11.096360
  0
VERTEX
  8
FOREGROUND
  6
CONTINUOUS
 10
8.499920
 20
11.096360
  0
VERTEX
  8
FOREGROUND
  6
CONTINUOUS
 10
8.499920
 20
0.096360
  0
VERTEX
  8
FOREGROUND
  6
CONTINUOUS
 10
0.000000
 20
0.096360
  0
VERTEX
  8
FOREGROUND
  6
CONTINUOUS
 10
0.000000
 20
11.096360
  0
SEQEND
  8
0
  0
POLYLINE
  8
FOREGROUND
  6
CONTINUOUS
 66
     1
 40
0.000000
 41
0.000000
  0
VERTEX
  8
FOREGROUND
  6
CONTINUOUS
 10
0.000000
 20
11.096360
  0
VERTEX
  8
FOREGROUND
  6
CONTINUOUS
 10
8.499920
 20
11.096360
  0
VERTEX
  8
FOREGROUND
  6
CONTINUOUS
 10
8.499920
 20
0.096360
  0
VERTEX
  8
FOREGROUND
  6
CONTINUOUS
 10
0.000000
 20
0.096360
  0
VERTEX
  8
FOREGROUND
  6
CONTINUOUS
 10
0.000000
 20
11.096360
  0
SEQEND
  8
0
  0
POLYLINE
  8
0
  6
CONTINUOUS
 66
     1
 40
0.000000
 41
0.000000
  0
VERTEX
  8
0
  6
CONTINUOUS
 10
2.114640
 20
2.512400
  0
VERTEX
  8
0
  6
CONTINUOUS
 10
2.114640
 20
3.032040
  0
VERTEX
  8
0
  6
CONTINUOUS
 10
2.168760
 20
3.032040
  0
VERTEX
  8
0
  6
CONTINUOUS
 10
2.170520
 20
3.070320
  0
VERTEX
  8
0
  6
CONTINUOUS
 10
2.175800
 20
3.103760
  0
VERTEX
  8
0
  6
CONTINUOUS
 10
2.184160
 20
3.132800
  0
VERTEX
  8
0
  6
CONTINUOUS
 10
2.201320
 20
3.169320
  0
VERTEX
  8
0
  6
CONTINUOUS
 10
2.223760
 20
3.197040
  0
VERTEX
  8
0
  6
CONTINUOUS
 10
2.240040
 20
3.212000
  0
VERTEX
  8
0
  6
CONTINUOUS
 10
2.267320
 20
3.228280
  0
VERTEX
  8
0
  6
CONTINUOUS
 10
2.295480
 20
3.239720
  0
VERTEX
  8
0
  6
CONTINUOUS
 10
2.314400
 20
3.244560
  0
VERTEX
  8
0
  6
CONTINUOUS
 10
2.350920
 20
3.249400
  0
VERTEX
  8
0
  6
CONTINUOUS
 10
2.382600
 20
3.249400
  0
VERTEX
  8
0
  6
CONTINUOUS
 10
2.395800
 20
3.248520
  0
VERTEX
  8
0
  6
CONTINUOUS
 10
2.395800
 20
3.351480
  0
VERTEX
  8
0
  6
CONTINUOUS
 10
2.912800
 20
3.351480
  0
VERTEX
  8
0
  6
CONTINUOUS
 10
2.944480
 20
3.306600
  0
VERTEX
  8
0
  6
CONTINUOUS
 10
2.975720
 20
3.273600
  0
VERTEX
  8
0
  6
CONTINUOUS
 10
3.006080
 20
3.249400
  0
VERTEX
  8
0
  6
CONTINUOUS
 10
3.029840
 20
3.235320
  0
VERTEX
  8
0
  6
CONTINUOUS
 10
3.057120
 20
3.223440
  0
VERTEX
  8
0
  6
CONTINUOUS
 10
3.087920
 20
3.214640
  0
VERTEX
  8
0
  6
CONTINUOUS
 10
3.122680
 20
3.209360
  0
VERTEX
  8
0
  6
CONTINUOUS
 10
3.141160
 20
3.208040
  0
VERTEX
  8
0
  6
CONTINUOUS
 10
3.181640
 20
3.209800
  0
VERTEX
  8
0
  6
CONTINUOUS
 10
3.203200
 20
3.212440
  0
VERTEX
  8
0
  6
CONTINUOUS
 10
3.249840
 20
3.222560
  0
VERTEX
  8
0
  6
CONTINUOUS
 10
3.300880
 20
3.239280
  0
VERTEX
  8
0
  6
CONTINUOUS
 10
3.412200
 20
3.288560
  0
VERTEX
  8
0
  6
CONTINUOUS
 10
3.487440
 20
3.315840
  0
VERTEX
  8
0
  6
CONTINUOUS
 10
3.553000
 20
3.331680
  0
VERTEX
  8
0
  6
CONTINUOUS
 10
3.591720
 20
3.336520
  0
VERTEX
  8
0
  6
CONTINUOUS
 10
3.626480
 20
3.337400
  0
VERTEX
  8
0
  6
CONTINUOUS
 10
3.657720
 20
3.334760
  0
VERTEX
  8
0
  6
CONTINUOUS
 10
3.685000
 20
3.329040
  0
VERTEX
  8
0
  6
CONTINUOUS
 10
3.719760
 20
3.314520
  0
VERTEX
  8
0
  6
CONTINUOUS
 10
3.747040
 20
3.294720
  0
VERTEX
  8
0
  6
CONTINUOUS
 10
3.767280
 20
3.270960
  0
VERTEX
  8
0
  6
CONTINUOUS
 10
3.781360
 20
3.244560
  0
VERTEX
  8
0
  6
CONTINUOUS
 10
3.787080
 20
3.226080
  0
VERTEX
  8
0
  6
CONTINUOUS
 10
3.790600
 20
3.207160
  0
VERTEX
  8
0
  6
CONTINUOUS
 10
3.806000
 20
3.207160
  0
VERTEX
  8
0
  6
CONTINUOUS
 10
3.815240
 20
3.245880
  0
VERTEX
  8
0
  6
CONTINUOUS
 10
3.829760
 20
3.278000
  0
VERTEX
  8
0
  6
CONTINUOUS
 10
3.847800
 20
3.303960
  0
VERTEX
  8
0
  6
CONTINUOUS
 10
3.868480
 20
3.324640
  0
VERTEX
  8
0
  6
CONTINUOUS
 10
3.897960
 20
3.344880
  0
VERTEX
  8
0
  6
CONTINUOUS
 10
3.927000
 20
3.358080
  0
VERTEX
  8
0
  6
CONTINUOUS
 10
3.964840
 20
3.367320
  0
VERTEX
  8
0
  6
CONTINUOUS
 10
3.992560
 20
3.368640
  0
VERTEX
  8
0
  6
CONTINUOUS
 10
4.009720
 20
3.367320
  0
VERTEX
  8
0
  6
CONTINUOUS
 10
4.047560
 20
3.358080
  0
VERTEX
  8
0
  6
CONTINUOUS
 10
4.076600
 20
3.344880
  0
VERTEX
  8
0
  6
CONTINUOUS
 10
4.106080
 20
3.324640
  0
VERTEX
  8
0
  6
CONTINUOUS
 10
4.126760
 20
3.303960
  0
VERTEX
  8
0
  6
CONTINUOUS
 10
4.144800
 20
3.278000
  0
VERTEX
  8
0
  6
CONTINUOUS
 10
4.159320
 20
3.245880
  0
VERTEX
  8
0
  6
CONTINUOUS
 10
4.168560
 20
3.207160
  0
VERTEX
  8
0
  6
CONTINUOUS
 10
4.183960
 20
3.207160
  0
VERTEX
  8
0
  6
CONTINUOUS
 10
4.190120
 20
3.235320
  0
VERTEX
  8
0
  6
CONTINUOUS
 10
4.197160
 20
3.253800
  0
VERTEX
  8
0
  6
CONTINUOUS
 10
4.213440
 20
3.279320
  0
VERTEX
  8
0
  6
CONTINUOUS
 10
4.227520
 20
3.294720
  0
VERTEX
  8
0
  6
CONTINUOUS
 10
4.254800
 20
3.314520
  0
VERTEX
  8
0
  6
CONTINUOUS
 10
4.289560
 20
3.329040
  0
VERTEX
  8
0
  6
CONTINUOUS
 10
4.316840
 20
3.334760
  0
VERTEX
  8
0
  6
CONTINUOUS
 10
4.348080
 20
3.337400
  0
VERTEX
  8
0
  6
CONTINUOUS
 10
4.382840
 20
3.336520
  0
VERTEX
  8
0
  6
CONTINUOUS
 10
4.421560
 20
3.331680
  0
VERTEX
  8
0
  6
CONTINUOUS
 10
4.487120
 20
3.315840
  0
VERTEX
  8
0
  6
CONTINUOUS
 10
4.562360
 20
3.288560
  0
VERTEX
  8
0
  6
CONTINUOUS
 10
4.673680
 20
3.239280
  0
VERTEX
  8
0
  6
CONTINUOUS
 10
4.724720
 20
3.222560
  0
VERTEX
  8
0
  6
CONTINUOUS
 10
4.771360
 20
3.212440
  0
VERTEX
  8
0
  6
CONTINUOUS
 10
4.813600
 20
3.208480
  0
VERTEX
  8
0
  6
CONTINUOUS
 10
4.833400
 20
3.208040
  0
VERTEX
  8
0
  6
CONTINUOUS
 10
4.869920
 20
3.211560
  0
VERTEX
  8
0
  6
CONTINUOUS
 10
4.902480
 20
3.218600
  0
VERTEX
  8
0
  6
CONTINUOUS
 10
4.931520
 20
3.229160
  0
VERTEX
  8
0
  6
CONTINUOUS
 10
4.957040
 20
3.242360
  0
VERTEX
  8
0
  6
CONTINUOUS
 10
4.989600
 20
3.265240
  0
VERTEX
  8
0
  6
CONTINUOUS
 10
5.023040
 20
3.298240
  0
VERTEX
  8
0
  6
CONTINUOUS
 10
5.051200
 20
3.335640
  0
VERTEX
  8
0
  6
CONTINUOUS
 10
5.061760
 20
3.351480
  0
VERTEX
  8
0
  6
CONTINUOUS
 10
5.712520
 20
3.351480
  0
VERTEX
  8
0
  6
CONTINUOUS
 10
5.712520
 20
2.509760
  0
VERTEX
  8
0
  6
CONTINUOUS
 10
2.114640
 20
2.509760
  0
VERTEX
  8
0
  6
CONTINUOUS
 10
2.114640
 20
2.517680
  0
VERTEX
  8
0
  6
CONTINUOUS
 10
2.114640
 20
2.512400
  0
SEQEND
  8
0
  0
POLYLINE
  8
0
  6
CONTINUOUS
 66
     1
 40
0.000000
 41
0.000000
  0
VERTEX
  8
0
  6
CONTINUOUS
 10
5.712520
 20
3.834600
  0
VERTEX
  8
0
  6
CONTINUOUS
 10
5.712520
 20
4.354240
  0
VERTEX
  8
0
  6
CONTINUOUS
 10
5.658400
 20
4.354240
  0
VERTEX
  8
0
  6
CONTINUOUS
 10
5.656640
 20
4.392520
  0
VERTEX
  8
0
  6
CONTINUOUS
 10
5.651360
 20
4.425960
  0
VERTEX
  8
0
  6
CONTINUOUS
 10
5.643000
 20
4.455000
  0
VERTEX
  8
0
  6
CONTINUOUS
 10
5.632000
 20
4.480080
  0
VERTEX
  8
0
  6
CONTINUOUS
 10
5.618800
 20
4.501640
  0
VERTEX
  8
0
  6
CONTINUOUS
 10
5.595480
 20
4.527160
  0
VERTEX
  8
0
  6
CONTINUOUS
 10
5.569080
 20
4.545640
  0
VERTEX
  8
0
  6
CONTINUOUS
 10
5.550600
 20
4.554880
  0
VERTEX
  8
0
  6
CONTINUOUS
 10
5.531680
 20
4.561480
  0
VERTEX
  8
0
  6
CONTINUOUS
 10
5.512760
 20
4.566320
  0
VERTEX
  8
0
  6
CONTINUOUS
 10
5.476240
 20
4.571160
  0
VERTEX
  8
0
  6
CONTINUOUS
 10
5.444560
 20
4.571600
  0
VERTEX
  8
0
  6
CONTINUOUS
 10
5.431360
 20
4.570720
  0
VERTEX
  8
0
  6
CONTINUOUS
 10
5.431360
 20
4.673680
  0
VERTEX
  8
0
  6
CONTINUOUS
 10
4.914360
 20
4.673680
  0
VERTEX
  8
0
  6
CONTINUOUS
 10
4.882680
 20
4.628800
  0
VERTEX
  8
0
  6
CONTINUOUS
 10
4.851440
 20
4.595800
  0
VERTEX
  8
0
  6
CONTINUOUS
 10
4.821080
 20
4.571600
  0
VERTEX
  8
0
  6
CONTINUOUS
 10
4.797320
 20
4.557520
  0
VERTEX
  8
0
  6
CONTINUOUS
 10
4.770040
 20
4.545640
  0
VERTEX
  8
0
  6
CONTINUOUS
 10
4.739240
 20
4.536840
  0
VERTEX
  8
0
  6
CONTINUOUS
 10
4.704480
 20
4.531560
  0
VERTEX
  8
0
  6
CONTINUOUS
 10
4.686000
 20
4.530240
  0
VERTEX
  8
0
  6
CONTINUOUS
 10
4.645520
 20
4.532000
  0
VERTEX
  8
0
  6
CONTINUOUS
 10
4.623960
 20
4.534640
  0
VERTEX
  8
0
  6
CONTINUOUS
 10
4.577320
 20
4.544760
  0
VERTEX
  8
0
  6
CONTINUOUS
 10
4.526280
 20
4.561480
  0
VERTEX
  8
0
  6
CONTINUOUS
 10
4.414960
 20
4.610760
  0
VERTEX
  8
0
  6
CONTINUOUS
 10
4.339720
 20
4.638040
  0
VERTEX
  8
0
  6
CONTINUOUS
 10
4.274160
 20
4.653880
  0
VERTEX
  8
0
  6
CONTINUOUS
 10
4.235440
 20
4.658720
  0
VERTEX
  8
0
  6
CONTINUOUS
 10
4.200680
 20
4.659600
  0
VERTEX
  8
0
  6
CONTINUOUS
 10
4.169440
 20
4.656960
  0
VERTEX
  8
0
  6
CONTINUOUS
 10
4.142160
 20
4.650800
  0
VERTEX
  8
0
  6
CONTINUOUS
 10
4.118400
 20
4.642000
  0
VERTEX
  8
0
  6
CONTINUOUS
 10
4.097720
 20
4.630560
  0
VERTEX
  8
0
  6
CONTINUOUS
 10
4.072640
 20
4.609440
  0
VERTEX
  8
0
  6
CONTINUOUS
 10
4.054600
 20
4.584360
  0
VERTEX
  8
0
  6
CONTINUOUS
 10
4.045800
 20
4.566320
  0
VERTEX
  8
0
  6
CONTINUOUS
 10
4.040080
 20
4.547840
  0
VERTEX
  8
0
  6
CONTINUOUS
 10
4.036560
 20
4.528920
  0
VERTEX
  8
0
  6
CONTINUOUS
 10
4.021160
 20
4.528920
  0
VERTEX
  8
0
  6
CONTINUOUS
 10
4.011920
 20
4.567640
  0
VERTEX
  8
0
  6
CONTINUOUS
 10
3.997400
 20
4.599760
  0
VERTEX
  8
0
  6
CONTINUOUS
 10
3.979360
 20
4.625720
  0
VERTEX
  8
0
  6
CONTINUOUS
 10
3.958680
 20
4.646400
  0
VERTEX
  8
0
  6
CONTINUOUS
 10
3.929200
 20
4.666640
  0
VERTEX
  8
0
  6
CONTINUOUS
 10
3.900160
 20
4.679840
  0
VERTEX
  8
0
  6
CONTINUOUS
 10
3.873320
 20
4.687320
  0
VERTEX
  8
0
  6
CONTINUOUS
 10
3.852640
 20
4.690400
  0
VERTEX
  8
0
  6
CONTINUOUS
 10
3.827120
 20
4.690400
  0
VERTEX
  8
0
  6
CONTINUOUS
 10
3.793680
 20
4.684240
  0
VERTEX
  8
0
  6
CONTINUOUS
 10
3.765080
 20
4.674120
  0
VERTEX
  8
0
  6
CONTINUOUS
 10
3.735600
 20
4.657400
  0
VERTEX
  8
0
  6
CONTINUOUS
 10
3.721080
 20
4.646400
  0
VERTEX
  8
0
  6
CONTINUOUS
 10
3.700400
 20
4.625720
  0
VERTEX
  8
0
  6
CONTINUOUS
 10
3.682360
 20
4.599760
  0
VERTEX
  8
0
  6
CONTINUOUS
 10
3.667840
 20
4.567640
  0
VERTEX
  8
0
  6
CONTINUOUS
 10
3.658600
 20
4.528920
  0
VERTEX
  8
0
  6
CONTINUOUS
 10
3.643200
 20
4.528920
  0
VERTEX
  8
0
  6
CONTINUOUS
 10
3.637040
 20
4.557080
  0
VERTEX
  8
0
  6
CONTINUOUS
 10
3.630000
 20
4.575560
  0
VERTEX
  8
0
  6
CONTINUOUS
 10
3.613720
 20
4.601520
  0
VERTEX
  8
0
  6
CONTINUOUS
 10
3.591280
 20
4.623960
  0
VERTEX
  8
0
  6
CONTINUOUS
 10
3.572360
 20
4.636720
  0
VERTEX
  8
0
  6
CONTINUOUS
 10
3.549920
 20
4.646840
  0
VERTEX
  8
0
  6
CONTINUOUS
 10
3.524400
 20
4.654320
  0
VERTEX
  8
0
  6
CONTINUOUS
 10
3.494920
 20
4.658720
  0
VERTEX
  8
0
  6
CONTINUOUS
 10
3.462360
 20
4.659600
  0
VERTEX
  8
0
  6
CONTINUOUS
 10
3.425400
 20
4.656960
  0
VERTEX
  8
0
  6
CONTINUOUS
 10
3.384920
 20
4.649480
  0
VERTEX
  8
0
  6
CONTINUOUS
 10
3.340040
 20
4.638040
  0
VERTEX
  8
0
  6
CONTINUOUS
 10
3.264800
 20
4.610760
  0
VERTEX
  8
0
  6
CONTINUOUS
 10
3.153480
 20
4.561480
  0
VERTEX
  8
0
  6
CONTINUOUS
 10
3.102440
 20
4.544760
  0
VERTEX
  8
0
  6
CONTINUOUS
 10
3.055800
 20
4.534640
  0
VERTEX
  8
0
  6
CONTINUOUS
 10
3.013560
 20
4.530680
  0
VERTEX
  8
0
  6
CONTINUOUS
 10
2.993760
 20
4.530240
  0
VERTEX
  8
0
  6
CONTINUOUS
 10
2.957240
 20
4.533760
  0
VERTEX
  8
0
  6
CONTINUOUS
 10
2.924680
 20
4.540800
  0
VERTEX
  8
0
  6
CONTINUOUS
 10
2.895640
 20
4.551360
  0
VERTEX
  8
0
  6
CONTINUOUS
 10
2.870120
 20
4.564560
  0
VERTEX
  8
0
  6
CONTINUOUS
 10
2.837560
 20
4.587440
  0
VERTEX
  8
0
  6
CONTINUOUS
 10
2.804120
 20
4.620440
  0
VERTEX
  8
0
  6
CONTINUOUS
 10
2.775960
 20
4.657840
  0
VERTEX
  8
0
  6
CONTINUOUS
 10
2.765400
 20
4.673680
  0
VERTEX
  8
0
  6
CONTINUOUS
 10
2.114640
 20
4.673680
  0
VERTEX
  8
0
  6
CONTINUOUS
 10
2.114640
 20
3.831960
  0
VERTEX
  8
0
  6
CONTINUOUS
 10
5.712520
 20
3.831960
  0
VERTEX
  8
0
  6
CONTINUOUS
 10
5.712520
 20
3.839880
  0
VERTEX
  8
0
  6
CONTINUOUS
 10
5.712520
 20
3.834600
  0
SEQEND
  8
0
  0
SOLID
  8
0
 62
    15
 10
3.985520
 20
6.452160
 11
3.986400
 21
7.177280
 12
4.007080
 22
6.413440
 13
4.007960
 23
7.138560
  0
POLYLINE
  8
0
  6
CONTINUOUS
 66
     1
 40
0.000000
 41
0.000000
  0
VERTEX
  8
0
  6
CONTINUOUS
 10
3.985520
 20
6.452160
  0
VERTEX
  8
0
  6
CONTINUOUS
 10
3.986400
 20
7.177280
  0
VERTEX
  8
0
  6
CONTINUOUS
 10
4.007960
 20
7.138560
  0
VERTEX
  8
0
  6
CONTINUOUS
 10
4.007080
 20
6.413440
  0
VERTEX
  8
0
  6
CONTINUOUS
 10
3.985520
 20
6.452160
  0
SEQEND
  8
0
  0
SOLID
  8
0
 62
    15
 10
2.114200
 20
6.507600
 11
2.115080
 21
7.233160
 12
2.764960
 22
6.507600
 13
2.765840
 23
7.233160
  0
POLYLINE
  8
0
  6
CONTINUOUS
 66
     1
 40
0.000000
 41
0.000000
  0
VERTEX
  8
0
  6
CONTINUOUS
 10
2.114200
 20
6.507600
  0
VERTEX
  8
0
  6
CONTINUOUS
 10
2.115080
 20
7.233160
  0
VERTEX
  8
0
  6
CONTINUOUS
 10
2.765840
 20
7.233160
  0
VERTEX
  8
0
  6
CONTINUOUS
 10
2.764960
 20
6.507600
  0
VERTEX
  8
0
  6
CONTINUOUS
 10
2.114200
 20
6.507600
  0
SEQEND
  8
0
  0
SOLID
  8
0
 62
    15
 10
2.764960
 20
6.507600
 11
2.765840
 21
7.233160
 12
2.768040
 22
6.503200
 13
2.768920
 23
7.228760
  0
POLYLINE
  8
0
  6
CONTINUOUS
 66
     1
 40
0.000000
 41
0.000000
  0
VERTEX
  8
0
  6
CONTINUOUS
 10
2.764960
 20
6.507600
  0
VERTEX
  8
0
  6
CONTINUOUS
 10
2.765840
 20
7.233160
  0
VERTEX
  8
0
  6
CONTINUOUS
 10
2.768920
 20
7.228760
  0
VERTEX
  8
0
  6
CONTINUOUS
 10
2.768040
 20
6.503200
  0
VERTEX
  8
0
  6
CONTINUOUS
 10
2.764960
 20
6.507600
  0
SEQEND
  8
0
  0
SOLID
  8
0
 62
    15
 10
2.768040
 20
6.503200
 11
2.768920
 21
7.228760
 12
2.779920
 22
6.485160
 13
2.780800
 23
7.210720
  0
POLYLINE
  8
0
  6
CONTINUOUS
 66
     1
 40
0.000000
 41
0.000000
  0
VERTEX
  8
0
  6
CONTINUOUS
 10
2.768040
 20
6.503200
  0
VERTEX
  8
0
  6
CONTINUOUS
 10
2.768920
 20
7.228760
  0
VERTEX
  8
0
  6
CONTINUOUS
 10
2.780800
 20
7.210720
  0
VERTEX
  8
0
  6
CONTINUOUS
 10
2.779920
 20
6.485160
  0
VERTEX
  8
0
  6
CONTINUOUS
 10
2.768040
 20
6.503200
  0
SEQEND
  8
0
  0
SOLID
  8
0
 62
    15
 10
2.779920
 20
6.485160
 11
2.780800
 21
7.210720
 12
2.803680
 22
6.454800
 13
2.804560
 23
7.179920
  0
POLYLINE
  8
0
  6
CONTINUOUS
 66
     1
 40
0.000000
 41
0.000000
  0
VERTEX
  8
0
  6
CONTINUOUS
 10
2.779920
 20
6.485160
  0
VERTEX
  8
0
  6
CONTINUOUS
 10
2.780800
 20
7.210720
  0
VERTEX
  8
0
  6
CONTINUOUS
 10
2.804560
 20
7.179920
  0
VERTEX
  8
0
  6
CONTINUOUS
 10
2.803680
 20
6.454800
  0
VERTEX
  8
0
  6
CONTINUOUS
 10
2.779920
 20
6.485160
  0
SEQEND
  8
0
  0
SOLID
  8
0
 62
    15
 10
2.803680
 20
6.454800
 11
2.804560
 21
7.179920
 12
2.837120
 22
6.421360
 13
2.838000
 23
7.146920
  0
POLYLINE
  8
0
  6
CONTINUOUS
 66
     1
 40
0.000000
 41
0.000000
  0
VERTEX
  8
0
  6
CONTINUOUS
 10
2.803680
 20
6.454800
  0
VERTEX
  8
0
  6
CONTINUOUS
 10
2.804560
 20
7.179920
  0
VERTEX
  8
0
  6
CONTINUOUS
 10
2.838000
 20
7.146920
  0
VERTEX
  8
0
  6
CONTINUOUS
 10
2.837120
 20
6.421360
  0
VERTEX
  8
0
  6
CONTINUOUS
 10
2.803680
 20
6.454800
  0
SEQEND
  8
0
  0
SOLID
  8
0
 62
    15
 10
2.837120
 20
6.421360
 11
2.838000
 21
7.146920
 12
2.882000
 22
6.391440
 13
2.882880
 23
7.117000
  0
POLYLINE
  8
0
  6
CONTINUOUS
 66
     1
 40
0.000000
 41
0.000000
  0
VERTEX
  8
0
  6
CONTINUOUS
 10
2.837120
 20
6.421360
  0
VERTEX
  8
0
  6
CONTINUOUS
 10
2.838000
 20
7.146920
  0
VERTEX
  8
0
  6
CONTINUOUS
 10
2.882880
 20
7.117000
  0
VERTEX
  8
0
  6
CONTINUOUS
 10
2.882000
 20
6.391440
  0
VERTEX
  8
0
  6
CONTINUOUS
 10
2.837120
 20
6.421360
  0
SEQEND
  8
0
  0
SOLID
  8
0
 62
    15
 10
2.882000
 20
6.391440
 11
2.882880
 21
7.117000
 12
2.909720
 22
6.379560
 13
2.910160
 23
7.105120
  0
POLYLINE
  8
0
  6
CONTINUOUS
 66
     1
 40
0.000000
 41
0.000000
  0
VERTEX
  8
0
  6
CONTINUOUS
 10
2.882000
 20
6.391440
  0
VERTEX
  8
0
  6
CONTINUOUS
 10
2.882880
 20
7.117000
  0
VERTEX
  8
0
  6
CONTINUOUS
 10
2.910160
 20
7.105120
  0
VERTEX
  8
0
  6
CONTINUOUS
 10
2.909720
 20
6.379560
  0
VERTEX
  8
0
  6
CONTINUOUS
 10
2.882000
 20
6.391440
  0
SEQEND
  8
0
  0
SOLID
  8
0
 62
    15
 10
2.909720
 20
6.379560
 11
2.910160
 21
7.105120
 12
2.940520
 22
6.370760
 13
2.940960
 23
7.096320
  0
POLYLINE
  8
0
  6
CONTINUOUS
 66
     1
 40
0.000000
 41
0.000000
  0
VERTEX
  8
0
  6
CONTINUOUS
 10
2.909720
 20
6.379560
  0
VERTEX
  8
0
  6
CONTINUOUS
 10
2.910160
 20
7.105120
  0
VERTEX
  8
0
  6
CONTINUOUS
 10
2.940960
 20
7.096320
  0
VERTEX
  8
0
  6
CONTINUOUS
 10
2.940520
 20
6.370760
  0
VERTEX
  8
0
  6
CONTINUOUS
 10
2.909720
 20
6.379560
  0
SEQEND
  8
0
  0
SOLID
  8
0
 62
    15
 10
2.940520
 20
6.370760
 11
2.940960
 21
7.096320
 12
2.974840
 22
6.365480
 13
2.975720
 23
7.091040
  0
POLYLINE
  8
0
  6
CONTINUOUS
 66
     1
 40
0.000000
 41
0.000000
  0
VERTEX
  8
0
  6
CONTINUOUS
 10
2.940520
 20
6.370760
  0
VERTEX
  8
0
  6
CONTINUOUS
 10
2.940960
 20
7.096320
  0
VERTEX
  8
0
  6
CONTINUOUS
 10
2.975720
 20
7.091040
  0
VERTEX
  8
0
  6
CONTINUOUS
 10
2.974840
 20
6.365480
  0
VERTEX
  8
0
  6
CONTINUOUS
 10
2.940520
 20
6.370760
  0
SEQEND
  8
0
  0
SOLID
  8
0
 62
    15
 10
2.974840
 20
6.365480
 11
2.975720
 21
7.091040
 12
3.013120
 22
6.364600
 13
3.014000
 23
7.090160
  0
POLYLINE
  8
0
  6
CONTINUOUS
 66
     1
 40
0.000000
 41
0.000000
  0
VERTEX
  8
0
  6
CONTINUOUS
 10
2.974840
 20
6.365480
  0
VERTEX
  8
0
  6
CONTINUOUS
 10
2.975720
 20
7.091040
  0
VERTEX
  8
0
  6
CONTINUOUS
 10
3.014000
 20
7.090160
  0
VERTEX
  8
0
  6
CONTINUOUS
 10
3.013120
 20
6.364600
  0
VERTEX
  8
0
  6
CONTINUOUS
 10
2.974840
 20
6.365480
  0
SEQEND
  8
0
  0
SOLID
  8
0
 62
    15
 10
3.013120
 20
6.364600
 11
3.014000
 21
7.090160
 12
3.055360
 22
6.369000
 13
3.056240
 23
7.094120
  0
POLYLINE
  8
0
  6
CONTINUOUS
 66
     1
 40
0.000000
 41
0.000000
  0
VERTEX
  8
0
  6
CONTINUOUS
 10
3.013120
 20
6.364600
  0
VERTEX
  8
0
  6
CONTINUOUS
 10
3.014000
 20
7.090160
  0
VERTEX
  8
0
  6
CONTINUOUS
 10
3.056240
 20
7.094120
  0
VERTEX
  8
0
  6
CONTINUOUS
 10
3.055360
 20
6.369000
  0
VERTEX
  8
0
  6
CONTINUOUS
 10
3.013120
 20
6.364600
  0
SEQEND
  8
0
  0
SOLID
  8
0
 62
    15
 10
3.055360
 20
6.369000
 11
3.056240
 21
7.094120
 12
3.102000
 22
6.379120
 13
3.102880
 23
7.104240
  0
POLYLINE
  8
0
  6
CONTINUOUS
 66
     1
 40
0.000000
 41
0.000000
  0
VERTEX
  8
0
  6
CONTINUOUS
 10
3.055360
 20
6.369000
  0
VERTEX
  8
0
  6
CONTINUOUS
 10
3.056240
 20
7.094120
  0
VERTEX
  8
0
  6
CONTINUOUS
 10
3.102880
 20
7.104240
  0
VERTEX
  8
0
  6
CONTINUOUS
 10
3.102000
 20
6.379120
  0
VERTEX
  8
0
  6
CONTINUOUS
 10
3.055360
 20
6.369000
  0
SEQEND
  8
0
  0
SOLID
  8
0
 62
    15
 10
3.102000
 20
6.379120
 11
3.102880
 21
7.104240
 12
3.153040
 22
6.395840
 13
3.153920
 23
7.120960
  0
POLYLINE
  8
0
  6
CONTINUOUS
 66
     1
 40
0.000000
 41
0.000000
  0
VERTEX
  8
0
  6
CONTINUOUS
 10
3.102000
 20
6.379120
  0
VERTEX
  8
0
  6
CONTINUOUS
 10
3.102880
 20
7.104240
  0
VERTEX
  8
0
  6
CONTINUOUS
 10
3.153920
 20
7.120960
  0
VERTEX
  8
0
  6
CONTINUOUS
 10
3.153040
 20
6.395840
  0
VERTEX
  8
0
  6
CONTINUOUS
 10
3.102000
 20
6.379120
  0
SEQEND
  8
0
  0
SOLID
  8
0
 62
    15
 10
3.153040
 20
6.395840
 11
3.153920
 21
7.120960
 12
3.208480
 22
6.419600
 13
3.209360
 23
7.145160
  0
POLYLINE
  8
0
  6
CONTINUOUS
 66
     1
 40
0.000000
 41
0.000000
  0
VERTEX
  8
0
  6
CONTINUOUS
 10
3.153040
 20
6.395840
  0
VERTEX
  8
0
  6
CONTINUOUS
 10
3.153920
 20
7.120960
  0
VERTEX
  8
0
  6
CONTINUOUS
 10
3.209360
 20
7.145160
  0
VERTEX
  8
0
  6
CONTINUOUS
 10
3.208480
 20
6.419600
  0
VERTEX
  8
0
  6
CONTINUOUS
 10
3.153040
 20
6.395840
  0
SEQEND
  8
0
  0
SOLID
  8
0
 62
    15
 10
3.208480
 20
6.419600
 11
3.209360
 21
7.145160
 12
3.264360
 22
6.444680
 13
3.265240
 23
7.170240
  0
POLYLINE
  8
0
  6
CONTINUOUS
 66
     1
 40
0.000000
 41
0.000000
  0
VERTEX
  8
0
  6
CONTINUOUS
 10
3.208480
 20
6.419600
  0
VERTEX
  8
0
  6
CONTINUOUS
 10
3.209360
 20
7.145160
  0
VERTEX
  8
0
  6
CONTINUOUS
 10
3.265240
 20
7.170240
  0
VERTEX
  8
0
  6
CONTINUOUS
 10
3.264360
 20
6.444680
  0
VERTEX
  8
0
  6
CONTINUOUS
 10
3.208480
 20
6.419600
  0
SEQEND
  8
0
  0
SOLID
  8
0
 62
    15
 10
3.264360
 20
6.444680
 11
3.265240
 21
7.170240
 12
3.315400
 22
6.464040
 13
3.316280
 23
7.189600
  0
POLYLINE
  8
0
  6
CONTINUOUS
 66
     1
 40
0.000000
 41
0.000000
  0
VERTEX
  8
0
  6
CONTINUOUS
 10
3.264360
 20
6.444680
  0
VERTEX
  8
0
  6
CONTINUOUS
 10
3.265240
 20
7.170240
  0
VERTEX
  8
0
  6
CONTINUOUS
 10
3.316280
 20
7.189600
  0
VERTEX
  8
0
  6
CONTINUOUS
 10
3.315400
 20
6.464040
  0
VERTEX
  8
0
  6
CONTINUOUS
 10
3.264360
 20
6.444680
  0
SEQEND
  8
0
  0
SOLID
  8
0
 62
    15
 10
3.315400
 20
6.464040
 11
3.316280
 21
7.189600
 12
3.362480
 22
6.478120
 13
3.363360
 23
7.203680
  0
POLYLINE
  8
0
  6
CONTINUOUS
 66
     1
 40
0.000000
 41
0.000000
  0
VERTEX
  8
0
  6
CONTINUOUS
 10
3.315400
 20
6.464040
  0
VERTEX
  8
0
  6
CONTINUOUS
 10
3.316280
 20
7.189600
  0
VERTEX
  8
0
  6
CONTINUOUS
 10
3.363360
 20
7.203680
  0
VERTEX
  8
0
  6
CONTINUOUS
 10
3.362480
 20
6.478120
  0
VERTEX
  8
0
  6
CONTINUOUS
 10
3.315400
 20
6.464040
  0
SEQEND
  8
0
  0
SOLID
  8
0
 62
    15
 10
3.362480
 20
6.478120
 11
3.363360
 21
7.203680
 12
3.405160
 22
6.487800
 13
3.406040
 23
7.213360
  0
POLYLINE
  8
0
  6
CONTINUOUS
 66
     1
 40
0.000000
 41
0.000000
  0
VERTEX
  8
0
  6
CONTINUOUS
 10
3.362480
 20
6.478120
  0
VERTEX
  8
0
  6
CONTINUOUS
 10
3.363360
 20
7.203680
  0
VERTEX
  8
0
  6
CONTINUOUS
 10
3.406040
 20
7.213360
  0
VERTEX
  8
0
  6
CONTINUOUS
 10
3.405160
 20
6.487800
  0
VERTEX
  8
0
  6
CONTINUOUS
 10
3.362480
 20
6.478120
  0
SEQEND
  8
0
  0
SOLID
  8
0
 62
    15
 10
3.405160
 20
6.487800
 11
3.406040
 21
7.213360
 12
3.443880
 22
6.492640
 13
3.444760
 23
7.218200
  0
POLYLINE
  8
0
  6
CONTINUOUS
 66
     1
 40
0.000000
 41
0.000000
  0
VERTEX
  8
0
  6
CONTINUOUS
 10
3.405160
 20
6.487800
  0
VERTEX
  8
0
  6
CONTINUOUS
 10
3.406040
 20
7.213360
  0
VERTEX
  8
0
  6
CONTINUOUS
 10
3.444760
 20
7.218200
  0
VERTEX
  8
0
  6
CONTINUOUS
 10
3.443880
 20
6.492640
  0
VERTEX
  8
0
  6
CONTINUOUS
 10
3.405160
 20
6.487800
  0
SEQEND
  8
0
  0
SOLID
  8
0
 62
    15
 10
3.443880
 20
6.492640
 11
3.444760
 21
7.218200
 12
3.478640
 22
6.493960
 13
3.479520
 23
7.219080
  0
POLYLINE
  8
0
  6
CONTINUOUS
 66
     1
 40
0.000000
 41
0.000000
  0
VERTEX
  8
0
  6
CONTINUOUS
 10
3.443880
 20
6.492640
  0
VERTEX
  8
0
  6
CONTINUOUS
 10
3.444760
 20
7.218200
  0
VERTEX
  8
0
  6
CONTINUOUS
 10
3.479520
 20
7.219080
  0
VERTEX
  8
0
  6
CONTINUOUS
 10
3.478640
 20
6.493960
  0
VERTEX
  8
0
  6
CONTINUOUS
 10
3.443880
 20
6.492640
  0
SEQEND
  8
0
  0
SOLID
  8
0
 62
    15
 10
3.478640
 20
6.493960
 11
3.479520
 21
7.219080
 12
3.509880
 22
6.490880
 13
3.510320
 23
7.216440
  0
POLYLINE
  8
0
  6
CONTINUOUS
 66
     1
 40
0.000000
 41
0.000000
  0
VERTEX
  8
0
  6
CONTINUOUS
 10
3.478640
 20
6.493960
  0
VERTEX
  8
0
  6
CONTINUOUS
 10
3.479520
 20
7.219080
  0
VERTEX
  8
0
  6
CONTINUOUS
 10
3.510320
 20
7.216440
  0
VERTEX
  8
0
  6
CONTINUOUS
 10
3.509880
 20
6.490880
  0
VERTEX
  8
0
  6
CONTINUOUS
 10
3.478640
 20
6.493960
  0
SEQEND
  8
0
  0
SOLID
  8
0
 62
    15
 10
3.509880
 20
6.490880
 11
3.510320
 21
7.216440
 12
3.537160
 22
6.485160
 13
3.538040
 23
7.210280
  0
POLYLINE
  8
0
  6
CONTINUOUS
 66
     1
 40
0.000000
 41
0.000000
  0
VERTEX
  8
0
  6
CONTINUOUS
 10
3.509880
 20
6.490880
  0
VERTEX
  8
0
  6
CONTINUOUS
 10
3.510320
 20
7.216440
  0
VERTEX
  8
0
  6
CONTINUOUS
 10
3.538040
 20
7.210280
  0
VERTEX
  8
0
  6
CONTINUOUS
 10
3.537160
 20
6.485160
  0
VERTEX
  8
0
  6
CONTINUOUS
 10
3.509880
 20
6.490880
  0
SEQEND
  8
0
  0
SOLID
  8
0
 62
    15
 10
3.537160
 20
6.485160
 11
3.538040
 21
7.210280
 12
3.560920
 22
6.476360
 13
3.561800
 23
7.201480
  0
POLYLINE
  8
0
  6
CONTINUOUS
 66
     1
 40
0.000000
 41
0.000000
  0
VERTEX
  8
0
  6
CONTINUOUS
 10
3.537160
 20
6.485160
  0
VERTEX
  8
0
  6
CONTINUOUS
 10
3.538040
 20
7.210280
  0
VERTEX
  8
0
  6
CONTINUOUS
 10
3.561800
 20
7.201480
  0
VERTEX
  8
0
  6
CONTINUOUS
 10
3.560920
 20
6.476360
  0
VERTEX
  8
0
  6
CONTINUOUS
 10
3.537160
 20
6.485160
  0
SEQEND
  8
0
  0
SOLID
  8
0
 62
    15
 10
3.560920
 20
6.476360
 11
3.561800
 21
7.201480
 12
3.581600
 22
6.464480
 13
3.582480
 23
7.190040
  0
POLYLINE
  8
0
  6
CONTINUOUS
 66
     1
 40
0.000000
 41
0.000000
  0
VERTEX
  8
0
  6
CONTINUOUS
 10
3.560920
 20
6.476360
  0
VERTEX
  8
0
  6
CONTINUOUS
 10
3.561800
 20
7.201480
  0
VERTEX
  8
0
  6
CONTINUOUS
 10
3.582480
 20
7.190040
  0
VERTEX
  8
0
  6
CONTINUOUS
 10
3.581600
 20
6.464480
  0
VERTEX
  8
0
  6
CONTINUOUS
 10
3.560920
 20
6.476360
  0
SEQEND
  8
0
  0
SOLID
  8
0
 62
    15
 10
3.581600
 20
6.464480
 11
3.582480
 21
7.190040
 12
3.613280
 22
6.435440
 13
3.614160
 23
7.161000
  0
POLYLINE
  8
0
  6
CONTINUOUS
 66
     1
 40
0.000000
 41
0.000000
  0
VERTEX
  8
0
  6
CONTINUOUS
 10
3.581600
 20
6.464480
  0
VERTEX
  8
0
  6
CONTINUOUS
 10
3.582480
 20
7.190040
  0
VERTEX
  8
0
  6
CONTINUOUS
 10
3.614160
 20
7.161000
  0
VERTEX
  8
0
  6
CONTINUOUS
 10
3.613280
 20
6.435440
  0
VERTEX
  8
0
  6
CONTINUOUS
 10
3.581600
 20
6.464480
  0
SEQEND
  8
0
  0
SOLID
  8
0
 62
    15
 10
3.613280
 20
6.435440
 11
3.614160
 21
7.161000
 12
3.633080
 22
6.400680
 13
3.633960
 23
7.126240
  0
POLYLINE
  8
0
  6
CONTINUOUS
 66
     1
 40
0.000000
 41
0.000000
  0
VERTEX
  8
0
  6
CONTINUOUS
 10
3.613280
 20
6.435440
  0
VERTEX
  8
0
  6
CONTINUOUS
 10
3.614160
 20
7.161000
  0
VERTEX
  8
0
  6
CONTINUOUS
 10
3.633960
 20
7.126240
  0
VERTEX
  8
0
  6
CONTINUOUS
 10
3.633080
 20
6.400680
  0
VERTEX
  8
0
  6
CONTINUOUS
 10
3.613280
 20
6.435440
  0
SEQEND
  8
0
  0
SOLID
  8
0
 62
    15
 10
3.633080
 20
6.400680
 11
3.633960
 21
7.126240
 12
3.642760
 22
6.363280
 13
3.643640
 23
7.088400
  0
POLYLINE
  8
0
  6
CONTINUOUS
 66
     1
 40
0.000000
 41
0.000000
  0
VERTEX
  8
0
  6
CONTINUOUS
 10
3.633080
 20
6.400680
  0
VERTEX
  8
0
  6
CONTINUOUS
 10
3.633960
 20
7.126240
  0
VERTEX
  8
0
  6
CONTINUOUS
 10
3.643640
 20
7.088400
  0
VERTEX
  8
0
  6
CONTINUOUS
 10
3.642760
 20
6.363280
  0
VERTEX
  8
0
  6
CONTINUOUS
 10
3.633080
 20
6.400680
  0
SEQEND
  8
0
  0
SOLID
  8
0
 62
    15
 10
3.642760
 20
6.363280
 11
3.643640
 21
7.088400
 12
3.658160
 22
6.363280
 13
3.659040
 23
7.088400
  0
POLYLINE
  8
0
  6
CONTINUOUS
 66
     1
 40
0.000000
 41
0.000000
  0
VERTEX
  8
0
  6
CONTINUOUS
 10
3.642760
 20
6.363280
  0
VERTEX
  8
0
  6
CONTINUOUS
 10
3.643640
 20
7.088400
  0
VERTEX
  8
0
  6
CONTINUOUS
 10
3.659040
 20
7.088400
  0
VERTEX
  8
0
  6
CONTINUOUS
 10
3.658160
 20
6.363280
  0
VERTEX
  8
0
  6
CONTINUOUS
 10
3.642760
 20
6.363280
  0
SEQEND
  8
0
  0
SOLID
  8
0
 62
    15
 10
3.658160
 20
6.363280
 11
3.659040
 21
7.088400
 12
3.671800
 22
6.413440
 13
3.672680
 23
7.138560
  0
POLYLINE
  8
0
  6
CONTINUOUS
 66
     1
 40
0.000000
 41
0.000000
  0
VERTEX
  8
0
  6
CONTINUOUS
 10
3.658160
 20
6.363280
  0
VERTEX
  8
0
  6
CONTINUOUS
 10
3.659040
 20
7.088400
  0
VERTEX
  8
0
  6
CONTINUOUS
 10
3.672680
 20
7.138560
  0
VERTEX
  8
0
  6
CONTINUOUS
 10
3.671800
 20
6.413440
  0
VERTEX
  8
0
  6
CONTINUOUS
 10
3.658160
 20
6.363280
  0
SEQEND
  8
0
  0
SOLID
  8
0
 62
    15
 10
3.671800
 20
6.413440
 11
3.672680
 21
7.138560
 12
3.693360
 22
6.452160
 13
3.694240
 23
7.177280
  0
POLYLINE
  8
0
  6
CONTINUOUS
 66
     1
 40
0.000000
 41
0.000000
  0
VERTEX
  8
0
  6
CONTINUOUS
 10
3.671800
 20
6.413440
  0
VERTEX
  8
0
  6
CONTINUOUS
 10
3.672680
 20
7.138560
  0
VERTEX
  8
0
  6
CONTINUOUS
 10
3.694240
 20
7.177280
  0
VERTEX
  8
0
  6
CONTINUOUS
 10
3.693360
 20
6.452160
  0
VERTEX
  8
0
  6
CONTINUOUS
 10
3.671800
 20
6.413440
  0
SEQEND
  8
0
  0
SOLID
  8
0
 62
    15
 10
3.693360
 20
6.452160
 11
3.694240
 21
7.177280
 12
3.720640
 22
6.480760
 13
3.721080
 23
7.206320
  0
POLYLINE
  8
0
  6
CONTINUOUS
 66
     1
 40
0.000000
 41
0.000000
  0
VERTEX
  8
0
  6
CONTINUOUS
 10
3.693360
 20
6.452160
  0
VERTEX
  8
0
  6
CONTINUOUS
 10
3.694240
 20
7.177280
  0
VERTEX
  8
0
  6
CONTINUOUS
 10
3.721080
 20
7.206320
  0
VERTEX
  8
0
  6
CONTINUOUS
 10
3.720640
 20
6.480760
  0
VERTEX
  8
0
  6
CONTINUOUS
 10
3.693360
 20
6.452160
  0
SEQEND
  8
0
  0
SOLID
  8
0
 62
    15
 10
3.720640
 20
6.480760
 11
3.721080
 21
7.206320
 12
3.750120
 22
6.501000
 13
3.750560
 23
7.226560
  0
POLYLINE
  8
0
  6
CONTINUOUS
 66
     1
 40
0.000000
 41
0.000000
  0
VERTEX
  8
0
  6
CONTINUOUS
 10
3.720640
 20
6.480760
  0
VERTEX
  8
0
  6
CONTINUOUS
 10
3.721080
 20
7.206320
  0
VERTEX
  8
0
  6
CONTINUOUS
 10
3.750560
 20
7.226560
  0
VERTEX
  8
0
  6
CONTINUOUS
 10
3.750120
 20
6.501000
  0
VERTEX
  8
0
  6
CONTINUOUS
 10
3.720640
 20
6.480760
  0
SEQEND
  8
0
  0
SOLID
  8
0
 62
    15
 10
3.750120
 20
6.501000
 11
3.750560
 21
7.226560
 12
3.779160
 22
6.514200
 13
3.780040
 23
7.239320
  0
POLYLINE
  8
0
  6
CONTINUOUS
 66
     1
 40
0.000000
 41
0.000000
  0
VERTEX
  8
0
  6
CONTINUOUS
 10
3.750120
 20
6.501000
  0
VERTEX
  8
0
  6
CONTINUOUS
 10
3.750560
 20
7.226560
  0
VERTEX
  8
0
  6
CONTINUOUS
 10
3.780040
 20
7.239320
  0
VERTEX
  8
0
  6
CONTINUOUS
 10
3.779160
 20
6.514200
  0
VERTEX
  8
0
  6
CONTINUOUS
 10
3.750120
 20
6.501000
  0
SEQEND
  8
0
  0
SOLID
  8
0
 62
    15
 10
3.779160
 20
6.514200
 11
3.780040
 21
7.239320
 12
3.806000
 22
6.521240
 13
3.806440
 23
7.246800
  0
POLYLINE
  8
0
  6
CONTINUOUS
 66
     1
 40
0.000000
 41
0.000000
  0
VERTEX
  8
0
  6
CONTINUOUS
 10
3.779160
 20
6.514200
  0
VERTEX
  8
0
  6
CONTINUOUS
 10
3.780040
 20
7.239320
  0
VERTEX
  8
0
  6
CONTINUOUS
 10
3.806440
 20
7.246800
  0
VERTEX
  8
0
  6
CONTINUOUS
 10
3.806000
 20
6.521240
  0
VERTEX
  8
0
  6
CONTINUOUS
 10
3.779160
 20
6.514200
  0
SEQEND
  8
0
  0
SOLID
  8
0
 62
    15
 10
3.806000
 20
6.521240
 11
3.806440
 21
7.246800
 12
3.826680
 22
6.524320
 13
3.827560
 23
7.249880
  0
POLYLINE
  8
0
  6
CONTINUOUS
 66
     1
 40
0.000000
 41
0.000000
  0
VERTEX
  8
0
  6
CONTINUOUS
 10
3.806000
 20
6.521240
  0
VERTEX
  8
0
  6
CONTINUOUS
 10
3.806440
 20
7.246800
  0
VERTEX
  8
0
  6
CONTINUOUS
 10
3.827560
 20
7.249880
  0
VERTEX
  8
0
  6
CONTINUOUS
 10
3.826680
 20
6.524320
  0
VERTEX
  8
0
  6
CONTINUOUS
 10
3.806000
 20
6.521240
  0
SEQEND
  8
0
  0
SOLID
  8
0
 62
    15
 10
3.826680
 20
6.524320
 11
3.827560
 21
7.249880
 12
3.839440
 22
6.524760
 13
3.840320
 23
7.250320
  0
POLYLINE
  8
0
  6
CONTINUOUS
 66
     1
 40
0.000000
 41
0.000000
  0
VERTEX
  8
0
  6
CONTINUOUS
 10
3.826680
 20
6.524320
  0
VERTEX
  8
0
  6
CONTINUOUS
 10
3.827560
 20
7.249880
  0
VERTEX
  8
0
  6
CONTINUOUS
 10
3.840320
 20
7.250320
  0
VERTEX
  8
0
  6
CONTINUOUS
 10
3.839440
 20
6.524760
  0
VERTEX
  8
0
  6
CONTINUOUS
 10
3.826680
 20
6.524320
  0
SEQEND
  8
0
  0
SOLID
  8
0
 62
    15
 10
3.839440
 20
6.524760
 11
3.840320
 21
7.250320
 12
3.852200
 22
6.524320
 13
3.853080
 23
7.249880
  0
POLYLINE
  8
0
  6
CONTINUOUS
 66
     1
 40
0.000000
 41
0.000000
  0
VERTEX
  8
0
  6
CONTINUOUS
 10
3.839440
 20
6.524760
  0
VERTEX
  8
0
  6
CONTINUOUS
 10
3.840320
 20
7.250320
  0
VERTEX
  8
0
  6
CONTINUOUS
 10
3.853080
 20
7.249880
  0
VERTEX
  8
0
  6
CONTINUOUS
 10
3.852200
 20
6.524320
  0
VERTEX
  8
0
  6
CONTINUOUS
 10
3.839440
 20
6.524760
  0
SEQEND
  8
0
  0
SOLID
  8
0
 62
    15
 10
3.852200
 20
6.524320
 11
3.853080
 21
7.249880
 12
3.872880
 22
6.521240
 13
3.873760
 23
7.246800
  0
POLYLINE
  8
0
  6
CONTINUOUS
 66
     1
 40
0.000000
 41
0.000000
  0
VERTEX
  8
0
  6
CONTINUOUS
 10
3.852200
 20
6.524320
  0
VERTEX
  8
0
  6
CONTINUOUS
 10
3.853080
 20
7.249880
  0
VERTEX
  8
0
  6
CONTINUOUS
 10
3.873760
 20
7.246800
  0
VERTEX
  8
0
  6
CONTINUOUS
 10
3.872880
 20
6.521240
  0
VERTEX
  8
0
  6
CONTINUOUS
 10
3.852200
 20
6.524320
  0
SEQEND
  8
0
  0
SOLID
  8
0
 62
    15
 10
3.872880
 20
6.521240
 11
3.873760
 21
7.246800
 12
3.899720
 22
6.514200
 13
3.900160
 23
7.239320
  0
POLYLINE
  8
0
  6
CONTINUOUS
 66
     1
 40
0.000000
 41
0.000000
  0
VERTEX
  8
0
  6
CONTINUOUS
 10
3.872880
 20
6.521240
  0
VERTEX
  8
0
  6
CONTINUOUS
 10
3.873760
 20
7.246800
  0
VERTEX
  8
0
  6
CONTINUOUS
 10
3.900160
 20
7.239320
  0
VERTEX
  8
0
  6
CONTINUOUS
 10
3.899720
 20
6.514200
  0
VERTEX
  8
0
  6
CONTINUOUS
 10
3.872880
 20
6.521240
  0
SEQEND
  8
0
  0
SOLID
  8
0
 62
    15
 10
3.899720
 20
6.514200
 11
3.900160
 21
7.239320
 12
3.928760
 22
6.501000
 13
3.929640
 23
7.226120
  0
POLYLINE
  8
0
  6
CONTINUOUS
 66
     1
 40
0.000000
 41
0.000000
  0
VERTEX
  8
0
  6
CONTINUOUS
 10
3.899720
 20
6.514200
  0
VERTEX
  8
0
  6
CONTINUOUS
 10
3.900160
 20
7.239320
  0
VERTEX
  8
0
  6
CONTINUOUS
 10
3.929640
 20
7.226120
  0
VERTEX
  8
0
  6
CONTINUOUS
 10
3.928760
 20
6.501000
  0
VERTEX
  8
0
  6
CONTINUOUS
 10
3.899720
 20
6.514200
  0
SEQEND
  8
0
  0
SOLID
  8
0
 62
    15
 10
3.928760
 20
6.501000
 11
3.929640
 21
7.226120
 12
3.958680
 22
6.480760
 13
3.959120
 23
7.206320
  0
POLYLINE
  8
0
  6
CONTINUOUS
 66
     1
 40
0.000000
 41
0.000000
  0
VERTEX
  8
0
  6
CONTINUOUS
 10
3.928760
 20
6.501000
  0
VERTEX
  8
0
  6
CONTINUOUS
 10
3.929640
 20
7.226120
  0
VERTEX
  8
0
  6
CONTINUOUS
 10
3.959120
 20
7.206320
  0
VERTEX
  8
0
  6
CONTINUOUS
 10
3.958680
 20
6.480760
  0
VERTEX
  8
0
  6
CONTINUOUS
 10
3.928760
 20
6.501000
  0
SEQEND
  8
0
  0
SOLID
  8
0
 62
    15
 10
3.958680
 20
6.480760
 11
3.959120
 21
7.206320
 12
3.985520
 22
6.452160
 13
3.986400
 23
7.177280
  0
POLYLINE
  8
0
  6
CONTINUOUS
 66
     1
 40
0.000000
 41
0.000000
  0
VERTEX
  8
0
  6
CONTINUOUS
 10
3.958680
 20
6.480760
  0
VERTEX
  8
0
  6
CONTINUOUS
 10
3.959120
 20
7.206320
  0
VERTEX
  8
0
  6
CONTINUOUS
 10
3.986400
 20
7.177280
  0
VERTEX
  8
0
  6
CONTINUOUS
 10
3.985520
 20
6.452160
  0
VERTEX
  8
0
  6
CONTINUOUS
 10
3.958680
 20
6.480760
  0
SEQEND
  8
0
  0
SOLID
  8
0
 62
    15
 10
5.712080
 20
6.188160
 11
5.712960
 21
6.913720
 12
5.712080
 22
5.668960
 13
5.712960
 23
6.394080
  0
POLYLINE
  8
0
  6
CONTINUOUS
 66
     1
 40
0.000000
 41
0.000000
  0
VERTEX
  8
0
  6
CONTINUOUS
 10
5.712080
 20
6.188160
  0
VERTEX
  8
0
  6
CONTINUOUS
 10
5.712960
 20
6.913720
  0
VERTEX
  8
0
  6
CONTINUOUS
 10
5.712960
 20
6.394080
  0
VERTEX
  8
0
  6
CONTINUOUS
 10
5.712080
 20
5.668960
  0
VERTEX
  8
0
  6
CONTINUOUS
 10
5.712080
 20
6.188160
  0
SEQEND
  8
0
  0
SOLID
  8
0
 62
    15
 10
4.007080
 20
6.413440
 11
4.007960
 21
7.138560
 12
4.020720
 22
6.363280
 13
4.021600
 23
7.088400
  0
POLYLINE
  8
0
  6
CONTINUOUS
 66
     1
 40
0.000000
 41
0.000000
  0
VERTEX
  8
0
  6
CONTINUOUS
 10
4.007080
 20
6.413440
  0
VERTEX
  8
0
  6
CONTINUOUS
 10
4.007960
 20
7.138560
  0
VERTEX
  8
0
  6
CONTINUOUS
 10
4.021600
 20
7.088400
  0
VERTEX
  8
0
  6
CONTINUOUS
 10
4.020720
 20
6.363280
  0
VERTEX
  8
0
  6
CONTINUOUS
 10
4.007080
 20
6.413440
  0
SEQEND
  8
0
  0
SOLID
  8
0
 62
    15
 10
4.020720
 20
6.363280
 11
4.021600
 21
7.088400
 12
4.036120
 22
6.363280
 13
4.037000
 23
7.088400
  0
POLYLINE
  8
0
  6
CONTINUOUS
 66
     1
 40
0.000000
 41
0.000000
  0
VERTEX
  8
0
  6
CONTINUOUS
 10
4.020720
 20
6.363280
  0
VERTEX
  8
0
  6
CONTINUOUS
 10
4.021600
 20
7.088400
  0
VERTEX
  8
0
  6
CONTINUOUS
 10
4.037000
 20
7.088400
  0
VERTEX
  8
0
  6
CONTINUOUS
 10
4.036120
 20
6.363280
  0
VERTEX
  8
0
  6
CONTINUOUS
 10
4.020720
 20
6.363280
  0
SEQEND
  8
0
  0
SOLID
  8
0
 62
    15
 10
4.036120
 20
6.363280
 11
4.037000
 21
7.088400
 12
4.045800
 22
6.400680
 13
4.046240
 23
7.126240
  0
POLYLINE
  8
0
  6
CONTINUOUS
 66
     1
 40
0.000000
 41
0.000000
  0
VERTEX
  8
0
  6
CONTINUOUS
 10
4.036120
 20
6.363280
  0
VERTEX
  8
0
  6
CONTINUOUS
 10
4.037000
 20
7.088400
  0
VERTEX
  8
0
  6
CONTINUOUS
 10
4.046240
 20
7.126240
  0
VERTEX
  8
0
  6
CONTINUOUS
 10
4.045800
 20
6.400680
  0
VERTEX
  8
0
  6
CONTINUOUS
 10
4.036120
 20
6.363280
  0
SEQEND
  8
0
  0
SOLID
  8
0
 62
    15
 10
4.045800
 20
6.400680
 11
4.046240
 21
7.126240
 12
4.065600
 22
6.435440
 13
4.066480
 23
7.161000
  0
POLYLINE
  8
0
  6
CONTINUOUS
 66
     1
 40
0.000000
 41
0.000000
  0
VERTEX
  8
0
  6
CONTINUOUS
 10
4.045800
 20
6.400680
  0
VERTEX
  8
0
  6
CONTINUOUS
 10
4.046240
 20
7.126240
  0
VERTEX
  8
0
  6
CONTINUOUS
 10
4.066480
 20
7.161000
  0
VERTEX
  8
0
  6
CONTINUOUS
 10
4.065600
 20
6.435440
  0
VERTEX
  8
0
  6
CONTINUOUS
 10
4.045800
 20
6.400680
  0
SEQEND
  8
0
  0
SOLID
  8
0
 62
    15
 10
4.065600
 20
6.435440
 11
4.066480
 21
7.161000
 12
4.097280
 22
6.464480
 13
4.098160
 23
7.190040
  0
POLYLINE
  8
0
  6
CONTINUOUS
 66
     1
 40
0.000000
 41
0.000000
  0
VERTEX
  8
0
  6
CONTINUOUS
 10
4.065600
 20
6.435440
  0
VERTEX
  8
0
  6
CONTINUOUS
 10
4.066480
 20
7.161000
  0
VERTEX
  8
0
  6
CONTINUOUS
 10
4.098160
 20
7.190040
  0
VERTEX
  8
0
  6
CONTINUOUS
 10
4.097280
 20
6.464480
  0
VERTEX
  8
0
  6
CONTINUOUS
 10
4.065600
 20
6.435440
  0
SEQEND
  8
0
  0
SOLID
  8
0
 62
    15
 10
4.097280
 20
6.464480
 11
4.098160
 21
7.190040
 12
4.117960
 22
6.475920
 13
4.118840
 23
7.201480
  0
POLYLINE
  8
0
  6
CONTINUOUS
 66
     1
 40
0.000000
 41
0.000000
  0
VERTEX
  8
0
  6
CONTINUOUS
 10
4.097280
 20
6.464480
  0
VERTEX
  8
0
  6
CONTINUOUS
 10
4.098160
 20
7.190040
  0
VERTEX
  8
0
  6
CONTINUOUS
 10
4.118840
 20
7.201480
  0
VERTEX
  8
0
  6
CONTINUOUS
 10
4.117960
 20
6.475920
  0
VERTEX
  8
0
  6
CONTINUOUS
 10
4.097280
 20
6.464480
  0
SEQEND
  8
0
  0
SOLID
  8
0
 62
    15
 10
4.117960
 20
6.475920
 11
4.118840
 21
7.201480
 12
4.141720
 22
6.485160
 13
4.142600
 23
7.210280
  0
POLYLINE
  8
0
  6
CONTINUOUS
 66
     1
 40
0.000000
 41
0.000000
  0
VERTEX
  8
0
  6
CONTINUOUS
 10
4.117960
 20
6.475920
  0
VERTEX
  8
0
  6
CONTINUOUS
 10
4.118840
 20
7.201480
  0
VERTEX
  8
0
  6
CONTINUOUS
 10
4.142600
 20
7.210280
  0
VERTEX
  8
0
  6
CONTINUOUS
 10
4.141720
 20
6.485160
  0
VERTEX
  8
0
  6
CONTINUOUS
 10
4.117960
 20
6.475920
  0
SEQEND
  8
0
  0
SOLID
  8
0
 62
    15
 10
4.141720
 20
6.485160
 11
4.142600
 21
7.210280
 12
4.169440
 22
6.490880
 13
4.169880
 23
7.216440
  0
POLYLINE
  8
0
  6
CONTINUOUS
 66
     1
 40
0.000000
 41
0.000000
  0
VERTEX
  8
0
  6
CONTINUOUS
 10
4.141720
 20
6.485160
  0
VERTEX
  8
0
  6
CONTINUOUS
 10
4.142600
 20
7.210280
  0
VERTEX
  8
0
  6
CONTINUOUS
 10
4.169880
 20
7.216440
  0
VERTEX
  8
0
  6
CONTINUOUS
 10
4.169440
 20
6.490880
  0
VERTEX
  8
0
  6
CONTINUOUS
 10
4.141720
 20
6.485160
  0
SEQEND
  8
0
  0
SOLID
  8
0
 62
    15
 10
4.169440
 20
6.490880
 11
4.169880
 21
7.216440
 12
4.200240
 22
6.493520
 13
4.201120
 23
7.219080
  0
POLYLINE
  8
0
  6
CONTINUOUS
 66
     1
 40
0.000000
 41
0.000000
  0
VERTEX
  8
0
  6
CONTINUOUS
 10
4.169440
 20
6.490880
  0
VERTEX
  8
0
  6
CONTINUOUS
 10
4.169880
 20
7.216440
  0
VERTEX
  8
0
  6
CONTINUOUS
 10
4.201120
 20
7.219080
  0
VERTEX
  8
0
  6
CONTINUOUS
 10
4.200240
 20
6.493520
  0
VERTEX
  8
0
  6
CONTINUOUS
 10
4.169440
 20
6.490880
  0
SEQEND
  8
0
  0
SOLID
  8
0
 62
    15
 10
4.200240
 20
6.493520
 11
4.201120
 21
7.219080
 12
4.235000
 22
6.492640
 13
4.235880
 23
7.218200
  0
POLYLINE
  8
0
  6
CONTINUOUS
 66
     1
 40
0.000000
 41
0.000000
  0
VERTEX
  8
0
  6
CONTINUOUS
 10
4.200240
 20
6.493520
  0
VERTEX
  8
0
  6
CONTINUOUS
 10
4.201120
 20
7.219080
  0
VERTEX
  8
0
  6
CONTINUOUS
 10
4.235880
 20
7.218200
  0
VERTEX
  8
0
  6
CONTINUOUS
 10
4.235000
 20
6.492640
  0
VERTEX
  8
0
  6
CONTINUOUS
 10
4.200240
 20
6.493520
  0
SEQEND
  8
0
  0
SOLID
  8
0
 62
    15
 10
4.235000
 20
6.492640
 11
4.235880
 21
7.218200
 12
4.273720
 22
6.487800
 13
4.274600
 23
7.212920
  0
POLYLINE
  8
0
  6
CONTINUOUS
 66
     1
 40
0.000000
 41
0.000000
  0
VERTEX
  8
0
  6
CONTINUOUS
 10
4.235000
 20
6.492640
  0
VERTEX
  8
0
  6
CONTINUOUS
 10
4.235880
 20
7.218200
  0
VERTEX
  8
0
  6
CONTINUOUS
 10
4.274600
 20
7.212920
  0
VERTEX
  8
0
  6
CONTINUOUS
 10
4.273720
 20
6.487800
  0
VERTEX
  8
0
  6
CONTINUOUS
 10
4.235000
 20
6.492640
  0
SEQEND
  8
0
  0
SOLID
  8
0
 62
    15
 10
4.273720
 20
6.487800
 11
4.274600
 21
7.212920
 12
4.316400
 22
6.478120
 13
4.317280
 23
7.203680
  0
POLYLINE
  8
0
  6
CONTINUOUS
 66
     1
 40
0.000000
 41
0.000000
  0
VERTEX
  8
0
  6
CONTINUOUS
 10
4.273720
 20
6.487800
  0
VERTEX
  8
0
  6
CONTINUOUS
 10
4.274600
 20
7.212920
  0
VERTEX
  8
0
  6
CONTINUOUS
 10
4.317280
 20
7.203680
  0
VERTEX
  8
0
  6
CONTINUOUS
 10
4.316400
 20
6.478120
  0
VERTEX
  8
0
  6
CONTINUOUS
 10
4.273720
 20
6.487800
  0
SEQEND
  8
0
  0
SOLID
  8
0
 62
    15
 10
4.316400
 20
6.478120
 11
4.317280
 21
7.203680
 12
4.363480
 22
6.464040
 13
4.364360
 23
7.189600
  0
POLYLINE
  8
0
  6
CONTINUOUS
 66
     1
 40
0.000000
 41
0.000000
  0
VERTEX
  8
0
  6
CONTINUOUS
 10
4.316400
 20
6.478120
  0
VERTEX
  8
0
  6
CONTINUOUS
 10
4.317280
 20
7.203680
  0
VERTEX
  8
0
  6
CONTINUOUS
 10
4.364360
 20
7.189600
  0
VERTEX
  8
0
  6
CONTINUOUS
 10
4.363480
 20
6.464040
  0
VERTEX
  8
0
  6
CONTINUOUS
 10
4.316400
 20
6.478120
  0
SEQEND
  8
0
  0
SOLID
  8
0
 62
    15
 10
4.363480
 20
6.464040
 11
4.364360
 21
7.189600
 12
4.414520
 22
6.444680
 13
4.415400
 23
7.169800
  0
POLYLINE
  8
0
  6
CONTINUOUS
 66
     1
 40
0.000000
 41
0.000000
  0
VERTEX
  8
0
  6
CONTINUOUS
 10
4.363480
 20
6.464040
  0
VERTEX
  8
0
  6
CONTINUOUS
 10
4.364360
 20
7.189600
  0
VERTEX
  8
0
  6
CONTINUOUS
 10
4.415400
 20
7.169800
  0
VERTEX
  8
0
  6
CONTINUOUS
 10
4.414520
 20
6.444680
  0
VERTEX
  8
0
  6
CONTINUOUS
 10
4.363480
 20
6.464040
  0
SEQEND
  8
0
  0
SOLID
  8
0
 62
    15
 10
4.414520
 20
6.444680
 11
4.415400
 21
7.169800
 12
4.470400
 22
6.419600
 13
4.471280
 23
7.145160
  0
POLYLINE
  8
0
  6
CONTINUOUS
 66
     1
 40
0.000000
 41
0.000000
  0
VERTEX
  8
0
  6
CONTINUOUS
 10
4.414520
 20
6.444680
  0
VERTEX
  8
0
  6
CONTINUOUS
 10
4.415400
 20
7.169800
  0
VERTEX
  8
0
  6
CONTINUOUS
 10
4.471280
 20
7.145160
  0
VERTEX
  8
0
  6
CONTINUOUS
 10
4.470400
 20
6.419600
  0
VERTEX
  8
0
  6
CONTINUOUS
 10
4.414520
 20
6.444680
  0
SEQEND
  8
0
  0
SOLID
  8
0
 62
    15
 10
4.470400
 20
6.419600
 11
4.471280
 21
7.145160
 12
4.525840
 22
6.395840
 13
4.526720
 23
7.120960
  0
POLYLINE
  8
0
  6
CONTINUOUS
 66
     1
 40
0.000000
 41
0.000000
  0
VERTEX
  8
0
  6
CONTINUOUS
 10
4.470400
 20
6.419600
  0
VERTEX
  8
0
  6
CONTINUOUS
 10
4.471280
 20
7.145160
  0
VERTEX
  8
0
  6
CONTINUOUS
 10
4.526720
 20
7.120960
  0
VERTEX
  8
0
  6
CONTINUOUS
 10
4.525840
 20
6.395840
  0
VERTEX
  8
0
  6
CONTINUOUS
 10
4.470400
 20
6.419600
  0
SEQEND
  8
0
  0
SOLID
  8
0
 62
    15
 10
4.525840
 20
6.395840
 11
4.526720
 21
7.120960
 12
4.576880
 22
6.379120
 13
4.577760
 23
7.104240
  0
POLYLINE
  8
0
  6
CONTINUOUS
 66
     1
 40
0.000000
 41
0.000000
  0
VERTEX
  8
0
  6
CONTINUOUS
 10
4.525840
 20
6.395840
  0
VERTEX
  8
0
  6
CONTINUOUS
 10
4.526720
 20
7.120960
  0
VERTEX
  8
0
  6
CONTINUOUS
 10
4.577760
 20
7.104240
  0
VERTEX
  8
0
  6
CONTINUOUS
 10
4.576880
 20
6.379120
  0
VERTEX
  8
0
  6
CONTINUOUS
 10
4.525840
 20
6.395840
  0
SEQEND
  8
0
  0
SOLID
  8
0
 62
    15
 10
4.576880
 20
6.379120
 11
4.577760
 21
7.104240
 12
4.623520
 22
6.369000
 13
4.624400
 23
7.094120
  0
POLYLINE
  8
0
  6
CONTINUOUS
 66
     1
 40
0.000000
 41
0.000000
  0
VERTEX
  8
0
  6
CONTINUOUS
 10
4.576880
 20
6.379120
  0
VERTEX
  8
0
  6
CONTINUOUS
 10
4.577760
 20
7.104240
  0
VERTEX
  8
0
  6
CONTINUOUS
 10
4.624400
 20
7.094120
  0
VERTEX
  8
0
  6
CONTINUOUS
 10
4.623520
 20
6.369000
  0
VERTEX
  8
0
  6
CONTINUOUS
 10
4.576880
 20
6.379120
  0
SEQEND
  8
0
  0
SOLID
  8
0
 62
    15
 10
4.623520
 20
6.369000
 11
4.624400
 21
7.094120
 12
4.665760
 22
6.364600
 13
4.666640
 23
7.090160
  0
POLYLINE
  8
0
  6
CONTINUOUS
 66
     1
 40
0.000000
 41
0.000000
  0
VERTEX
  8
0
  6
CONTINUOUS
 10
4.623520
 20
6.369000
  0
VERTEX
  8
0
  6
CONTINUOUS
 10
4.624400
 20
7.094120
  0
VERTEX
  8
0
  6
CONTINUOUS
 10
4.666640
 20
7.090160
  0
VERTEX
  8
0
  6
CONTINUOUS
 10
4.665760
 20
6.364600
  0
VERTEX
  8
0
  6
CONTINUOUS
 10
4.623520
 20
6.369000
  0
SEQEND
  8
0
  0
SOLID
  8
0
 62
    15
 10
4.665760
 20
6.364600
 11
4.666640
 21
7.090160
 12
4.704040
 22
6.365480
 13
4.704920
 23
7.090600
  0
POLYLINE
  8
0
  6
CONTINUOUS
 66
     1
 40
0.000000
 41
0.000000
  0
VERTEX
  8
0
  6
CONTINUOUS
 10
4.665760
 20
6.364600
  0
VERTEX
  8
0
  6
CONTINUOUS
 10
4.666640
 20
7.090160
  0
VERTEX
  8
0
  6
CONTINUOUS
 10
4.704920
 20
7.090600
  0
VERTEX
  8
0
  6
CONTINUOUS
 10
4.704040
 20
6.365480
  0
VERTEX
  8
0
  6
CONTINUOUS
 10
4.665760
 20
6.364600
  0
SEQEND
  8
0
  0
SOLID
  8
0
 62
    15
 10
4.704040
 20
6.365480
 11
4.704920
 21
7.090600
 12
4.738800
 22
6.370760
 13
4.739240
 23
7.095880
  0
POLYLINE
  8
0
  6
CONTINUOUS
 66
     1
 40
0.000000
 41
0.000000
  0
VERTEX
  8
0
  6
CONTINUOUS
 10
4.704040
 20
6.365480
  0
VERTEX
  8
0
  6
CONTINUOUS
 10
4.704920
 20
7.090600
  0
VERTEX
  8
0
  6
CONTINUOUS
 10
4.739240
 20
7.095880
  0
VERTEX
  8
0
  6
CONTINUOUS
 10
4.738800
 20
6.370760
  0
VERTEX
  8
0
  6
CONTINUOUS
 10
4.704040
 20
6.365480
  0
SEQEND
  8
0
  0
SOLID
  8
0
 62
    15
 10
4.738800
 20
6.370760
 11
4.739240
 21
7.095880
 12
4.769600
 22
6.379560
 13
4.770040
 23
7.105120
  0
POLYLINE
  8
0
  6
CONTINUOUS
 66
     1
 40
0.000000
 41
0.000000
  0
VERTEX
  8
0
  6
CONTINUOUS
 10
4.738800
 20
6.370760
  0
VERTEX
  8
0
  6
CONTINUOUS
 10
4.739240
 20
7.095880
  0
VERTEX
  8
0
  6
CONTINUOUS
 10
4.770040
 20
7.105120
  0
VERTEX
  8
0
  6
CONTINUOUS
 10
4.769600
 20
6.379560
  0
VERTEX
  8
0
  6
CONTINUOUS
 10
4.738800
 20
6.370760
  0
SEQEND
  8
0
  0
SOLID
  8
0
 62
    15
 10
4.769600
 20
6.379560
 11
4.770040
 21
7.105120
 12
4.796880
 22
6.391440
 13
4.797760
 23
7.117000
  0
POLYLINE
  8
0
  6
CONTINUOUS
 66
     1
 40
0.000000
 41
0.000000
  0
VERTEX
  8
0
  6
CONTINUOUS
 10
4.769600
 20
6.379560
  0
VERTEX
  8
0
  6
CONTINUOUS
 10
4.770040
 20
7.105120
  0
VERTEX
  8
0
  6
CONTINUOUS
 10
4.797760
 20
7.117000
  0
VERTEX
  8
0
  6
CONTINUOUS
 10
4.796880
 20
6.391440
  0
VERTEX
  8
0
  6
CONTINUOUS
 10
4.769600
 20
6.379560
  0
SEQEND
  8
0
  0
SOLID
  8
0
 62
    15
 10
4.796880
 20
6.391440
 11
4.797760
 21
7.117000
 12
4.841760
 22
6.421360
 13
4.842640
 23
7.146920
  0
POLYLINE
  8
0
  6
CONTINUOUS
 66
     1
 40
0.000000
 41
0.000000
  0
VERTEX
  8
0
  6
CONTINUOUS
 10
4.796880
 20
6.391440
  0
VERTEX
  8
0
  6
CONTINUOUS
 10
4.797760
 20
7.117000
  0
VERTEX
  8
0
  6
CONTINUOUS
 10
4.842640
 20
7.146920
  0
VERTEX
  8
0
  6
CONTINUOUS
 10
4.841760
 20
6.421360
  0
VERTEX
  8
0
  6
CONTINUOUS
 10
4.796880
 20
6.391440
  0
SEQEND
  8
0
  0
SOLID
  8
0
 62
    15
 10
4.841760
 20
6.421360
 11
4.842640
 21
7.146920
 12
4.875200
 22
6.454800
 13
4.876080
 23
7.179920
  0
POLYLINE
  8
0
  6
CONTINUOUS
 66
     1
 40
0.000000
 41
0.000000
  0
VERTEX
  8
0
  6
CONTINUOUS
 10
4.841760
 20
6.421360
  0
VERTEX
  8
0
  6
CONTINUOUS
 10
4.842640
 20
7.146920
  0
VERTEX
  8
0
  6
CONTINUOUS
 10
4.876080
 20
7.179920
  0
VERTEX
  8
0
  6
CONTINUOUS
 10
4.875200
 20
6.454800
  0
VERTEX
  8
0
  6
CONTINUOUS
 10
4.841760
 20
6.421360
  0
SEQEND
  8
0
  0
SOLID
  8
0
 62
    15
 10
4.875200
 20
6.454800
 11
4.876080
 21
7.179920
 12
4.898960
 22
6.485160
 13
4.899840
 23
7.210720
  0
POLYLINE
  8
0
  6
CONTINUOUS
 66
     1
 40
0.000000
 41
0.000000
  0
VERTEX
  8
0
  6
CONTINUOUS
 10
4.875200
 20
6.454800
  0
VERTEX
  8
0
  6
CONTINUOUS
 10
4.876080
 20
7.179920
  0
VERTEX
  8
0
  6
CONTINUOUS
 10
4.899840
 20
7.210720
  0
VERTEX
  8
0
  6
CONTINUOUS
 10
4.898960
 20
6.485160
  0
VERTEX
  8
0
  6
CONTINUOUS
 10
4.875200
 20
6.454800
  0
SEQEND
  8
0
  0
SOLID
  8
0
 62
    15
 10
4.898960
 20
6.485160
 11
4.899840
 21
7.210720
 12
4.910840
 22
6.503200
 13
4.911720
 23
7.228320
  0
POLYLINE
  8
0
  6
CONTINUOUS
 66
     1
 40
0.000000
 41
0.000000
  0
VERTEX
  8
0
  6
CONTINUOUS
 10
4.898960
 20
6.485160
  0
VERTEX
  8
0
  6
CONTINUOUS
 10
4.899840
 20
7.210720
  0
VERTEX
  8
0
  6
CONTINUOUS
 10
4.911720
 20
7.228320
  0
VERTEX
  8
0
  6
CONTINUOUS
 10
4.910840
 20
6.503200
  0
VERTEX
  8
0
  6
CONTINUOUS
 10
4.898960
 20
6.485160
  0
SEQEND
  8
0
  0
SOLID
  8
0
 62
    15
 10
4.910840
 20
6.503200
 11
4.911720
 21
7.228320
 12
4.913920
 22
6.507600
 13
4.914800
 23
7.233160
  0
POLYLINE
  8
0
  6
CONTINUOUS
 66
     1
 40
0.000000
 41
0.000000
  0
VERTEX
  8
0
  6
CONTINUOUS
 10
4.910840
 20
6.503200
  0
VERTEX
  8
0
  6
CONTINUOUS
 10
4.911720
 20
7.228320
  0
VERTEX
  8
0
  6
CONTINUOUS
 10
4.914800
 20
7.233160
  0
VERTEX
  8
0
  6
CONTINUOUS
 10
4.913920
 20
6.507600
  0
VERTEX
  8
0
  6
CONTINUOUS
 10
4.910840
 20
6.503200
  0
SEQEND
  8
0
  0
SOLID
  8
0
 62
    15
 10
5.430920
 20
6.404640
 11
5.431360
 21
7.130200
 12
5.459080
 22
6.405960
 13
5.459960
 23
7.131520
  0
POLYLINE
  8
0
  6
CONTINUOUS
 66
     1
 40
0.000000
 41
0.000000
  0
VERTEX
  8
0
  6
CONTINUOUS
 10
5.430920
 20
6.404640
  0
VERTEX
  8
0
  6
CONTINUOUS
 10
5.431360
 20
7.130200
  0
VERTEX
  8
0
  6
CONTINUOUS
 10
5.459960
 20
7.131520
  0
VERTEX
  8
0
  6
CONTINUOUS
 10
5.459080
 20
6.405960
  0
VERTEX
  8
0
  6
CONTINUOUS
 10
5.430920
 20
6.404640
  0
SEQEND
  8
0
  0
SOLID
  8
0
 62
    15
 10
5.430920
 20
6.507600
 11
5.431360
 21
7.233160
 12
5.430920
 22
6.404640
 13
5.431360
 23
7.130200
  0
POLYLINE
  8
0
  6
CONTINUOUS
 66
     1
 40
0.000000
 41
0.000000
  0
VERTEX
  8
0
  6
CONTINUOUS
 10
5.430920
 20
6.507600
  0
VERTEX
  8
0
  6
CONTINUOUS
 10
5.431360
 20
7.233160
  0
VERTEX
  8
0
  6
CONTINUOUS
 10
5.431360
 20
7.130200
  0
VERTEX
  8
0
  6
CONTINUOUS
 10
5.430920
 20
6.404640
  0
VERTEX
  8
0
  6
CONTINUOUS
 10
5.430920
 20
6.507600
  0
SEQEND
  8
0
  0
SOLID
  8
0
 62
    15
 10
4.913920
 20
6.507600
 11
4.914800
 21
7.233160
 12
5.430920
 22
6.507600
 13
5.431360
 23
7.233160
  0
POLYLINE
  8
0
  6
CONTINUOUS
 66
     1
 40
0.000000
 41
0.000000
  0
VERTEX
  8
0
  6
CONTINUOUS
 10
4.913920
 20
6.507600
  0
VERTEX
  8
0
  6
CONTINUOUS
 10
4.914800
 20
7.233160
  0
VERTEX
  8
0
  6
CONTINUOUS
 10
5.431360
 20
7.233160
  0
VERTEX
  8
0
  6
CONTINUOUS
 10
5.430920
 20
6.507600
  0
VERTEX
  8
0
  6
CONTINUOUS
 10
4.913920
 20
6.507600
  0
SEQEND
  8
0
  0
SOLID
  8
0
 62
    15
 10
5.459080
 20
6.405960
 11
5.459960
 21
7.131520
 12
5.493840
 22
6.403760
 13
5.494280
 23
7.129320
  0
POLYLINE
  8
0
  6
CONTINUOUS
 66
     1
 40
0.000000
 41
0.000000
  0
VERTEX
  8
0
  6
CONTINUOUS
 10
5.459080
 20
6.405960
  0
VERTEX
  8
0
  6
CONTINUOUS
 10
5.459960
 20
7.131520
  0
VERTEX
  8
0
  6
CONTINUOUS
 10
5.494280
 20
7.129320
  0
VERTEX
  8
0
  6
CONTINUOUS
 10
5.493840
 20
6.403760
  0
VERTEX
  8
0
  6
CONTINUOUS
 10
5.459080
 20
6.405960
  0
SEQEND
  8
0
  0
SOLID
  8
0
 62
    15
 10
5.493840
 20
6.403760
 11
5.494280
 21
7.129320
 12
5.531240
 22
6.395840
 13
5.532120
 23
7.120960
  0
POLYLINE
  8
0
  6
CONTINUOUS
 66
     1
 40
0.000000
 41
0.000000
  0
VERTEX
  8
0
  6
CONTINUOUS
 10
5.493840
 20
6.403760
  0
VERTEX
  8
0
  6
CONTINUOUS
 10
5.494280
 20
7.129320
  0
VERTEX
  8
0
  6
CONTINUOUS
 10
5.532120
 20
7.120960
  0
VERTEX
  8
0
  6
CONTINUOUS
 10
5.531240
 20
6.395840
  0
VERTEX
  8
0
  6
CONTINUOUS
 10
5.493840
 20
6.403760
  0
SEQEND
  8
0
  0
SOLID
  8
0
 62
    15
 10
5.531240
 20
6.395840
 11
5.532120
 21
7.120960
 12
5.568640
 22
6.380000
 13
5.569520
 23
7.105120
  0
POLYLINE
  8
0
  6
CONTINUOUS
 66
     1
 40
0.000000
 41
0.000000
  0
VERTEX
  8
0
  6
CONTINUOUS
 10
5.531240
 20
6.395840
  0
VERTEX
  8
0
  6
CONTINUOUS
 10
5.532120
 20
7.120960
  0
VERTEX
  8
0
  6
CONTINUOUS
 10
5.569520
 20
7.105120
  0
VERTEX
  8
0
  6
CONTINUOUS
 10
5.568640
 20
6.380000
  0
VERTEX
  8
0
  6
CONTINUOUS
 10
5.531240
 20
6.395840
  0
SEQEND
  8
0
  0
SOLID
  8
0
 62
    15
 10
5.568640
 20
6.380000
 11
5.569520
 21
7.105120
 12
5.603400
 22
6.353600
 13
5.603840
 23
7.078720
  0
POLYLINE
  8
0
  6
CONTINUOUS
 66
     1
 40
0.000000
 41
0.000000
  0
VERTEX
  8
0
  6
CONTINUOUS
 10
5.568640
 20
6.380000
  0
VERTEX
  8
0
  6
CONTINUOUS
 10
5.569520
 20
7.105120
  0
VERTEX
  8
0
  6
CONTINUOUS
 10
5.603840
 20
7.078720
  0
VERTEX
  8
0
  6
CONTINUOUS
 10
5.603400
 20
6.353600
  0
VERTEX
  8
0
  6
CONTINUOUS
 10
5.568640
 20
6.380000
  0
SEQEND
  8
0
  0
SOLID
  8
0
 62
    15
 10
5.603400
 20
6.353600
 11
5.603840
 21
7.078720
 12
5.618360
 22
6.335560
 13
5.619240
 23
7.061120
  0
POLYLINE
  8
0
  6
CONTINUOUS
 66
     1
 40
0.000000
 41
0.000000
  0
VERTEX
  8
0
  6
CONTINUOUS
 10
5.603400
 20
6.353600
  0
VERTEX
  8
0
  6
CONTINUOUS
 10
5.603840
 20
7.078720
  0
VERTEX
  8
0
  6
CONTINUOUS
 10
5.619240
 20
7.061120
  0
VERTEX
  8
0
  6
CONTINUOUS
 10
5.618360
 20
6.335560
  0
VERTEX
  8
0
  6
CONTINUOUS
 10
5.603400
 20
6.353600
  0
SEQEND
  8
0
  0
SOLID
  8
0
 62
    15
 10
5.618360
 20
6.335560
 11
5.619240
 21
7.061120
 12
5.631560
 22
6.314440
 13
5.632440
 23
7.039560
  0
POLYLINE
  8
0
  6
CONTINUOUS
 66
     1
 40
0.000000
 41
0.000000
  0
VERTEX
  8
0
  6
CONTINUOUS
 10
5.618360
 20
6.335560
  0
VERTEX
  8
0
  6
CONTINUOUS
 10
5.619240
 20
7.061120
  0
VERTEX
  8
0
  6
CONTINUOUS
 10
5.632440
 20
7.039560
  0
VERTEX
  8
0
  6
CONTINUOUS
 10
5.631560
 20
6.314440
  0
VERTEX
  8
0
  6
CONTINUOUS
 10
5.618360
 20
6.335560
  0
SEQEND
  8
0
  0
SOLID
  8
0
 62
    15
 10
5.631560
 20
6.314440
 11
5.632440
 21
7.039560
 12
5.642560
 22
6.289360
 13
5.643440
 23
7.014480
  0
POLYLINE
  8
0
  6
CONTINUOUS
 66
     1
 40
0.000000
 41
0.000000
  0
VERTEX
  8
0
  6
CONTINUOUS
 10
5.631560
 20
6.314440
  0
VERTEX
  8
0
  6
CONTINUOUS
 10
5.632440
 20
7.039560
  0
VERTEX
  8
0
  6
CONTINUOUS
 10
5.643440
 20
7.014480
  0
VERTEX
  8
0
  6
CONTINUOUS
 10
5.642560
 20
6.289360
  0
VERTEX
  8
0
  6
CONTINUOUS
 10
5.631560
 20
6.314440
  0
SEQEND
  8
0
  0
SOLID
  8
0
 62
    15
 10
5.650920
 20
6.259880
 11
5.651800
 21
6.985440
 12
5.656200
 22
6.226440
 13
5.657080
 23
6.952000
  0
POLYLINE
  8
0
  6
CONTINUOUS
 66
     1
 40
0.000000
 41
0.000000
  0
VERTEX
  8
0
  6
CONTINUOUS
 10
5.650920
 20
6.259880
  0
VERTEX
  8
0
  6
CONTINUOUS
 10
5.651800
 20
6.985440
  0
VERTEX
  8
0
  6
CONTINUOUS
 10
5.657080
 20
6.952000
  0
VERTEX
  8
0
  6
CONTINUOUS
 10
5.656200
 20
6.226440
  0
VERTEX
  8
0
  6
CONTINUOUS
 10
5.650920
 20
6.259880
  0
SEQEND
  8
0
  0
SOLID
  8
0
 62
    15
 10
5.642560
 20
6.289360
 11
5.643440
 21
7.014480
 12
5.650920
 22
6.259880
 13
5.651800
 23
6.985440
  0
POLYLINE
  8
0
  6
CONTINUOUS
 66
     1
 40
0.000000
 41
0.000000
  0
VERTEX
  8
0
  6
CONTINUOUS
 10
5.642560
 20
6.289360
  0
VERTEX
  8
0
  6
CONTINUOUS
 10
5.643440
 20
7.014480
  0
VERTEX
  8
0
  6
CONTINUOUS
 10
5.651800
 20
6.985440
  0
VERTEX
  8
0
  6
CONTINUOUS
 10
5.650920
 20
6.259880
  0
VERTEX
  8
0
  6
CONTINUOUS
 10
5.642560
 20
6.289360
  0
SEQEND
  8
0
  0
SOLID
  8
0
 62
    15
 10
5.657960
 20
6.188160
 11
5.658840
 21
6.913720
 12
5.712080
 22
6.188160
 13
5.712960
 23
6.913720
  0
POLYLINE
  8
0
  6
CONTINUOUS
 66
     1
 40
0.000000
 41
0.000000
  0
VERTEX
  8
0
  6
CONTINUOUS
 10
5.657960
 20
6.188160
  0
VERTEX
  8
0
  6
CONTINUOUS
 10
5.658840
 20
6.913720
  0
VERTEX
  8
0
  6
CONTINUOUS
 10
5.712960
 20
6.913720
  0
VERTEX
  8
0
  6
CONTINUOUS
 10
5.712080
 20
6.188160
  0
VERTEX
  8
0
  6
CONTINUOUS
 10
5.657960
 20
6.188160
  0
SEQEND
  8
0
  0
SOLID
  8
0
 62
    15
 10
5.656200
 20
6.226440
 11
5.657080
 21
6.952000
 12
5.657960
 22
6.188160
 13
5.658840
 23
6.913720
  0
POLYLINE
  8
0
  6
CONTINUOUS
 66
     1
 40
0.000000
 41
0.000000
  0
VERTEX
  8
0
  6
CONTINUOUS
 10
5.656200
 20
6.226440
  0
VERTEX
  8
0
  6
CONTINUOUS
 10
5.657080
 20
6.952000
  0
VERTEX
  8
0
  6
CONTINUOUS
 10
5.658840
 20
6.913720
  0
VERTEX
  8
0
  6
CONTINUOUS
 10
5.657960
 20
6.188160
  0
VERTEX
  8
0
  6
CONTINUOUS
 10
5.656200
 20
6.226440
  0
SEQEND
  8
0
  0
SOLID
  8
0
 62
    15
 10
5.712080
 20
5.673800
 11
5.712520
 21
6.399360
 12
5.712080
 22
5.665880
 13
5.712520
 23
6.391440
  0
POLYLINE
  8
0
  6
CONTINUOUS
 66
     1
 40
0.000000
 41
0.000000
  0
VERTEX
  8
0
  6
CONTINUOUS
 10
5.712080
 20
5.673800
  0
VERTEX
  8
0
  6
CONTINUOUS
 10
5.712520
 20
6.399360
  0
VERTEX
  8
0
  6
CONTINUOUS
 10
5.712520
 20
6.391440
  0
VERTEX
  8
0
  6
CONTINUOUS
 10
5.712080
 20
5.665880
  0
VERTEX
  8
0
  6
CONTINUOUS
 10
5.712080
 20
5.673800
  0
SEQEND
  8
0
  0
POLYLINE
  8
0
  6
CONTINUOUS
 66
     1
 40
0.000000
 41
0.000000
  0
VERTEX
  8
0
  6
CONTINUOUS
 10
5.712080
 20
5.673800
  0
VERTEX
  8
0
  6
CONTINUOUS
 10
5.712080
 20
5.665880
  0
VERTEX
  8
0
  6
CONTINUOUS
 10
2.114200
 20
5.665880
  0
VERTEX
  8
0
  6
CONTINUOUS
 10
2.114200
 20
6.507600
  0
VERTEX
  8
0
  6
CONTINUOUS
 10
2.764960
 20
6.507600
  0
VERTEX
  8
0
  6
CONTINUOUS
 10
2.779920
 20
6.485160
  0
VERTEX
  8
0
  6
CONTINUOUS
 10
2.803680
 20
6.454800
  0
VERTEX
  8
0
  6
CONTINUOUS
 10
2.837120
 20
6.421360
  0
VERTEX
  8
0
  6
CONTINUOUS
 10
2.882000
 20
6.391440
  0
VERTEX
  8
0
  6
CONTINUOUS
 10
2.909720
 20
6.379560
  0
VERTEX
  8
0
  6
CONTINUOUS
 10
2.940520
 20
6.370760
  0
VERTEX
  8
0
  6
CONTINUOUS
 10
2.974840
 20
6.365480
  0
VERTEX
  8
0
  6
CONTINUOUS
 10
3.013120
 20
6.364600
  0
VERTEX
  8
0
  6
CONTINUOUS
 10
3.055360
 20
6.369000
  0
VERTEX
  8
0
  6
CONTINUOUS
 10
3.102000
 20
6.379120
  0
VERTEX
  8
0
  6
CONTINUOUS
 10
3.153040
 20
6.395840
  0
VERTEX
  8
0
  6
CONTINUOUS
 10
3.264360
 20
6.444680
  0
VERTEX
  8
0
  6
CONTINUOUS
 10
3.315400
 20
6.464040
  0
VERTEX
  8
0
  6
CONTINUOUS
 10
3.362480
 20
6.478120
  0
VERTEX
  8
0
  6
CONTINUOUS
 10
3.405160
 20
6.487800
  0
VERTEX
  8
0
  6
CONTINUOUS
 10
3.443880
 20
6.492640
  0
VERTEX
  8
0
  6
CONTINUOUS
 10
3.478640
 20
6.493960
  0
VERTEX
  8
0
  6
CONTINUOUS
 10
3.509880
 20
6.490880
  0
VERTEX
  8
0
  6
CONTINUOUS
 10
3.537160
 20
6.485160
  0
VERTEX
  8
0
  6
CONTINUOUS
 10
3.560920
 20
6.476360
  0
VERTEX
  8
0
  6
CONTINUOUS
 10
3.581600
 20
6.464480
  0
VERTEX
  8
0
  6
CONTINUOUS
 10
3.613280
 20
6.435440
  0
VERTEX
  8
0
  6
CONTINUOUS
 10
3.633080
 20
6.400680
  0
VERTEX
  8
0
  6
CONTINUOUS
 10
3.642760
 20
6.363280
  0
VERTEX
  8
0
  6
CONTINUOUS
 10
3.658160
 20
6.363280
  0
VERTEX
  8
0
  6
CONTINUOUS
 10
3.671800
 20
6.413440
  0
VERTEX
  8
0
  6
CONTINUOUS
 10
3.693360
 20
6.452160
  0
VERTEX
  8
0
  6
CONTINUOUS
 10
3.720640
 20
6.480760
  0
VERTEX
  8
0
  6
CONTINUOUS
 10
3.750120
 20
6.501000
  0
VERTEX
  8
0
  6
CONTINUOUS
 10
3.779160
 20
6.514200
  0
VERTEX
  8
0
  6
CONTINUOUS
 10
3.806000
 20
6.521240
  0
VERTEX
  8
0
  6
CONTINUOUS
 10
3.826680
 20
6.524320
  0
VERTEX
  8
0
  6
CONTINUOUS
 10
3.852200
 20
6.524320
  0
VERTEX
  8
0
  6
CONTINUOUS
 10
3.872880
 20
6.521240
  0
VERTEX
  8
0
  6
CONTINUOUS
 10
3.899720
 20
6.514200
  0
VERTEX
  8
0
  6
CONTINUOUS
 10
3.928760
 20
6.501000
  0
VERTEX
  8
0
  6
CONTINUOUS
 10
3.958680
 20
6.480760
  0
VERTEX
  8
0
  6
CONTINUOUS
 10
3.985520
 20
6.452160
  0
VERTEX
  8
0
  6
CONTINUOUS
 10
4.007080
 20
6.413440
  0
VERTEX
  8
0
  6
CONTINUOUS
 10
4.020720
 20
6.363280
  0
VERTEX
  8
0
  6
CONTINUOUS
 10
4.036120
 20
6.363280
  0
VERTEX
  8
0
  6
CONTINUOUS
 10
4.045800
 20
6.400680
  0
VERTEX
  8
0
  6
CONTINUOUS
 10
4.065600
 20
6.435440
  0
VERTEX
  8
0
  6
CONTINUOUS
 10
4.097280
 20
6.464480
  0
VERTEX
  8
0
  6
CONTINUOUS
 10
4.117960
 20
6.475920
  0
VERTEX
  8
0
  6
CONTINUOUS
 10
4.141720
 20
6.485160
  0
VERTEX
  8
0
  6
CONTINUOUS
 10
4.169440
 20
6.490880
  0
VERTEX
  8
0
  6
CONTINUOUS
 10
4.200240
 20
6.493520
  0
VERTEX
  8
0
  6
CONTINUOUS
 10
4.235000
 20
6.492640
  0
VERTEX
  8
0
  6
CONTINUOUS
 10
4.273720
 20
6.487800
  0
VERTEX
  8
0
  6
CONTINUOUS
 10
4.316400
 20
6.478120
  0
VERTEX
  8
0
  6
CONTINUOUS
 10
4.363480
 20
6.464040
  0
VERTEX
  8
0
  6
CONTINUOUS
 10
4.414520
 20
6.444680
  0
VERTEX
  8
0
  6
CONTINUOUS
 10
4.525840
 20
6.395840
  0
VERTEX
  8
0
  6
CONTINUOUS
 10
4.576880
 20
6.379120
  0
VERTEX
  8
0
  6
CONTINUOUS
 10
4.623520
 20
6.369000
  0
VERTEX
  8
0
  6
CONTINUOUS
 10
4.665760
 20
6.364600
  0
VERTEX
  8
0
  6
CONTINUOUS
 10
4.704040
 20
6.365480
  0
VERTEX
  8
0
  6
CONTINUOUS
 10
4.738800
 20
6.370760
  0
VERTEX
  8
0
  6
CONTINUOUS
 10
4.769600
 20
6.379560
  0
VERTEX
  8
0
  6
CONTINUOUS
 10
4.796880
 20
6.391440
  0
VERTEX
  8
0
  6
CONTINUOUS
 10
4.841760
 20
6.421360
  0
VERTEX
  8
0
  6
CONTINUOUS
 10
4.875200
 20
6.454800
  0
VERTEX
  8
0
  6
CONTINUOUS
 10
4.898960
 20
6.485160
  0
VERTEX
  8
0
  6
CONTINUOUS
 10
4.913920
 20
6.507600
  0
VERTEX
  8
0
  6
CONTINUOUS
 10
5.430920
 20
6.507600
  0
VERTEX
  8
0
  6
CONTINUOUS
 10
5.430920
 20
6.404640
  0
VERTEX
  8
0
  6
CONTINUOUS
 10
5.459080
 20
6.405960
  0
VERTEX
  8
0
  6
CONTINUOUS
 10
5.493840
 20
6.403760
  0
VERTEX
  8
0
  6
CONTINUOUS
 10
5.531240
 20
6.395840
  0
VERTEX
  8
0
  6
CONTINUOUS
 10
5.568640
 20
6.380000
  0
VERTEX
  8
0
  6
CONTINUOUS
 10
5.603400
 20
6.353600
  0
VERTEX
  8
0
  6
CONTINUOUS
 10
5.618360
 20
6.335560
  0
VERTEX
  8
0
  6
CONTINUOUS
 10
5.631560
 20
6.314440
  0
VERTEX
  8
0
  6
CONTINUOUS
 10
5.642560
 20
6.289360
  0
VERTEX
  8
0
  6
CONTINUOUS
 10
5.650920
 20
6.259880
  0
VERTEX
  8
0
  6
CONTINUOUS
 10
5.656200
 20
6.226440
  0
VERTEX
  8
0
  6
CONTINUOUS
 10
5.657960
 20
6.188160
  0
VERTEX
  8
0
  6
CONTINUOUS
 10
5.712080
 20
6.188160
  0
VERTEX
  8
0
  6
CONTINUOUS
 10
5.712080
 20
5.668960
  0
VERTEX
  8
0
  6
CONTINUOUS
 10
5.712080
 20
5.673800
  0
SEQEND
  8
0
  0
TEXT
  8
0
 10
3.571920
 20
5.388240
 40
0.138152
  1
BA  1167
 41
1.000000
  7
SN0
 71
     0
 72
     5
 11
4.255261
 21
5.388240
  0
TEXT
  8
0
 10
3.462360
 20
5.196840
 40
0.138152
  1
7/8" x 3-5/8"
 41
1.000000
  7
SN0
 71
     0
 72
     5
 11
4.363859
 21
5.196840
  0
POLYLINE
  8
0
  6
CONTINUOUS
 66
     1
 40
0.014080
 41
0.014080
  0
VERTEX
  8
0
  6
CONTINUOUS
 10
5.712520
 20
7.722880
  0
VERTEX
  8
0
  6
CONTINUOUS
 10
5.712520
 20
8.242520
  0
VERTEX
  8
0
  6
CONTINUOUS
 10
5.658400
 20
8.242520
  0
VERTEX
  8
0
  6
CONTINUOUS
 10
5.656640
 20
8.280800
  0
VERTEX
  8
0
  6
CONTINUOUS
 10
5.651360
 20
8.314240
  0
VERTEX
  8
0
  6
CONTINUOUS
 10
5.643000
 20
8.343280
  0
VERTEX
  8
0
  6
CONTINUOUS
 10
5.632000
 20
8.368360
  0
VERTEX
  8
0
  6
CONTINUOUS
 10
5.618800
 20
8.389920
  0
VERTEX
  8
0
  6
CONTINUOUS
 10
5.595480
 20
8.415440
  0
VERTEX
  8
0
  6
CONTINUOUS
 10
5.569080
 20
8.433920
  0
VERTEX
  8
0
  6
CONTINUOUS
 10
5.550600
 20
8.443160
  0
VERTEX
  8
0
  6
CONTINUOUS
 10
5.531680
 20
8.449760
  0
VERTEX
  8
0
  6
CONTINUOUS
 10
5.512760
 20
8.454600
  0
VERTEX
  8
0
  6
CONTINUOUS
 10
5.476240
 20
8.459440
  0
VERTEX
  8
0
  6
CONTINUOUS
 10
5.444560
 20
8.459880
  0
VERTEX
  8
0
  6
CONTINUOUS
 10
5.431360
 20
8.459000
  0
VERTEX
  8
0
  6
CONTINUOUS
 10
5.431360
 20
8.561960
  0
VERTEX
  8
0
  6
CONTINUOUS
 10
4.914360
 20
8.561960
  0
VERTEX
  8
0
  6
CONTINUOUS
 10
4.882680
 20
8.517080
  0
VERTEX
  8
0
  6
CONTINUOUS
 10
4.851440
 20
8.484080
  0
VERTEX
  8
0
  6
CONTINUOUS
 10
4.821080
 20
8.459880
  0
VERTEX
  8
0
  6
CONTINUOUS
 10
4.797320
 20
8.445800
  0
VERTEX
  8
0
  6
CONTINUOUS
 10
4.770040
 20
8.433920
  0
VERTEX
  8
0
  6
CONTINUOUS
 10
4.739240
 20
8.425120
  0
VERTEX
  8
0
  6
CONTINUOUS
 10
4.704480
 20
8.419840
  0
VERTEX
  8
0
  6
CONTINUOUS
 10
4.686000
 20
8.418520
  0
VERTEX
  8
0
  6
CONTINUOUS
 10
4.645520
 20
8.420280
  0
VERTEX
  8
0
  6
CONTINUOUS
 10
4.623960
 20
8.422920
  0
VERTEX
  8
0
  6
CONTINUOUS
 10
4.577320
 20
8.433040
  0
VERTEX
  8
0
  6
CONTINUOUS
 10
4.526280
 20
8.449760
  0
VERTEX
  8
0
  6
CONTINUOUS
 10
4.414960
 20
8.499040
  0
VERTEX
  8
0
  6
CONTINUOUS
 10
4.339720
 20
8.526320
  0
VERTEX
  8
0
  6
CONTINUOUS
 10
4.274160
 20
8.542160
  0
VERTEX
  8
0
  6
CONTINUOUS
 10
4.235440
 20
8.547000
  0
VERTEX
  8
0
  6
CONTINUOUS
 10
4.200680
 20
8.547880
  0
VERTEX
  8
0
  6
CONTINUOUS
 10
4.169440
 20
8.545240
  0
VERTEX
  8
0
  6
CONTINUOUS
 10
4.142160
 20
8.539080
  0
VERTEX
  8
0
  6
CONTINUOUS
 10
4.118400
 20
8.530280
  0
VERTEX
  8
0
  6
CONTINUOUS
 10
4.097720
 20
8.518840
  0
VERTEX
  8
0
  6
CONTINUOUS
 10
4.072640
 20
8.497720
  0
VERTEX
  8
0
  6
CONTINUOUS
 10
4.054600
 20
8.472640
  0
VERTEX
  8
0
  6
CONTINUOUS
 10
4.045800
 20
8.454600
  0
VERTEX
  8
0
  6
CONTINUOUS
 10
4.040080
 20
8.436120
  0
VERTEX
  8
0
  6
CONTINUOUS
 10
4.036560
 20
8.417200
  0
VERTEX
  8
0
  6
CONTINUOUS
 10
4.021160
 20
8.417200
  0
VERTEX
  8
0
  6
CONTINUOUS
 10
4.011920
 20
8.455920
  0
VERTEX
  8
0
  6
CONTINUOUS
 10
3.997400
 20
8.488040
  0
VERTEX
  8
0
  6
CONTINUOUS
 10
3.979360
 20
8.514000
  0
VERTEX
  8
0
  6
CONTINUOUS
 10
3.958680
 20
8.534680
  0
VERTEX
  8
0
  6
CONTINUOUS
 10
3.929200
 20
8.554920
  0
VERTEX
  8
0
  6
CONTINUOUS
 10
3.900160
 20
8.568120
  0
VERTEX
  8
0
  6
CONTINUOUS
 10
3.873320
 20
8.575600
  0
VERTEX
  8
0
  6
CONTINUOUS
 10
3.852640
 20
8.578680
  0
VERTEX
  8
0
  6
CONTINUOUS
 10
3.827120
 20
8.578680
  0
VERTEX
  8
0
  6
CONTINUOUS
 10
3.806440
 20
8.575600
  0
VERTEX
  8
0
  6
CONTINUOUS
 10
3.779600
 20
8.568120
  0
VERTEX
  8
0
  6
CONTINUOUS
 10
3.750560
 20
8.555360
  0
VERTEX
  8
0
  6
CONTINUOUS
 10
3.721080
 20
8.535120
  0
VERTEX
  8
0
  6
CONTINUOUS
 10
3.700400
 20
8.514440
  0
VERTEX
  8
0
  6
CONTINUOUS
 10
3.682360
 20
8.488040
  0
VERTEX
  8
0
  6
CONTINUOUS
 10
3.667840
 20
8.455920
  0
VERTEX
  8
0
  6
CONTINUOUS
 10
3.658600
 20
8.417200
  0
VERTEX
  8
0
  6
CONTINUOUS
 10
3.643200
 20
8.417200
  0
VERTEX
  8
0
  6
CONTINUOUS
 10
3.637040
 20
8.445360
  0
VERTEX
  8
0
  6
CONTINUOUS
 10
3.630000
 20
8.463840
  0
VERTEX
  8
0
  6
CONTINUOUS
 10
3.613720
 20
8.489800
  0
VERTEX
  8
0
  6
CONTINUOUS
 10
3.591280
 20
8.512240
  0
VERTEX
  8
0
  6
CONTINUOUS
 10
3.572360
 20
8.525000
  0
VERTEX
  8
0
  6
CONTINUOUS
 10
3.549920
 20
8.535120
  0
VERTEX
  8
0
  6
CONTINUOUS
 10
3.524400
 20
8.542600
  0
VERTEX
  8
0
  6
CONTINUOUS
 10
3.494920
 20
8.547000
  0
VERTEX
  8
0
  6
CONTINUOUS
 10
3.462360
 20
8.547880
  0
VERTEX
  8
0
  6
CONTINUOUS
 10
3.425400
 20
8.545240
  0
VERTEX
  8
0
  6
CONTINUOUS
 10
3.384920
 20
8.537760
  0
VERTEX
  8
0
  6
CONTINUOUS
 10
3.340040
 20
8.526320
  0
VERTEX
  8
0
  6
CONTINUOUS
 10
3.264800
 20
8.499040
  0
VERTEX
  8
0
  6
CONTINUOUS
 10
3.153480
 20
8.449760
  0
VERTEX
  8
0
  6
CONTINUOUS
 10
3.102440
 20
8.433040
  0
VERTEX
  8
0
  6
CONTINUOUS
 10
3.055800
 20
8.422920
  0
VERTEX
  8
0
  6
CONTINUOUS
 10
3.013560
 20
8.418960
  0
VERTEX
  8
0
  6
CONTINUOUS
 10
2.993760
 20
8.418520
  0
VERTEX
  8
0
  6
CONTINUOUS
 10
2.957240
 20
8.422040
  0
VERTEX
  8
0
  6
CONTINUOUS
 10
2.924680
 20
8.429080
  0
VERTEX
  8
0
  6
CONTINUOUS
 10
2.895640
 20
8.439640
  0
VERTEX
  8
0
  6
CONTINUOUS
 10
2.870120
 20
8.452840
  0
VERTEX
  8
0
  6
CONTINUOUS
 10
2.837560
 20
8.475720
  0
VERTEX
  8
0
  6
CONTINUOUS
 10
2.804120
 20
8.508720
  0
VERTEX
  8
0
  6
CONTINUOUS
 10
2.775960
 20
8.546120
  0
VERTEX
  8
0
  6
CONTINUOUS
 10
2.765400
 20
8.561960
  0
VERTEX
  8
0
  6
CONTINUOUS
 10
2.114640
 20
8.561960
  0
VERTEX
  8
0
  6
CONTINUOUS
 10
2.114640
 20
7.720240
  0
VERTEX
  8
0
  6
CONTINUOUS
 10
5.712520
 20
7.720240
  0
VERTEX
  8
0
  6
CONTINUOUS
 10
5.712520
 20
7.728160
  0
VERTEX
  8
0
  6
CONTINUOUS
 10
5.712520
 20
7.722880
  0
SEQEND
  8
0
  0
TEXT
  8
0
 10
3.631320
 20
7.996560
 40
0.138152
  1
BA  1167
 41
1.000000
  7
SN0
 71
     0
 72
     5
 11
4.314661
 21
7.996560
  0
TEXT
  8
0
 10
3.521760
 20
7.804720
 40
0.138152
  1
7/8" x 3-5/8"
 41
1.000000
  7
SN0
 71
     0
 72
     5
 11
4.423259
 21
7.804720
  0
ENDSEC
  0
EOF
