  0
SECTION
  2
HEADER
  9
$ACADVER
  1
AC1006
  9
$EXTMIN
 10
0.420640
 20
1.021680
  9
$EXTMAX
 10
8.111400
 20
10.370360
  9
$LTSCALE
 40
0.044000
  9
$PDMODE
 70
    35
  9
$PDSIZE
 40
0.035200
  0
ENDSEC
  0
SECTION
  2
TABLES
  0
TABLE
  2
LTYPE
 70
     9
  0
LTYPE
  2
CONTINUOUS
 70
    64
  3
Solid line
 72
    65
 73
     0
 40
0.000000
  0
LTYPE
  2
DASHED
 70
    64
  3
__ __ __ __ __ __ __ __ __ __ __ __ __ __ __
 72
    65
 73
     2
 40
0.000330
 49
0.000220
 49
-0.000110
  0
LTYPE
  2
HIDDEN
 70
    64
  3
 _ _ _ _ _ _ _ _ _ _ _ _ _ _ _ _ _ _ _ _ _ _
 72
    65
 73
     2
 40
0.000165
 49
0.000110
 49
-0.000055
  0
LTYPE
  2
CENTER
 70
    64
  3
____ _ ____ _ ____ _ ____ _ ____ _ ____ _ ____
 72
    65
 73
     4
 40
0.000880
 49
0.000550
 49
-0.000110
 49
0.000110
 49
-0.000110
  0
LTYPE
  2
PHANTOM
 70
    64
  3
_____ _ _ _____ _ _ _____ _ _ _____ _ _ ____
 72
    65
 73
     6
 40
0.001100
 49
0.000550
 49
-0.000110
 49
0.000110
 49
-0.000110
 49
0.000110
 49
-0.000110
  0
LTYPE
  2
DOT
 70
    64
  3
...............................................
 72
    65
 73
     2
 40
0.000110
 49
0.000000
 49
-0.000110
  0
LTYPE
  2
DASHDOT
 70
    64
  3
__ . __ . __ . __ . __ . __ . __ . __ . __ . __
 72
    65
 73
     4
 40
0.000440
 49
0.000220
 49
-0.000110
 49
0.000000
 49
-0.000110
  0
LTYPE
  2
BORDER
 70
    64
  3
__ __ . __ __ . __ __ . __ __ . __ __ . __ __
 72
    65
 73
     6
 40
0.000770
 49
0.000220
 49
-0.000110
 49
0.000220
 49
-0.000110
 49
0.000000
 49
-0.000110
  0
LTYPE
  2
DIVIDE
 70
    64
  3
__ . . __ . . __ . . __ . . __ . . __ . . __
 72
    65
 73
     6
 40
0.000550
 49
0.000220
 49
-0.000110
 49
0.000000
 49
-0.000110
 49
0.000000
 49
-0.000110
  0
LTYPE
  2
DOTDOT
 70
    64
  3
 . .  . .  . .  . .  . .  . . 
 72
    65
 73
     5
 40
0.000242
 49
-0.000110
 49
0.000000
 49
-0.000110
 49
0.000000
 49
-0.000110
  0
ENDTAB
  0
TABLE
  2
STYLE
 70
     2
  0
STYLE
 70
     0
  2
SN0
 40
0.000000
 41
0.000440
 50
0.000000
 71
     0
 42
0.000000
  3
ROMAND
  0
STYLE
 70
    68
  2
SV0
 40
0.000000
 41
0.000440
 50
0.000000
 71
     0
 42
0.000000
  3
ROMAND
  0
ENDTAB
  0
TABLE
  2
LAYER
 70
     3
  0
LAYER
  2
FOREGROUND
 70
    64
 62
     7
  6
CONTINUOUS
  0
LAYER
  2
BACKGROUND
 70
    65
 62
    -7
  6
CONTINUOUS
  0
LAYER
  2
0
 70
    64
 62
     7
  6
CONTINUOUS
  0
ENDTAB
  0
ENDSEC
  0
SECTION
  2
ENTITIES
  0
POLYLINE
  8
FOREGROUND
  6
CONTINUOUS
 66
     1
 40
0.000000
 41
0.000000
  0
VERTEX
  8
FOREGROUND
  6
CONTINUOUS
 10
0.000000
 20
11.392040
  0
VERTEX
  8
FOREGROUND
  6
CONTINUOUS
 10
8.499920
 20
11.392040
  0
VERTEX
  8
FOREGROUND
  6
CONTINUOUS
 10
8.499920
 20
0.392040
  0
VERTEX
  8
FOREGROUND
  6
CONTINUOUS
 10
0.000000
 20
0.392040
  0
VERTEX
  8
FOREGROUND
  6
CONTINUOUS
 10
0.000000
 20
11.392040
  0
SEQEND
  8
0
  0
POLYLINE
  8
FOREGROUND
  6
CONTINUOUS
 66
     1
 40
0.000000
 41
0.000000
  0
VERTEX
  8
FOREGROUND
  6
CONTINUOUS
 10
0.000000
 20
11.392040
  0
VERTEX
  8
FOREGROUND
  6
CONTINUOUS
 10
8.499920
 20
11.392040
  0
VERTEX
  8
FOREGROUND
  6
CONTINUOUS
 10
8.499920
 20
0.392040
  0
VERTEX
  8
FOREGROUND
  6
CONTINUOUS
 10
0.000000
 20
0.392040
  0
VERTEX
  8
FOREGROUND
  6
CONTINUOUS
 10
0.000000
 20
11.392040
  0
SEQEND
  8
0
  0
TEXT
  8
0
 10
1.145760
 20
1.256200
 40
0.137976
  1
BA  1165
 41
1.000000
  7
SN0
 71
     0
 72
     5
 11
1.830083
 21
1.256200
  0
TEXT
  8
0
 10
0.962280
 20
1.064800
 40
0.137976
  1
1-3/8" x 8-3/4"
 41
1.000000
  7
SN0
 71
     0
 72
     5
 11
2.014941
 21
1.064800
  0
SOLID
  8
0
 62
    15
 10
1.215720
 20
9.220640
 11
0.462000
 21
9.241760
 12
1.221440
 22
9.287960
 13
0.467280
 23
9.309080
  0
POLYLINE
  8
0
  6
CONTINUOUS
 66
     1
 40
0.000000
 41
0.000000
  0
VERTEX
  8
0
  6
CONTINUOUS
 10
1.215720
 20
9.220640
  0
VERTEX
  8
0
  6
CONTINUOUS
 10
0.462000
 20
9.241760
  0
VERTEX
  8
0
  6
CONTINUOUS
 10
0.467280
 20
9.309080
  0
VERTEX
  8
0
  6
CONTINUOUS
 10
1.221440
 20
9.287960
  0
VERTEX
  8
0
  6
CONTINUOUS
 10
1.215720
 20
9.220640
  0
SEQEND
  8
0
  0
SOLID
  8
0
 62
    15
 10
1.589280
 20
1.603360
 11
0.835120
 21
1.624480
 12
1.176120
 22
1.631960
 13
0.421960
 23
1.653080
  0
POLYLINE
  8
0
  6
CONTINUOUS
 66
     1
 40
0.000000
 41
0.000000
  0
VERTEX
  8
0
  6
CONTINUOUS
 10
1.589280
 20
1.603360
  0
VERTEX
  8
0
  6
CONTINUOUS
 10
0.835120
 20
1.624480
  0
VERTEX
  8
0
  6
CONTINUOUS
 10
0.421960
 20
1.653080
  0
VERTEX
  8
0
  6
CONTINUOUS
 10
1.176120
 20
1.631960
  0
VERTEX
  8
0
  6
CONTINUOUS
 10
1.589280
 20
1.603360
  0
SEQEND
  8
0
  0
SOLID
  8
0
 62
    15
 10
1.176120
 20
1.631960
 11
0.421960
 21
1.653080
 12
1.176120
 22
2.867040
 13
0.421960
 23
2.888160
  0
POLYLINE
  8
0
  6
CONTINUOUS
 66
     1
 40
0.000000
 41
0.000000
  0
VERTEX
  8
0
  6
CONTINUOUS
 10
1.176120
 20
1.631960
  0
VERTEX
  8
0
  6
CONTINUOUS
 10
0.421960
 20
1.653080
  0
VERTEX
  8
0
  6
CONTINUOUS
 10
0.421960
 20
2.888160
  0
VERTEX
  8
0
  6
CONTINUOUS
 10
1.176120
 20
2.867040
  0
VERTEX
  8
0
  6
CONTINUOUS
 10
1.176120
 20
1.631960
  0
SEQEND
  8
0
  0
SOLID
  8
0
 62
    15
 10
1.176120
 20
2.867040
 11
0.421960
 21
2.888160
 12
1.175680
 22
2.867480
 13
0.421520
 23
2.888160
  0
POLYLINE
  8
0
  6
CONTINUOUS
 66
     1
 40
0.000000
 41
0.000000
  0
VERTEX
  8
0
  6
CONTINUOUS
 10
1.176120
 20
2.867040
  0
VERTEX
  8
0
  6
CONTINUOUS
 10
0.421960
 20
2.888160
  0
VERTEX
  8
0
  6
CONTINUOUS
 10
0.421520
 20
2.888160
  0
VERTEX
  8
0
  6
CONTINUOUS
 10
1.175680
 20
2.867480
  0
VERTEX
  8
0
  6
CONTINUOUS
 10
1.176120
 20
2.867040
  0
SEQEND
  8
0
  0
SOLID
  8
0
 62
    15
 10
1.588840
 20
8.597160
 11
0.834680
 21
8.618280
 12
1.589720
 22
8.851920
 13
0.835560
 23
8.873040
  0
POLYLINE
  8
0
  6
CONTINUOUS
 66
     1
 40
0.000000
 41
0.000000
  0
VERTEX
  8
0
  6
CONTINUOUS
 10
1.588840
 20
8.597160
  0
VERTEX
  8
0
  6
CONTINUOUS
 10
0.834680
 20
8.618280
  0
VERTEX
  8
0
  6
CONTINUOUS
 10
0.835560
 20
8.873040
  0
VERTEX
  8
0
  6
CONTINUOUS
 10
1.589720
 20
8.851920
  0
VERTEX
  8
0
  6
CONTINUOUS
 10
1.588840
 20
8.597160
  0
SEQEND
  8
0
  0
SOLID
  8
0
 62
    15
 10
1.175680
 20
8.564160
 11
0.421520
 21
8.585280
 12
1.588840
 22
8.597160
 13
0.834680
 23
8.618280
  0
POLYLINE
  8
0
  6
CONTINUOUS
 66
     1
 40
0.000000
 41
0.000000
  0
VERTEX
  8
0
  6
CONTINUOUS
 10
1.175680
 20
8.564160
  0
VERTEX
  8
0
  6
CONTINUOUS
 10
0.421520
 20
8.585280
  0
VERTEX
  8
0
  6
CONTINUOUS
 10
0.834680
 20
8.618280
  0
VERTEX
  8
0
  6
CONTINUOUS
 10
1.588840
 20
8.597160
  0
VERTEX
  8
0
  6
CONTINUOUS
 10
1.175680
 20
8.564160
  0
SEQEND
  8
0
  0
SOLID
  8
0
 62
    15
 10
1.175680
 20
2.867480
 11
0.421520
 21
2.888160
 12
1.175680
 22
8.564160
 13
0.421520
 23
8.585280
  0
POLYLINE
  8
0
  6
CONTINUOUS
 66
     1
 40
0.000000
 41
0.000000
  0
VERTEX
  8
0
  6
CONTINUOUS
 10
1.175680
 20
2.867480
  0
VERTEX
  8
0
  6
CONTINUOUS
 10
0.421520
 20
2.888160
  0
VERTEX
  8
0
  6
CONTINUOUS
 10
0.421520
 20
8.585280
  0
VERTEX
  8
0
  6
CONTINUOUS
 10
1.175680
 20
8.564160
  0
VERTEX
  8
0
  6
CONTINUOUS
 10
1.175680
 20
2.867480
  0
SEQEND
  8
0
  0
SOLID
  8
0
 62
    15
 10
1.589720
 20
8.851920
 11
0.835560
 21
8.873040
 12
1.502600
 22
8.862920
 13
0.748880
 23
8.883600
  0
POLYLINE
  8
0
  6
CONTINUOUS
 66
     1
 40
0.000000
 41
0.000000
  0
VERTEX
  8
0
  6
CONTINUOUS
 10
1.589720
 20
8.851920
  0
VERTEX
  8
0
  6
CONTINUOUS
 10
0.835560
 20
8.873040
  0
VERTEX
  8
0
  6
CONTINUOUS
 10
0.748880
 20
8.883600
  0
VERTEX
  8
0
  6
CONTINUOUS
 10
1.502600
 20
8.862920
  0
VERTEX
  8
0
  6
CONTINUOUS
 10
1.589720
 20
8.851920
  0
SEQEND
  8
0
  0
SOLID
  8
0
 62
    15
 10
1.502600
 20
8.862920
 11
0.748880
 21
8.883600
 12
1.427360
 22
8.887560
 13
0.673200
 23
8.908680
  0
POLYLINE
  8
0
  6
CONTINUOUS
 66
     1
 40
0.000000
 41
0.000000
  0
VERTEX
  8
0
  6
CONTINUOUS
 10
1.502600
 20
8.862920
  0
VERTEX
  8
0
  6
CONTINUOUS
 10
0.748880
 20
8.883600
  0
VERTEX
  8
0
  6
CONTINUOUS
 10
0.673200
 20
8.908680
  0
VERTEX
  8
0
  6
CONTINUOUS
 10
1.427360
 20
8.887560
  0
VERTEX
  8
0
  6
CONTINUOUS
 10
1.502600
 20
8.862920
  0
SEQEND
  8
0
  0
SOLID
  8
0
 62
    15
 10
1.427360
 20
8.887560
 11
0.673200
 21
8.908680
 12
1.363120
 22
8.924520
 13
0.608960
 23
8.945640
  0
POLYLINE
  8
0
  6
CONTINUOUS
 66
     1
 40
0.000000
 41
0.000000
  0
VERTEX
  8
0
  6
CONTINUOUS
 10
1.427360
 20
8.887560
  0
VERTEX
  8
0
  6
CONTINUOUS
 10
0.673200
 20
8.908680
  0
VERTEX
  8
0
  6
CONTINUOUS
 10
0.608960
 20
8.945640
  0
VERTEX
  8
0
  6
CONTINUOUS
 10
1.363120
 20
8.924520
  0
VERTEX
  8
0
  6
CONTINUOUS
 10
1.427360
 20
8.887560
  0
SEQEND
  8
0
  0
SOLID
  8
0
 62
    15
 10
1.363120
 20
8.924520
 11
0.608960
 21
8.945640
 12
1.310760
 22
8.971600
 13
0.556600
 23
8.992720
  0
POLYLINE
  8
0
  6
CONTINUOUS
 66
     1
 40
0.000000
 41
0.000000
  0
VERTEX
  8
0
  6
CONTINUOUS
 10
1.363120
 20
8.924520
  0
VERTEX
  8
0
  6
CONTINUOUS
 10
0.608960
 20
8.945640
  0
VERTEX
  8
0
  6
CONTINUOUS
 10
0.556600
 20
8.992720
  0
VERTEX
  8
0
  6
CONTINUOUS
 10
1.310760
 20
8.971600
  0
VERTEX
  8
0
  6
CONTINUOUS
 10
1.363120
 20
8.924520
  0
SEQEND
  8
0
  0
SOLID
  8
0
 62
    15
 10
1.310760
 20
8.971600
 11
0.556600
 21
8.992720
 12
1.269400
 22
9.026600
 13
0.515680
 23
9.047720
  0
POLYLINE
  8
0
  6
CONTINUOUS
 66
     1
 40
0.000000
 41
0.000000
  0
VERTEX
  8
0
  6
CONTINUOUS
 10
1.310760
 20
8.971600
  0
VERTEX
  8
0
  6
CONTINUOUS
 10
0.556600
 20
8.992720
  0
VERTEX
  8
0
  6
CONTINUOUS
 10
0.515680
 20
9.047720
  0
VERTEX
  8
0
  6
CONTINUOUS
 10
1.269400
 20
9.026600
  0
VERTEX
  8
0
  6
CONTINUOUS
 10
1.310760
 20
8.971600
  0
SEQEND
  8
0
  0
SOLID
  8
0
 62
    15
 10
1.269400
 20
9.026600
 11
0.515680
 21
9.047720
 12
1.239920
 22
9.087760
 13
0.486200
 23
9.108880
  0
POLYLINE
  8
0
  6
CONTINUOUS
 66
     1
 40
0.000000
 41
0.000000
  0
VERTEX
  8
0
  6
CONTINUOUS
 10
1.269400
 20
9.026600
  0
VERTEX
  8
0
  6
CONTINUOUS
 10
0.515680
 20
9.047720
  0
VERTEX
  8
0
  6
CONTINUOUS
 10
0.486200
 20
9.108880
  0
VERTEX
  8
0
  6
CONTINUOUS
 10
1.239920
 20
9.087760
  0
VERTEX
  8
0
  6
CONTINUOUS
 10
1.269400
 20
9.026600
  0
SEQEND
  8
0
  0
SOLID
  8
0
 62
    15
 10
1.239920
 20
9.087760
 11
0.486200
 21
9.108880
 12
1.222320
 22
9.153320
 13
0.468160
 23
9.174000
  0
POLYLINE
  8
0
  6
CONTINUOUS
 66
     1
 40
0.000000
 41
0.000000
  0
VERTEX
  8
0
  6
CONTINUOUS
 10
1.239920
 20
9.087760
  0
VERTEX
  8
0
  6
CONTINUOUS
 10
0.486200
 20
9.108880
  0
VERTEX
  8
0
  6
CONTINUOUS
 10
0.468160
 20
9.174000
  0
VERTEX
  8
0
  6
CONTINUOUS
 10
1.222320
 20
9.153320
  0
VERTEX
  8
0
  6
CONTINUOUS
 10
1.239920
 20
9.087760
  0
SEQEND
  8
0
  0
SOLID
  8
0
 62
    15
 10
1.222320
 20
9.153320
 11
0.468160
 21
9.174000
 12
1.215720
 22
9.220640
 13
0.462000
 23
9.241760
  0
POLYLINE
  8
0
  6
CONTINUOUS
 66
     1
 40
0.000000
 41
0.000000
  0
VERTEX
  8
0
  6
CONTINUOUS
 10
1.222320
 20
9.153320
  0
VERTEX
  8
0
  6
CONTINUOUS
 10
0.468160
 20
9.174000
  0
VERTEX
  8
0
  6
CONTINUOUS
 10
0.462000
 20
9.241760
  0
VERTEX
  8
0
  6
CONTINUOUS
 10
1.215720
 20
9.220640
  0
VERTEX
  8
0
  6
CONTINUOUS
 10
1.222320
 20
9.153320
  0
SEQEND
  8
0
  0
SOLID
  8
0
 62
    15
 10
2.079880
 20
1.598080
 11
1.326160
 21
1.619200
 12
2.079880
 22
2.181080
 13
1.326160
 23
2.202200
  0
POLYLINE
  8
0
  6
CONTINUOUS
 66
     1
 40
0.000000
 41
0.000000
  0
VERTEX
  8
0
  6
CONTINUOUS
 10
2.079880
 20
1.598080
  0
VERTEX
  8
0
  6
CONTINUOUS
 10
1.326160
 20
1.619200
  0
VERTEX
  8
0
  6
CONTINUOUS
 10
1.326160
 20
2.202200
  0
VERTEX
  8
0
  6
CONTINUOUS
 10
2.079880
 20
2.181080
  0
VERTEX
  8
0
  6
CONTINUOUS
 10
2.079880
 20
1.598080
  0
SEQEND
  8
0
  0
SOLID
  8
0
 62
    15
 10
1.221440
 20
9.287960
 11
0.467280
 21
9.309080
 12
1.238600
 22
9.353520
 13
0.484440
 23
9.374640
  0
POLYLINE
  8
0
  6
CONTINUOUS
 66
     1
 40
0.000000
 41
0.000000
  0
VERTEX
  8
0
  6
CONTINUOUS
 10
1.221440
 20
9.287960
  0
VERTEX
  8
0
  6
CONTINUOUS
 10
0.467280
 20
9.309080
  0
VERTEX
  8
0
  6
CONTINUOUS
 10
0.484440
 20
9.374640
  0
VERTEX
  8
0
  6
CONTINUOUS
 10
1.238600
 20
9.353520
  0
VERTEX
  8
0
  6
CONTINUOUS
 10
1.221440
 20
9.287960
  0
SEQEND
  8
0
  0
SOLID
  8
0
 62
    15
 10
1.267200
 20
9.415560
 11
0.513040
 21
9.436680
 12
1.308120
 22
9.471880
 13
0.553960
 23
9.493000
  0
POLYLINE
  8
0
  6
CONTINUOUS
 66
     1
 40
0.000000
 41
0.000000
  0
VERTEX
  8
0
  6
CONTINUOUS
 10
1.267200
 20
9.415560
  0
VERTEX
  8
0
  6
CONTINUOUS
 10
0.513040
 20
9.436680
  0
VERTEX
  8
0
  6
CONTINUOUS
 10
0.553960
 20
9.493000
  0
VERTEX
  8
0
  6
CONTINUOUS
 10
1.308120
 20
9.471880
  0
VERTEX
  8
0
  6
CONTINUOUS
 10
1.267200
 20
9.415560
  0
SEQEND
  8
0
  0
SOLID
  8
0
 62
    15
 10
1.238600
 20
9.353520
 11
0.484440
 21
9.374640
 12
1.267200
 22
9.415560
 13
0.513040
 23
9.436680
  0
POLYLINE
  8
0
  6
CONTINUOUS
 66
     1
 40
0.000000
 41
0.000000
  0
VERTEX
  8
0
  6
CONTINUOUS
 10
1.238600
 20
9.353520
  0
VERTEX
  8
0
  6
CONTINUOUS
 10
0.484440
 20
9.374640
  0
VERTEX
  8
0
  6
CONTINUOUS
 10
0.513040
 20
9.436680
  0
VERTEX
  8
0
  6
CONTINUOUS
 10
1.267200
 20
9.415560
  0
VERTEX
  8
0
  6
CONTINUOUS
 10
1.238600
 20
9.353520
  0
SEQEND
  8
0
  0
SOLID
  8
0
 62
    15
 10
1.308120
 20
9.471880
 11
0.553960
 21
9.493000
 12
1.360480
 22
9.520280
 13
0.606320
 23
9.541400
  0
POLYLINE
  8
0
  6
CONTINUOUS
 66
     1
 40
0.000000
 41
0.000000
  0
VERTEX
  8
0
  6
CONTINUOUS
 10
1.308120
 20
9.471880
  0
VERTEX
  8
0
  6
CONTINUOUS
 10
0.553960
 20
9.493000
  0
VERTEX
  8
0
  6
CONTINUOUS
 10
0.606320
 20
9.541400
  0
VERTEX
  8
0
  6
CONTINUOUS
 10
1.360480
 20
9.520280
  0
VERTEX
  8
0
  6
CONTINUOUS
 10
1.308120
 20
9.471880
  0
SEQEND
  8
0
  0
SOLID
  8
0
 62
    15
 10
1.360480
 20
9.520280
 11
0.606320
 21
9.541400
 12
1.425160
 22
9.559000
 13
0.671000
 23
9.580120
  0
POLYLINE
  8
0
  6
CONTINUOUS
 66
     1
 40
0.000000
 41
0.000000
  0
VERTEX
  8
0
  6
CONTINUOUS
 10
1.360480
 20
9.520280
  0
VERTEX
  8
0
  6
CONTINUOUS
 10
0.606320
 20
9.541400
  0
VERTEX
  8
0
  6
CONTINUOUS
 10
0.671000
 20
9.580120
  0
VERTEX
  8
0
  6
CONTINUOUS
 10
1.425160
 20
9.559000
  0
VERTEX
  8
0
  6
CONTINUOUS
 10
1.360480
 20
9.520280
  0
SEQEND
  8
0
  0
SOLID
  8
0
 62
    15
 10
1.425160
 20
9.559000
 11
0.671000
 21
9.580120
 12
1.501280
 22
9.585840
 13
0.747120
 23
9.606960
  0
POLYLINE
  8
0
  6
CONTINUOUS
 66
     1
 40
0.000000
 41
0.000000
  0
VERTEX
  8
0
  6
CONTINUOUS
 10
1.425160
 20
9.559000
  0
VERTEX
  8
0
  6
CONTINUOUS
 10
0.671000
 20
9.580120
  0
VERTEX
  8
0
  6
CONTINUOUS
 10
0.747120
 20
9.606960
  0
VERTEX
  8
0
  6
CONTINUOUS
 10
1.501280
 20
9.585840
  0
VERTEX
  8
0
  6
CONTINUOUS
 10
1.425160
 20
9.559000
  0
SEQEND
  8
0
  0
SOLID
  8
0
 62
    15
 10
1.595440
 20
10.303920
 11
0.841280
 21
10.325040
 12
1.611280
 22
10.327240
 13
0.857120
 23
10.348360
  0
POLYLINE
  8
0
  6
CONTINUOUS
 66
     1
 40
0.000000
 41
0.000000
  0
VERTEX
  8
0
  6
CONTINUOUS
 10
1.595440
 20
10.303920
  0
VERTEX
  8
0
  6
CONTINUOUS
 10
0.841280
 20
10.325040
  0
VERTEX
  8
0
  6
CONTINUOUS
 10
0.857120
 20
10.348360
  0
VERTEX
  8
0
  6
CONTINUOUS
 10
1.611280
 20
10.327240
  0
VERTEX
  8
0
  6
CONTINUOUS
 10
1.595440
 20
10.303920
  0
SEQEND
  8
0
  0
SOLID
  8
0
 62
    15
 10
1.589720
 20
10.275760
 11
0.836000
 21
10.296880
 12
1.595440
 22
10.303920
 13
0.841280
 23
10.325040
  0
POLYLINE
  8
0
  6
CONTINUOUS
 66
     1
 40
0.000000
 41
0.000000
  0
VERTEX
  8
0
  6
CONTINUOUS
 10
1.589720
 20
10.275760
  0
VERTEX
  8
0
  6
CONTINUOUS
 10
0.836000
 20
10.296880
  0
VERTEX
  8
0
  6
CONTINUOUS
 10
0.841280
 20
10.325040
  0
VERTEX
  8
0
  6
CONTINUOUS
 10
1.595440
 20
10.303920
  0
VERTEX
  8
0
  6
CONTINUOUS
 10
1.589720
 20
10.275760
  0
SEQEND
  8
0
  0
SOLID
  8
0
 62
    15
 10
2.080760
 20
9.848520
 11
1.326600
 21
9.869640
 12
2.553320
 22
9.848520
 13
1.799600
 23
9.869640
  0
POLYLINE
  8
0
  6
CONTINUOUS
 66
     1
 40
0.000000
 41
0.000000
  0
VERTEX
  8
0
  6
CONTINUOUS
 10
2.080760
 20
9.848520
  0
VERTEX
  8
0
  6
CONTINUOUS
 10
1.326600
 20
9.869640
  0
VERTEX
  8
0
  6
CONTINUOUS
 10
1.799600
 20
9.869640
  0
VERTEX
  8
0
  6
CONTINUOUS
 10
2.553320
 20
9.848520
  0
VERTEX
  8
0
  6
CONTINUOUS
 10
2.080760
 20
9.848520
  0
SEQEND
  8
0
  0
SOLID
  8
0
 62
    15
 10
1.589720
 20
9.599040
 11
0.835560
 21
9.620160
 12
1.589720
 22
10.276200
 13
0.835560
 23
10.297320
  0
POLYLINE
  8
0
  6
CONTINUOUS
 66
     1
 40
0.000000
 41
0.000000
  0
VERTEX
  8
0
  6
CONTINUOUS
 10
1.589720
 20
9.599040
  0
VERTEX
  8
0
  6
CONTINUOUS
 10
0.835560
 20
9.620160
  0
VERTEX
  8
0
  6
CONTINUOUS
 10
0.835560
 20
10.297320
  0
VERTEX
  8
0
  6
CONTINUOUS
 10
1.589720
 20
10.276200
  0
VERTEX
  8
0
  6
CONTINUOUS
 10
1.589720
 20
9.599040
  0
SEQEND
  8
0
  0
SOLID
  8
0
 62
    15
 10
1.611280
 20
10.327240
 11
0.857120
 21
10.348360
 12
1.634160
 22
10.342640
 13
0.880000
 23
10.363760
  0
POLYLINE
  8
0
  6
CONTINUOUS
 66
     1
 40
0.000000
 41
0.000000
  0
VERTEX
  8
0
  6
CONTINUOUS
 10
1.611280
 20
10.327240
  0
VERTEX
  8
0
  6
CONTINUOUS
 10
0.857120
 20
10.348360
  0
VERTEX
  8
0
  6
CONTINUOUS
 10
0.880000
 20
10.363760
  0
VERTEX
  8
0
  6
CONTINUOUS
 10
1.634160
 20
10.342640
  0
VERTEX
  8
0
  6
CONTINUOUS
 10
1.611280
 20
10.327240
  0
SEQEND
  8
0
  0
SOLID
  8
0
 62
    15
 10
1.634160
 20
10.342640
 11
0.880000
 21
10.363760
 12
1.662320
 22
10.348360
 13
0.908160
 23
10.369480
  0
POLYLINE
  8
0
  6
CONTINUOUS
 66
     1
 40
0.000000
 41
0.000000
  0
VERTEX
  8
0
  6
CONTINUOUS
 10
1.634160
 20
10.342640
  0
VERTEX
  8
0
  6
CONTINUOUS
 10
0.880000
 20
10.363760
  0
VERTEX
  8
0
  6
CONTINUOUS
 10
0.908160
 20
10.369480
  0
VERTEX
  8
0
  6
CONTINUOUS
 10
1.662320
 20
10.348360
  0
VERTEX
  8
0
  6
CONTINUOUS
 10
1.634160
 20
10.342640
  0
SEQEND
  8
0
  0
SOLID
  8
0
 62
    15
 10
1.662320
 20
10.348360
 11
0.908160
 21
10.369480
 12
2.009040
 22
10.348360
 13
1.254880
 23
10.369480
  0
POLYLINE
  8
0
  6
CONTINUOUS
 66
     1
 40
0.000000
 41
0.000000
  0
VERTEX
  8
0
  6
CONTINUOUS
 10
1.662320
 20
10.348360
  0
VERTEX
  8
0
  6
CONTINUOUS
 10
0.908160
 20
10.369480
  0
VERTEX
  8
0
  6
CONTINUOUS
 10
1.254880
 20
10.369480
  0
VERTEX
  8
0
  6
CONTINUOUS
 10
2.009040
 20
10.348360
  0
VERTEX
  8
0
  6
CONTINUOUS
 10
1.662320
 20
10.348360
  0
SEQEND
  8
0
  0
SOLID
  8
0
 62
    15
 10
1.501280
 20
9.585840
 11
0.747120
 21
9.606960
 12
1.589720
 22
9.599040
 13
0.835560
 23
9.620160
  0
POLYLINE
  8
0
  6
CONTINUOUS
 66
     1
 40
0.000000
 41
0.000000
  0
VERTEX
  8
0
  6
CONTINUOUS
 10
1.501280
 20
9.585840
  0
VERTEX
  8
0
  6
CONTINUOUS
 10
0.747120
 20
9.606960
  0
VERTEX
  8
0
  6
CONTINUOUS
 10
0.835560
 20
9.620160
  0
VERTEX
  8
0
  6
CONTINUOUS
 10
1.589720
 20
9.599040
  0
VERTEX
  8
0
  6
CONTINUOUS
 10
1.501280
 20
9.585840
  0
SEQEND
  8
0
  0
POLYLINE
  8
0
  6
CONTINUOUS
 66
     1
 40
0.000000
 41
0.000000
  0
VERTEX
  8
0
  6
CONTINUOUS
 10
2.551560
 20
1.598080
  0
VERTEX
  8
0
  6
CONTINUOUS
 10
2.079880
 20
1.598080
  0
VERTEX
  8
0
  6
CONTINUOUS
 10
2.079880
 20
2.181080
  0
VERTEX
  8
0
  6
CONTINUOUS
 10
1.589280
 20
2.181080
  0
VERTEX
  8
0
  6
CONTINUOUS
 10
1.589280
 20
1.603360
  0
VERTEX
  8
0
  6
CONTINUOUS
 10
1.176120
 20
1.631960
  0
VERTEX
  8
0
  6
CONTINUOUS
 10
1.176120
 20
2.867040
  0
VERTEX
  8
0
  6
CONTINUOUS
 10
1.175680
 20
2.867480
  0
VERTEX
  8
0
  6
CONTINUOUS
 10
1.175680
 20
8.564160
  0
VERTEX
  8
0
  6
CONTINUOUS
 10
1.588840
 20
8.597160
  0
VERTEX
  8
0
  6
CONTINUOUS
 10
1.589720
 20
8.851920
  0
VERTEX
  8
0
  6
CONTINUOUS
 10
1.502600
 20
8.862920
  0
VERTEX
  8
0
  6
CONTINUOUS
 10
1.427360
 20
8.887560
  0
VERTEX
  8
0
  6
CONTINUOUS
 10
1.363120
 20
8.924520
  0
VERTEX
  8
0
  6
CONTINUOUS
 10
1.310760
 20
8.971600
  0
VERTEX
  8
0
  6
CONTINUOUS
 10
1.269400
 20
9.026600
  0
VERTEX
  8
0
  6
CONTINUOUS
 10
1.239920
 20
9.087760
  0
VERTEX
  8
0
  6
CONTINUOUS
 10
1.222320
 20
9.153320
  0
VERTEX
  8
0
  6
CONTINUOUS
 10
1.215720
 20
9.220640
  0
VERTEX
  8
0
  6
CONTINUOUS
 10
1.221440
 20
9.287960
  0
VERTEX
  8
0
  6
CONTINUOUS
 10
1.238600
 20
9.353520
  0
VERTEX
  8
0
  6
CONTINUOUS
 10
1.267200
 20
9.415560
  0
VERTEX
  8
0
  6
CONTINUOUS
 10
1.308120
 20
9.471880
  0
VERTEX
  8
0
  6
CONTINUOUS
 10
1.360480
 20
9.520280
  0
VERTEX
  8
0
  6
CONTINUOUS
 10
1.425160
 20
9.559000
  0
VERTEX
  8
0
  6
CONTINUOUS
 10
1.501280
 20
9.585840
  0
VERTEX
  8
0
  6
CONTINUOUS
 10
1.589720
 20
9.599040
  0
VERTEX
  8
0
  6
CONTINUOUS
 10
1.589720
 20
10.276200
  0
VERTEX
  8
0
  6
CONTINUOUS
 10
1.589720
 20
10.275760
  0
VERTEX
  8
0
  6
CONTINUOUS
 10
1.595440
 20
10.303920
  0
VERTEX
  8
0
  6
CONTINUOUS
 10
1.611280
 20
10.327240
  0
VERTEX
  8
0
  6
CONTINUOUS
 10
1.634160
 20
10.342640
  0
VERTEX
  8
0
  6
CONTINUOUS
 10
1.662320
 20
10.348360
  0
VERTEX
  8
0
  6
CONTINUOUS
 10
2.009040
 20
10.348360
  0
VERTEX
  8
0
  6
CONTINUOUS
 10
2.036320
 20
10.342640
  0
VERTEX
  8
0
  6
CONTINUOUS
 10
2.059640
 20
10.327240
  0
VERTEX
  8
0
  6
CONTINUOUS
 10
2.075040
 20
10.304360
  0
VERTEX
  8
0
  6
CONTINUOUS
 10
2.080760
 20
10.276200
  0
VERTEX
  8
0
  6
CONTINUOUS
 10
2.080760
 20
9.848520
  0
VERTEX
  8
0
  6
CONTINUOUS
 10
2.553320
 20
9.848520
  0
VERTEX
  8
0
  6
CONTINUOUS
 10
2.551560
 20
1.598080
  0
SEQEND
  8
0
  0
POLYLINE
  8
0
  6
CONTINUOUS
 66
     1
 40
0.000000
 41
0.000000
  0
VERTEX
  8
0
  6
CONTINUOUS
 10
6.258560
 20
9.848520
  0
VERTEX
  8
0
  6
CONTINUOUS
 10
5.786000
 20
9.848520
  0
VERTEX
  8
0
  6
CONTINUOUS
 10
5.785560
 20
10.283680
  0
VERTEX
  8
0
  6
CONTINUOUS
 10
5.782920
 20
10.297760
  0
VERTEX
  8
0
  6
CONTINUOUS
 10
5.773680
 20
10.316680
  0
VERTEX
  8
0
  6
CONTINUOUS
 10
5.759600
 20
10.332080
  0
VERTEX
  8
0
  6
CONTINUOUS
 10
5.741560
 20
10.342640
  0
VERTEX
  8
0
  6
CONTINUOUS
 10
5.727920
 20
10.347040
  0
VERTEX
  8
0
  6
CONTINUOUS
 10
5.713400
 20
10.348360
  0
VERTEX
  8
0
  6
CONTINUOUS
 10
5.714280
 20
10.348360
  0
VERTEX
  8
0
  6
CONTINUOUS
 10
5.360080
 20
10.347920
  0
VERTEX
  8
0
  6
CONTINUOUS
 10
5.346000
 20
10.345280
  0
VERTEX
  8
0
  6
CONTINUOUS
 10
5.327080
 20
10.336040
  0
VERTEX
  8
0
  6
CONTINUOUS
 10
5.311680
 20
10.321960
  0
VERTEX
  8
0
  6
CONTINUOUS
 10
5.300680
 20
10.303920
  0
VERTEX
  8
0
  6
CONTINUOUS
 10
5.296280
 20
10.290280
  0
VERTEX
  8
0
  6
CONTINUOUS
 10
5.294960
 20
10.275760
  0
VERTEX
  8
0
  6
CONTINUOUS
 10
5.294960
 20
10.276200
  0
VERTEX
  8
0
  6
CONTINUOUS
 10
5.294960
 20
9.599040
  0
VERTEX
  8
0
  6
CONTINUOUS
 10
5.249200
 20
9.594200
  0
VERTEX
  8
0
  6
CONTINUOUS
 10
5.206520
 20
9.585840
  0
VERTEX
  8
0
  6
CONTINUOUS
 10
5.166920
 20
9.573960
  0
VERTEX
  8
0
  6
CONTINUOUS
 10
5.130400
 20
9.559000
  0
VERTEX
  8
0
  6
CONTINUOUS
 10
5.096520
 20
9.540960
  0
VERTEX
  8
0
  6
CONTINUOUS
 10
5.065720
 20
9.520280
  0
VERTEX
  8
0
  6
CONTINUOUS
 10
5.025240
 20
9.484640
  0
VERTEX
  8
0
  6
CONTINUOUS
 10
4.991360
 20
9.444600
  0
VERTEX
  8
0
  6
CONTINUOUS
 10
4.964080
 20
9.400600
  0
VERTEX
  8
0
  6
CONTINUOUS
 10
4.943400
 20
9.353960
  0
VERTEX
  8
0
  6
CONTINUOUS
 10
4.929760
 20
9.304680
  0
VERTEX
  8
0
  6
CONTINUOUS
 10
4.922280
 20
9.254520
  0
VERTEX
  8
0
  6
CONTINUOUS
 10
4.920960
 20
9.220640
  0
VERTEX
  8
0
  6
CONTINUOUS
 10
4.922720
 20
9.186760
  0
VERTEX
  8
0
  6
CONTINUOUS
 10
4.924480
 20
9.170040
  0
VERTEX
  8
0
  6
CONTINUOUS
 10
4.930640
 20
9.136600
  0
VERTEX
  8
0
  6
CONTINUOUS
 10
4.945160
 20
9.087760
  0
VERTEX
  8
0
  6
CONTINUOUS
 10
4.966280
 20
9.041560
  0
VERTEX
  8
0
  6
CONTINUOUS
 10
4.983880
 20
9.012520
  0
VERTEX
  8
0
  6
CONTINUOUS
 10
5.016000
 20
8.971600
  0
VERTEX
  8
0
  6
CONTINUOUS
 10
5.040640
 20
8.946960
  0
VERTEX
  8
0
  6
CONTINUOUS
 10
5.083320
 20
8.914400
  0
VERTEX
  8
0
  6
CONTINUOUS
 10
5.115440
 20
8.895920
  0
VERTEX
  8
0
  6
CONTINUOUS
 10
5.150200
 20
8.880520
  0
VERTEX
  8
0
  6
CONTINUOUS
 10
5.188040
 20
8.867760
  0
VERTEX
  8
0
  6
CONTINUOUS
 10
5.228520
 20
8.858960
  0
VERTEX
  8
0
  6
CONTINUOUS
 10
5.272080
 20
8.853240
  0
VERTEX
  8
0
  6
CONTINUOUS
 10
5.294960
 20
8.851920
  0
VERTEX
  8
0
  6
CONTINUOUS
 10
5.294080
 20
8.597160
  0
VERTEX
  8
0
  6
CONTINUOUS
 10
4.880480
 20
8.564160
  0
VERTEX
  8
0
  6
CONTINUOUS
 10
4.880480
 20
2.867480
  0
VERTEX
  8
0
  6
CONTINUOUS
 10
4.881360
 20
2.867040
  0
VERTEX
  8
0
  6
CONTINUOUS
 10
4.881360
 20
1.631960
  0
VERTEX
  8
0
  6
CONTINUOUS
 10
5.294520
 20
1.603360
  0
VERTEX
  8
0
  6
CONTINUOUS
 10
5.294520
 20
2.181080
  0
VERTEX
  8
0
  6
CONTINUOUS
 10
5.785120
 20
2.181080
  0
VERTEX
  8
0
  6
CONTINUOUS
 10
5.785120
 20
1.598080
  0
VERTEX
  8
0
  6
CONTINUOUS
 10
6.256360
 20
1.598080
  0
VERTEX
  8
0
  6
CONTINUOUS
 10
6.258560
 20
9.848520
  0
SEQEND
  8
0
  0
TEXT
  8
0
 10
3.380080
 20
2.598640
 40
0.137976
  1
BA  1165
 41
1.000000
  7
SN0
 71
     0
 72
     5
 11
4.064403
 21
2.598640
  0
TEXT
  8
0
 10
3.196600
 20
2.406800
 40
0.137976
  1
1-3/8" x 8-3/4"
 41
1.000000
  7
SN0
 71
     0
 72
     5
 11
4.249261
 21
2.406800
  0
POLYLINE
  8
0
  6
CONTINUOUS
 66
     1
 40
0.014080
 41
0.014080
  0
VERTEX
  8
0
  6
CONTINUOUS
 10
4.406160
 20
9.848520
  0
VERTEX
  8
0
  6
CONTINUOUS
 10
3.933600
 20
9.848520
  0
VERTEX
  8
0
  6
CONTINUOUS
 10
3.933160
 20
10.283680
  0
VERTEX
  8
0
  6
CONTINUOUS
 10
3.930520
 20
10.297760
  0
VERTEX
  8
0
  6
CONTINUOUS
 10
3.921280
 20
10.316680
  0
VERTEX
  8
0
  6
CONTINUOUS
 10
3.907200
 20
10.332080
  0
VERTEX
  8
0
  6
CONTINUOUS
 10
3.889160
 20
10.342640
  0
VERTEX
  8
0
  6
CONTINUOUS
 10
3.875520
 20
10.347040
  0
VERTEX
  8
0
  6
CONTINUOUS
 10
3.861000
 20
10.348360
  0
VERTEX
  8
0
  6
CONTINUOUS
 10
3.861440
 20
10.348360
  0
VERTEX
  8
0
  6
CONTINUOUS
 10
3.507680
 20
10.347920
  0
VERTEX
  8
0
  6
CONTINUOUS
 10
3.493600
 20
10.345280
  0
VERTEX
  8
0
  6
CONTINUOUS
 10
3.474680
 20
10.336040
  0
VERTEX
  8
0
  6
CONTINUOUS
 10
3.459280
 20
10.321960
  0
VERTEX
  8
0
  6
CONTINUOUS
 10
3.448280
 20
10.303920
  0
VERTEX
  8
0
  6
CONTINUOUS
 10
3.443880
 20
10.290280
  0
VERTEX
  8
0
  6
CONTINUOUS
 10
3.442560
 20
10.275760
  0
VERTEX
  8
0
  6
CONTINUOUS
 10
3.442120
 20
10.276200
  0
VERTEX
  8
0
  6
CONTINUOUS
 10
3.442120
 20
9.599040
  0
VERTEX
  8
0
  6
CONTINUOUS
 10
3.396360
 20
9.594200
  0
VERTEX
  8
0
  6
CONTINUOUS
 10
3.353680
 20
9.585840
  0
VERTEX
  8
0
  6
CONTINUOUS
 10
3.314080
 20
9.573960
  0
VERTEX
  8
0
  6
CONTINUOUS
 10
3.277560
 20
9.559000
  0
VERTEX
  8
0
  6
CONTINUOUS
 10
3.243680
 20
9.540960
  0
VERTEX
  8
0
  6
CONTINUOUS
 10
3.212880
 20
9.520280
  0
VERTEX
  8
0
  6
CONTINUOUS
 10
3.172400
 20
9.484640
  0
VERTEX
  8
0
  6
CONTINUOUS
 10
3.149520
 20
9.458240
  0
VERTEX
  8
0
  6
CONTINUOUS
 10
3.128840
 20
9.430520
  0
VERTEX
  8
0
  6
CONTINUOUS
 10
3.104200
 20
9.385200
  0
VERTEX
  8
0
  6
CONTINUOUS
 10
3.091000
 20
9.353960
  0
VERTEX
  8
0
  6
CONTINUOUS
 10
3.076920
 20
9.304680
  0
VERTEX
  8
0
  6
CONTINUOUS
 10
3.069880
 20
9.254520
  0
VERTEX
  8
0
  6
CONTINUOUS
 10
3.068560
 20
9.220640
  0
VERTEX
  8
0
  6
CONTINUOUS
 10
3.070320
 20
9.186760
  0
VERTEX
  8
0
  6
CONTINUOUS
 10
3.074720
 20
9.153320
  0
VERTEX
  8
0
  6
CONTINUOUS
 10
3.087040
 20
9.104040
  0
VERTEX
  8
0
  6
CONTINUOUS
 10
3.105960
 20
9.056520
  0
VERTEX
  8
0
  6
CONTINUOUS
 10
3.122240
 20
9.026600
  0
VERTEX
  8
0
  6
CONTINUOUS
 10
3.141160
 20
8.998440
  0
VERTEX
  8
0
  6
CONTINUOUS
 10
3.163160
 20
8.971600
  0
VERTEX
  8
0
  6
CONTINUOUS
 10
3.201440
 20
8.935520
  0
VERTEX
  8
0
  6
CONTINUOUS
 10
3.246320
 20
8.904720
  0
VERTEX
  8
0
  6
CONTINUOUS
 10
3.279760
 20
8.888000
  0
VERTEX
  8
0
  6
CONTINUOUS
 10
3.335200
 20
8.867760
  0
VERTEX
  8
0
  6
CONTINUOUS
 10
3.376120
 20
8.858960
  0
VERTEX
  8
0
  6
CONTINUOUS
 10
3.419240
 20
8.853240
  0
VERTEX
  8
0
  6
CONTINUOUS
 10
3.442120
 20
8.851920
  0
VERTEX
  8
0
  6
CONTINUOUS
 10
3.441680
 20
8.597160
  0
VERTEX
  8
0
  6
CONTINUOUS
 10
3.028080
 20
8.564160
  0
VERTEX
  8
0
  6
CONTINUOUS
 10
3.028520
 20
1.631960
  0
VERTEX
  8
0
  6
CONTINUOUS
 10
3.441680
 20
1.603360
  0
VERTEX
  8
0
  6
CONTINUOUS
 10
3.441680
 20
2.181080
  0
VERTEX
  8
0
  6
CONTINUOUS
 10
3.932720
 20
2.181080
  0
VERTEX
  8
0
  6
CONTINUOUS
 10
3.932720
 20
1.598080
  0
VERTEX
  8
0
  6
CONTINUOUS
 10
4.403960
 20
1.598080
  0
VERTEX
  8
0
  6
CONTINUOUS
 10
4.406160
 20
9.848520
  0
SEQEND
  8
0
  0
POLYLINE
  8
0
  6
CONTINUOUS
 66
     1
 40
0.000000
 41
0.000000
  0
VERTEX
  8
0
  6
CONTINUOUS
 10
6.733320
 20
9.848520
  0
VERTEX
  8
0
  6
CONTINUOUS
 10
7.205880
 20
9.848520
  0
VERTEX
  8
0
  6
CONTINUOUS
 10
7.206320
 20
10.283680
  0
VERTEX
  8
0
  6
CONTINUOUS
 10
7.208960
 20
10.297760
  0
VERTEX
  8
0
  6
CONTINUOUS
 10
7.218200
 20
10.316680
  0
VERTEX
  8
0
  6
CONTINUOUS
 10
7.232280
 20
10.332080
  0
VERTEX
  8
0
  6
CONTINUOUS
 10
7.250320
 20
10.342640
  0
VERTEX
  8
0
  6
CONTINUOUS
 10
7.263960
 20
10.347040
  0
VERTEX
  8
0
  6
CONTINUOUS
 10
7.278480
 20
10.348360
  0
VERTEX
  8
0
  6
CONTINUOUS
 10
7.277600
 20
10.348360
  0
VERTEX
  8
0
  6
CONTINUOUS
 10
7.631800
 20
10.347920
  0
VERTEX
  8
0
  6
CONTINUOUS
 10
7.645880
 20
10.345280
  0
VERTEX
  8
0
  6
CONTINUOUS
 10
7.664800
 20
10.336040
  0
VERTEX
  8
0
  6
CONTINUOUS
 10
7.680200
 20
10.321960
  0
VERTEX
  8
0
  6
CONTINUOUS
 10
7.691200
 20
10.303920
  0
VERTEX
  8
0
  6
CONTINUOUS
 10
7.695600
 20
10.290280
  0
VERTEX
  8
0
  6
CONTINUOUS
 10
7.696920
 20
10.275760
  0
VERTEX
  8
0
  6
CONTINUOUS
 10
7.696920
 20
10.276200
  0
VERTEX
  8
0
  6
CONTINUOUS
 10
7.696920
 20
9.599040
  0
VERTEX
  8
0
  6
CONTINUOUS
 10
7.742680
 20
9.594200
  0
VERTEX
  8
0
  6
CONTINUOUS
 10
7.785360
 20
9.585840
  0
VERTEX
  8
0
  6
CONTINUOUS
 10
7.824960
 20
9.573960
  0
VERTEX
  8
0
  6
CONTINUOUS
 10
7.861480
 20
9.559000
  0
VERTEX
  8
0
  6
CONTINUOUS
 10
7.895360
 20
9.540960
  0
VERTEX
  8
0
  6
CONTINUOUS
 10
7.926160
 20
9.520280
  0
VERTEX
  8
0
  6
CONTINUOUS
 10
7.966640
 20
9.484640
  0
VERTEX
  8
0
  6
CONTINUOUS
 10
8.000520
 20
9.444600
  0
VERTEX
  8
0
  6
CONTINUOUS
 10
8.027800
 20
9.400600
  0
VERTEX
  8
0
  6
CONTINUOUS
 10
8.048480
 20
9.353960
  0
VERTEX
  8
0
  6
CONTINUOUS
 10
8.062120
 20
9.304680
  0
VERTEX
  8
0
  6
CONTINUOUS
 10
8.069600
 20
9.254520
  0
VERTEX
  8
0
  6
CONTINUOUS
 10
8.070920
 20
9.220640
  0
VERTEX
  8
0
  6
CONTINUOUS
 10
8.069160
 20
9.186760
  0
VERTEX
  8
0
  6
CONTINUOUS
 10
8.067400
 20
9.170040
  0
VERTEX
  8
0
  6
CONTINUOUS
 10
8.061240
 20
9.136600
  0
VERTEX
  8
0
  6
CONTINUOUS
 10
8.046720
 20
9.087760
  0
VERTEX
  8
0
  6
CONTINUOUS
 10
8.025600
 20
9.041560
  0
VERTEX
  8
0
  6
CONTINUOUS
 10
8.008000
 20
9.012520
  0
VERTEX
  8
0
  6
CONTINUOUS
 10
7.975880
 20
8.971600
  0
VERTEX
  8
0
  6
CONTINUOUS
 10
7.951240
 20
8.946960
  0
VERTEX
  8
0
  6
CONTINUOUS
 10
7.908560
 20
8.914400
  0
VERTEX
  8
0
  6
CONTINUOUS
 10
7.876440
 20
8.895920
  0
VERTEX
  8
0
  6
CONTINUOUS
 10
7.841680
 20
8.880520
  0
VERTEX
  8
0
  6
CONTINUOUS
 10
7.803840
 20
8.867760
  0
VERTEX
  8
0
  6
CONTINUOUS
 10
7.763360
 20
8.858960
  0
VERTEX
  8
0
  6
CONTINUOUS
 10
7.719800
 20
8.853240
  0
VERTEX
  8
0
  6
CONTINUOUS
 10
7.696920
 20
8.851920
  0
VERTEX
  8
0
  6
CONTINUOUS
 10
7.697800
 20
8.597160
  0
VERTEX
  8
0
  6
CONTINUOUS
 10
8.111400
 20
8.564160
  0
VERTEX
  8
0
  6
CONTINUOUS
 10
8.111400
 20
2.867480
  0
VERTEX
  8
0
  6
CONTINUOUS
 10
8.110520
 20
2.867040
  0
VERTEX
  8
0
  6
CONTINUOUS
 10
8.110520
 20
1.631960
  0
VERTEX
  8
0
  6
CONTINUOUS
 10
7.697360
 20
1.603360
  0
VERTEX
  8
0
  6
CONTINUOUS
 10
7.697360
 20
2.181080
  0
VERTEX
  8
0
  6
CONTINUOUS
 10
7.206760
 20
2.181080
  0
VERTEX
  8
0
  6
CONTINUOUS
 10
7.206760
 20
1.598080
  0
VERTEX
  8
0
  6
CONTINUOUS
 10
6.735520
 20
1.598080
  0
VERTEX
  8
0
  6
CONTINUOUS
 10
6.733320
 20
9.848520
  0
SEQEND
  8
0
  0
ENDSEC
  0
EOF
