  0
SECTION
  2
HEADER
  9
$ACADVER
  1
AC1006
  9
$EXTMIN
 10
3.256440
 20
1.495120
  9
$EXTMAX
 10
5.462160
 20
3.075600
  9
$LTSCALE
 40
0.044000
  9
$PDMODE
 70
    35
  9
$PDSIZE
 40
0.035200
  0
ENDSEC
  0
SECTION
  2
TABLES
  0
TABLE
  2
LTYPE
 70
     9
  0
LTYPE
  2
CONTINUOUS
 70
    64
  3
Solid line
 72
    65
 73
     0
 40
0.000000
  0
LTYPE
  2
DASHED
 70
    64
  3
__ __ __ __ __ __ __ __ __ __ __ __ __ __ __
 72
    65
 73
     2
 40
0.000330
 49
0.000220
 49
-0.000110
  0
LTYPE
  2
HIDDEN
 70
    64
  3
 _ _ _ _ _ _ _ _ _ _ _ _ _ _ _ _ _ _ _ _ _ _
 72
    65
 73
     2
 40
0.000165
 49
0.000110
 49
-0.000055
  0
LTYPE
  2
CENTER
 70
    64
  3
____ _ ____ _ ____ _ ____ _ ____ _ ____ _ ____
 72
    65
 73
     4
 40
0.000880
 49
0.000550
 49
-0.000110
 49
0.000110
 49
-0.000110
  0
LTYPE
  2
PHANTOM
 70
    64
  3
_____ _ _ _____ _ _ _____ _ _ _____ _ _ ____
 72
    65
 73
     6
 40
0.001100
 49
0.000550
 49
-0.000110
 49
0.000110
 49
-0.000110
 49
0.000110
 49
-0.000110
  0
LTYPE
  2
DOT
 70
    64
  3
...............................................
 72
    65
 73
     2
 40
0.000110
 49
0.000000
 49
-0.000110
  0
LTYPE
  2
DASHDOT
 70
    64
  3
__ . __ . __ . __ . __ . __ . __ . __ . __ . __
 72
    65
 73
     4
 40
0.000440
 49
0.000220
 49
-0.000110
 49
0.000000
 49
-0.000110
  0
LTYPE
  2
BORDER
 70
    64
  3
__ __ . __ __ . __ __ . __ __ . __ __ . __ __
 72
    65
 73
     6
 40
0.000770
 49
0.000220
 49
-0.000110
 49
0.000220
 49
-0.000110
 49
0.000000
 49
-0.000110
  0
LTYPE
  2
DIVIDE
 70
    64
  3
__ . . __ . . __ . . __ . . __ . . __ . . __
 72
    65
 73
     6
 40
0.000550
 49
0.000220
 49
-0.000110
 49
0.000000
 49
-0.000110
 49
0.000000
 49
-0.000110
  0
LTYPE
  2
DOTDOT
 70
    64
  3
 . .  . .  . .  . .  . .  . . 
 72
    65
 73
     5
 40
0.000242
 49
-0.000110
 49
0.000000
 49
-0.000110
 49
0.000000
 49
-0.000110
  0
ENDTAB
  0
TABLE
  2
STYLE
 70
     2
  0
STYLE
 70
     0
  2
SN0
 40
0.000000
 41
0.000440
 50
0.000000
 71
     0
 42
0.000000
  3
ROMAND
  0
STYLE
 70
    68
  2
SV0
 40
0.000000
 41
0.000440
 50
0.000000
 71
     0
 42
0.000000
  3
ROMAND
  0
ENDTAB
  0
TABLE
  2
LAYER
 70
     3
  0
LAYER
  2
FOREGROUND
 70
    64
 62
     7
  6
CONTINUOUS
  0
LAYER
  2
BACKGROUND
 70
    65
 62
    -7
  6
CONTINUOUS
  0
LAYER
  2
0
 70
    64
 62
     7
  6
CONTINUOUS
  0
ENDTAB
  0
ENDSEC
  0
SECTION
  2
ENTITIES
  0
POLYLINE
  8
FOREGROUND
  6
CONTINUOUS
 66
     1
 40
0.000000
 41
0.000000
  0
VERTEX
  8
FOREGROUND
  6
CONTINUOUS
 10
0.000000
 20
4.570720
  0
VERTEX
  8
FOREGROUND
  6
CONTINUOUS
 10
8.499920
 20
4.570720
  0
VERTEX
  8
FOREGROUND
  6
CONTINUOUS
 10
8.499920
 20
-6.429280
  0
VERTEX
  8
FOREGROUND
  6
CONTINUOUS
 10
0.000000
 20
-6.429280
  0
VERTEX
  8
FOREGROUND
  6
CONTINUOUS
 10
0.000000
 20
4.570720
  0
SEQEND
  8
0
  0
POLYLINE
  8
FOREGROUND
  6
CONTINUOUS
 66
     1
 40
0.000000
 41
0.000000
  0
VERTEX
  8
FOREGROUND
  6
CONTINUOUS
 10
0.000000
 20
4.570720
  0
VERTEX
  8
FOREGROUND
  6
CONTINUOUS
 10
8.499920
 20
4.570720
  0
VERTEX
  8
FOREGROUND
  6
CONTINUOUS
 10
8.499920
 20
-6.429280
  0
VERTEX
  8
FOREGROUND
  6
CONTINUOUS
 10
0.000000
 20
-6.429280
  0
VERTEX
  8
FOREGROUND
  6
CONTINUOUS
 10
0.000000
 20
4.570720
  0
SEQEND
  8
0
  0
POLYLINE
  8
0
  6
CONTINUOUS
 66
     1
 40
0.014080
 41
0.014080
  0
VERTEX
  8
0
  6
CONTINUOUS
 10
5.378120
 20
2.684000
  0
VERTEX
  8
0
  6
CONTINUOUS
 10
4.759040
 20
2.684000
  0
VERTEX
  8
0
  6
CONTINUOUS
 10
4.759040
 20
2.871440
  0
VERTEX
  8
0
  6
CONTINUOUS
 10
4.849240
 20
2.871440
  0
VERTEX
  8
0
  6
CONTINUOUS
 10
4.850120
 20
2.894760
  0
VERTEX
  8
0
  6
CONTINUOUS
 10
4.853200
 20
2.916760
  0
VERTEX
  8
0
  6
CONTINUOUS
 10
4.858040
 20
2.937000
  0
VERTEX
  8
0
  6
CONTINUOUS
 10
4.864640
 20
2.955480
  0
VERTEX
  8
0
  6
CONTINUOUS
 10
4.882240
 20
2.988040
  0
VERTEX
  8
0
  6
CONTINUOUS
 10
4.893240
 20
3.002120
  0
VERTEX
  8
0
  6
CONTINUOUS
 10
4.905560
 20
3.014880
  0
VERTEX
  8
0
  6
CONTINUOUS
 10
4.918760
 20
3.025880
  0
VERTEX
  8
0
  6
CONTINUOUS
 10
4.947800
 20
3.043480
  0
VERTEX
  8
0
  6
CONTINUOUS
 10
4.979040
 20
3.054920
  0
VERTEX
  8
0
  6
CONTINUOUS
 10
4.995760
 20
3.058440
  0
VERTEX
  8
0
  6
CONTINUOUS
 10
5.029200
 20
3.060640
  0
VERTEX
  8
0
  6
CONTINUOUS
 10
5.062640
 20
3.057560
  0
VERTEX
  8
0
  6
CONTINUOUS
 10
5.095200
 20
3.048320
  0
VERTEX
  8
0
  6
CONTINUOUS
 10
5.110600
 20
3.041720
  0
VERTEX
  8
0
  6
CONTINUOUS
 10
5.139640
 20
3.024120
  0
VERTEX
  8
0
  6
CONTINUOUS
 10
5.165160
 20
3.000360
  0
VERTEX
  8
0
  6
CONTINUOUS
 10
5.176160
 20
2.986720
  0
VERTEX
  8
0
  6
CONTINUOUS
 10
5.193760
 20
2.954600
  0
VERTEX
  8
0
  6
CONTINUOUS
 10
5.200360
 20
2.936560
  0
VERTEX
  8
0
  6
CONTINUOUS
 10
5.205200
 20
2.917200
  0
VERTEX
  8
0
  6
CONTINUOUS
 10
5.208280
 20
2.896080
  0
VERTEX
  8
0
  6
CONTINUOUS
 10
5.209160
 20
2.874080
  0
VERTEX
  8
0
  6
CONTINUOUS
 10
5.286160
 20
2.874080
  0
VERTEX
  8
0
  6
CONTINUOUS
 10
5.295840
 20
2.849000
  0
VERTEX
  8
0
  6
CONTINUOUS
 10
5.309040
 20
2.827880
  0
VERTEX
  8
0
  6
CONTINUOUS
 10
5.320040
 20
2.816440
  0
VERTEX
  8
0
  6
CONTINUOUS
 10
5.332800
 20
2.806320
  0
VERTEX
  8
0
  6
CONTINUOUS
 10
5.361840
 20
2.790480
  0
VERTEX
  8
0
  6
CONTINUOUS
 10
5.378560
 20
2.784320
  0
VERTEX
  8
0
  6
CONTINUOUS
 10
5.378120
 20
2.684000
  0
SEQEND
  8
0
  0
TEXT
  8
0
 10
4.742760
 20
2.473680
 40
0.138101
  1
BA  1164
 41
1.000000
  7
SN0
 71
     0
 72
     5
 11
5.424879
 21
2.473680
  0
TEXT
  8
0
 10
4.706680
 20
2.282280
 40
0.138101
  1
3/8" x 5/8"
 41
1.000000
  7
SN0
 71
     0
 72
     5
 11
5.459823
 21
2.282280
  0
SOLID
  8
0
 62
    15
 10
3.780920
 20
2.302960
 11
3.784000
 21
3.047440
 12
3.807760
 22
2.282280
 13
3.811280
 23
3.026760
  0
POLYLINE
  8
0
  6
CONTINUOUS
 66
     1
 40
0.000000
 41
0.000000
  0
VERTEX
  8
0
  6
CONTINUOUS
 10
3.780920
 20
2.302960
  0
VERTEX
  8
0
  6
CONTINUOUS
 10
3.784000
 20
3.047440
  0
VERTEX
  8
0
  6
CONTINUOUS
 10
3.811280
 20
3.026760
  0
VERTEX
  8
0
  6
CONTINUOUS
 10
3.807760
 20
2.282280
  0
VERTEX
  8
0
  6
CONTINUOUS
 10
3.780920
 20
2.302960
  0
SEQEND
  8
0
  0
SOLID
  8
0
 62
    15
 10
3.504160
 20
2.141040
 11
3.507680
 21
2.885520
 12
3.505480
 22
2.164360
 13
3.508560
 23
2.908840
  0
POLYLINE
  8
0
  6
CONTINUOUS
 66
     1
 40
0.000000
 41
0.000000
  0
VERTEX
  8
0
  6
CONTINUOUS
 10
3.504160
 20
2.141040
  0
VERTEX
  8
0
  6
CONTINUOUS
 10
3.507680
 20
2.885520
  0
VERTEX
  8
0
  6
CONTINUOUS
 10
3.508560
 20
2.908840
  0
VERTEX
  8
0
  6
CONTINUOUS
 10
3.505480
 20
2.164360
  0
VERTEX
  8
0
  6
CONTINUOUS
 10
3.504160
 20
2.141040
  0
SEQEND
  8
0
  0
SOLID
  8
0
 62
    15
 10
3.505480
 20
2.164360
 11
3.508560
 21
2.908840
 12
3.508120
 22
2.186360
 13
3.511640
 23
2.930840
  0
POLYLINE
  8
0
  6
CONTINUOUS
 66
     1
 40
0.000000
 41
0.000000
  0
VERTEX
  8
0
  6
CONTINUOUS
 10
3.505480
 20
2.164360
  0
VERTEX
  8
0
  6
CONTINUOUS
 10
3.508560
 20
2.908840
  0
VERTEX
  8
0
  6
CONTINUOUS
 10
3.511640
 20
2.930840
  0
VERTEX
  8
0
  6
CONTINUOUS
 10
3.508120
 20
2.186360
  0
VERTEX
  8
0
  6
CONTINUOUS
 10
3.505480
 20
2.164360
  0
SEQEND
  8
0
  0
SOLID
  8
0
 62
    15
 10
3.508120
 20
2.186360
 11
3.511640
 21
2.930840
 12
3.512960
 22
2.206600
 13
3.516480
 23
2.950640
  0
POLYLINE
  8
0
  6
CONTINUOUS
 66
     1
 40
0.000000
 41
0.000000
  0
VERTEX
  8
0
  6
CONTINUOUS
 10
3.508120
 20
2.186360
  0
VERTEX
  8
0
  6
CONTINUOUS
 10
3.511640
 20
2.930840
  0
VERTEX
  8
0
  6
CONTINUOUS
 10
3.516480
 20
2.950640
  0
VERTEX
  8
0
  6
CONTINUOUS
 10
3.512960
 20
2.206600
  0
VERTEX
  8
0
  6
CONTINUOUS
 10
3.508120
 20
2.186360
  0
SEQEND
  8
0
  0
SOLID
  8
0
 62
    15
 10
3.512960
 20
2.206600
 11
3.516480
 21
2.950640
 12
3.519560
 22
2.225080
 13
3.523080
 23
2.969560
  0
POLYLINE
  8
0
  6
CONTINUOUS
 66
     1
 40
0.000000
 41
0.000000
  0
VERTEX
  8
0
  6
CONTINUOUS
 10
3.512960
 20
2.206600
  0
VERTEX
  8
0
  6
CONTINUOUS
 10
3.516480
 20
2.950640
  0
VERTEX
  8
0
  6
CONTINUOUS
 10
3.523080
 20
2.969560
  0
VERTEX
  8
0
  6
CONTINUOUS
 10
3.519560
 20
2.225080
  0
VERTEX
  8
0
  6
CONTINUOUS
 10
3.512960
 20
2.206600
  0
SEQEND
  8
0
  0
SOLID
  8
0
 62
    15
 10
3.519560
 20
2.225080
 11
3.523080
 21
2.969560
 12
3.527920
 22
2.242240
 13
3.531000
 23
2.986720
  0
POLYLINE
  8
0
  6
CONTINUOUS
 66
     1
 40
0.000000
 41
0.000000
  0
VERTEX
  8
0
  6
CONTINUOUS
 10
3.519560
 20
2.225080
  0
VERTEX
  8
0
  6
CONTINUOUS
 10
3.523080
 20
2.969560
  0
VERTEX
  8
0
  6
CONTINUOUS
 10
3.531000
 20
2.986720
  0
VERTEX
  8
0
  6
CONTINUOUS
 10
3.527920
 20
2.242240
  0
VERTEX
  8
0
  6
CONTINUOUS
 10
3.519560
 20
2.225080
  0
SEQEND
  8
0
  0
SOLID
  8
0
 62
    15
 10
3.527920
 20
2.242240
 11
3.531000
 21
2.986720
 12
3.537600
 22
2.257640
 13
3.540680
 23
3.002120
  0
POLYLINE
  8
0
  6
CONTINUOUS
 66
     1
 40
0.000000
 41
0.000000
  0
VERTEX
  8
0
  6
CONTINUOUS
 10
3.527920
 20
2.242240
  0
VERTEX
  8
0
  6
CONTINUOUS
 10
3.531000
 20
2.986720
  0
VERTEX
  8
0
  6
CONTINUOUS
 10
3.540680
 20
3.002120
  0
VERTEX
  8
0
  6
CONTINUOUS
 10
3.537600
 20
2.257640
  0
VERTEX
  8
0
  6
CONTINUOUS
 10
3.527920
 20
2.242240
  0
SEQEND
  8
0
  0
SOLID
  8
0
 62
    15
 10
3.537600
 20
2.257640
 11
3.540680
 21
3.002120
 12
3.548600
 22
2.271720
 13
3.551680
 23
3.016200
  0
POLYLINE
  8
0
  6
CONTINUOUS
 66
     1
 40
0.000000
 41
0.000000
  0
VERTEX
  8
0
  6
CONTINUOUS
 10
3.537600
 20
2.257640
  0
VERTEX
  8
0
  6
CONTINUOUS
 10
3.540680
 20
3.002120
  0
VERTEX
  8
0
  6
CONTINUOUS
 10
3.551680
 20
3.016200
  0
VERTEX
  8
0
  6
CONTINUOUS
 10
3.548600
 20
2.271720
  0
VERTEX
  8
0
  6
CONTINUOUS
 10
3.537600
 20
2.257640
  0
SEQEND
  8
0
  0
SOLID
  8
0
 62
    15
 10
3.548600
 20
2.271720
 11
3.551680
 21
3.016200
 12
3.560480
 22
2.284480
 13
3.563560
 23
3.028960
  0
POLYLINE
  8
0
  6
CONTINUOUS
 66
     1
 40
0.000000
 41
0.000000
  0
VERTEX
  8
0
  6
CONTINUOUS
 10
3.548600
 20
2.271720
  0
VERTEX
  8
0
  6
CONTINUOUS
 10
3.551680
 20
3.016200
  0
VERTEX
  8
0
  6
CONTINUOUS
 10
3.563560
 20
3.028960
  0
VERTEX
  8
0
  6
CONTINUOUS
 10
3.560480
 20
2.284480
  0
VERTEX
  8
0
  6
CONTINUOUS
 10
3.548600
 20
2.271720
  0
SEQEND
  8
0
  0
SOLID
  8
0
 62
    15
 10
3.560480
 20
2.284480
 11
3.563560
 21
3.028960
 12
3.573680
 22
2.295480
 13
3.576760
 23
3.039960
  0
POLYLINE
  8
0
  6
CONTINUOUS
 66
     1
 40
0.000000
 41
0.000000
  0
VERTEX
  8
0
  6
CONTINUOUS
 10
3.560480
 20
2.284480
  0
VERTEX
  8
0
  6
CONTINUOUS
 10
3.563560
 20
3.028960
  0
VERTEX
  8
0
  6
CONTINUOUS
 10
3.576760
 20
3.039960
  0
VERTEX
  8
0
  6
CONTINUOUS
 10
3.573680
 20
2.295480
  0
VERTEX
  8
0
  6
CONTINUOUS
 10
3.560480
 20
2.284480
  0
SEQEND
  8
0
  0
SOLID
  8
0
 62
    15
 10
3.573680
 20
2.295480
 11
3.576760
 21
3.039960
 12
3.587760
 22
2.304720
 13
3.590840
 23
3.049200
  0
POLYLINE
  8
0
  6
CONTINUOUS
 66
     1
 40
0.000000
 41
0.000000
  0
VERTEX
  8
0
  6
CONTINUOUS
 10
3.573680
 20
2.295480
  0
VERTEX
  8
0
  6
CONTINUOUS
 10
3.576760
 20
3.039960
  0
VERTEX
  8
0
  6
CONTINUOUS
 10
3.590840
 20
3.049200
  0
VERTEX
  8
0
  6
CONTINUOUS
 10
3.587760
 20
2.304720
  0
VERTEX
  8
0
  6
CONTINUOUS
 10
3.573680
 20
2.295480
  0
SEQEND
  8
0
  0
SOLID
  8
0
 62
    15
 10
3.587760
 20
2.304720
 11
3.590840
 21
3.049200
 12
3.618120
 22
2.319240
 13
3.621200
 23
3.063720
  0
POLYLINE
  8
0
  6
CONTINUOUS
 66
     1
 40
0.000000
 41
0.000000
  0
VERTEX
  8
0
  6
CONTINUOUS
 10
3.587760
 20
2.304720
  0
VERTEX
  8
0
  6
CONTINUOUS
 10
3.590840
 20
3.049200
  0
VERTEX
  8
0
  6
CONTINUOUS
 10
3.621200
 20
3.063720
  0
VERTEX
  8
0
  6
CONTINUOUS
 10
3.618120
 20
2.319240
  0
VERTEX
  8
0
  6
CONTINUOUS
 10
3.587760
 20
2.304720
  0
SEQEND
  8
0
  0
SOLID
  8
0
 62
    15
 10
3.618120
 20
2.319240
 11
3.621200
 21
3.063720
 12
3.650680
 22
2.327600
 13
3.653760
 23
3.072080
  0
POLYLINE
  8
0
  6
CONTINUOUS
 66
     1
 40
0.000000
 41
0.000000
  0
VERTEX
  8
0
  6
CONTINUOUS
 10
3.618120
 20
2.319240
  0
VERTEX
  8
0
  6
CONTINUOUS
 10
3.621200
 20
3.063720
  0
VERTEX
  8
0
  6
CONTINUOUS
 10
3.653760
 20
3.072080
  0
VERTEX
  8
0
  6
CONTINUOUS
 10
3.650680
 20
2.327600
  0
VERTEX
  8
0
  6
CONTINUOUS
 10
3.618120
 20
2.319240
  0
SEQEND
  8
0
  0
SOLID
  8
0
 62
    15
 10
3.650680
 20
2.327600
 11
3.653760
 21
3.072080
 12
3.684120
 22
2.330240
 13
3.687640
 23
3.074720
  0
POLYLINE
  8
0
  6
CONTINUOUS
 66
     1
 40
0.000000
 41
0.000000
  0
VERTEX
  8
0
  6
CONTINUOUS
 10
3.650680
 20
2.327600
  0
VERTEX
  8
0
  6
CONTINUOUS
 10
3.653760
 20
3.072080
  0
VERTEX
  8
0
  6
CONTINUOUS
 10
3.687640
 20
3.074720
  0
VERTEX
  8
0
  6
CONTINUOUS
 10
3.684120
 20
2.330240
  0
VERTEX
  8
0
  6
CONTINUOUS
 10
3.650680
 20
2.327600
  0
SEQEND
  8
0
  0
SOLID
  8
0
 62
    15
 10
3.684120
 20
2.330240
 11
3.687640
 21
3.074720
 12
3.718000
 22
2.327160
 13
3.721080
 23
3.071640
  0
POLYLINE
  8
0
  6
CONTINUOUS
 66
     1
 40
0.000000
 41
0.000000
  0
VERTEX
  8
0
  6
CONTINUOUS
 10
3.684120
 20
2.330240
  0
VERTEX
  8
0
  6
CONTINUOUS
 10
3.687640
 20
3.074720
  0
VERTEX
  8
0
  6
CONTINUOUS
 10
3.721080
 20
3.071640
  0
VERTEX
  8
0
  6
CONTINUOUS
 10
3.718000
 20
2.327160
  0
VERTEX
  8
0
  6
CONTINUOUS
 10
3.684120
 20
2.330240
  0
SEQEND
  8
0
  0
SOLID
  8
0
 62
    15
 10
3.718000
 20
2.327160
 11
3.721080
 21
3.071640
 12
3.750120
 22
2.317920
 13
3.753640
 23
3.062400
  0
POLYLINE
  8
0
  6
CONTINUOUS
 66
     1
 40
0.000000
 41
0.000000
  0
VERTEX
  8
0
  6
CONTINUOUS
 10
3.718000
 20
2.327160
  0
VERTEX
  8
0
  6
CONTINUOUS
 10
3.721080
 20
3.071640
  0
VERTEX
  8
0
  6
CONTINUOUS
 10
3.753640
 20
3.062400
  0
VERTEX
  8
0
  6
CONTINUOUS
 10
3.750120
 20
2.317920
  0
VERTEX
  8
0
  6
CONTINUOUS
 10
3.718000
 20
2.327160
  0
SEQEND
  8
0
  0
SOLID
  8
0
 62
    15
 10
3.750120
 20
2.317920
 11
3.753640
 21
3.062400
 12
3.780920
 22
2.302960
 13
3.784000
 23
3.047440
  0
POLYLINE
  8
0
  6
CONTINUOUS
 66
     1
 40
0.000000
 41
0.000000
  0
VERTEX
  8
0
  6
CONTINUOUS
 10
3.750120
 20
2.317920
  0
VERTEX
  8
0
  6
CONTINUOUS
 10
3.753640
 20
3.062400
  0
VERTEX
  8
0
  6
CONTINUOUS
 10
3.784000
 20
3.047440
  0
VERTEX
  8
0
  6
CONTINUOUS
 10
3.780920
 20
2.302960
  0
VERTEX
  8
0
  6
CONTINUOUS
 10
3.750120
 20
2.317920
  0
SEQEND
  8
0
  0
SOLID
  8
0
 62
    15
 10
3.414400
 20
2.141040
 11
3.417480
 21
2.885520
 12
3.504160
 22
2.141040
 13
3.507680
 23
2.885520
  0
POLYLINE
  8
0
  6
CONTINUOUS
 66
     1
 40
0.000000
 41
0.000000
  0
VERTEX
  8
0
  6
CONTINUOUS
 10
3.414400
 20
2.141040
  0
VERTEX
  8
0
  6
CONTINUOUS
 10
3.417480
 20
2.885520
  0
VERTEX
  8
0
  6
CONTINUOUS
 10
3.507680
 20
2.885520
  0
VERTEX
  8
0
  6
CONTINUOUS
 10
3.504160
 20
2.141040
  0
VERTEX
  8
0
  6
CONTINUOUS
 10
3.414400
 20
2.141040
  0
SEQEND
  8
0
  0
SOLID
  8
0
 62
    15
 10
3.807760
 20
2.282280
 11
3.811280
 21
3.026760
 12
3.820080
 22
2.269960
 13
3.823160
 23
3.014440
  0
POLYLINE
  8
0
  6
CONTINUOUS
 66
     1
 40
0.000000
 41
0.000000
  0
VERTEX
  8
0
  6
CONTINUOUS
 10
3.807760
 20
2.282280
  0
VERTEX
  8
0
  6
CONTINUOUS
 10
3.811280
 20
3.026760
  0
VERTEX
  8
0
  6
CONTINUOUS
 10
3.823160
 20
3.014440
  0
VERTEX
  8
0
  6
CONTINUOUS
 10
3.820080
 20
2.269960
  0
VERTEX
  8
0
  6
CONTINUOUS
 10
3.807760
 20
2.282280
  0
SEQEND
  8
0
  0
SOLID
  8
0
 62
    15
 10
3.820080
 20
2.269960
 11
3.823160
 21
3.014440
 12
3.831080
 22
2.256320
 13
3.834160
 23
3.000800
  0
POLYLINE
  8
0
  6
CONTINUOUS
 66
     1
 40
0.000000
 41
0.000000
  0
VERTEX
  8
0
  6
CONTINUOUS
 10
3.820080
 20
2.269960
  0
VERTEX
  8
0
  6
CONTINUOUS
 10
3.823160
 20
3.014440
  0
VERTEX
  8
0
  6
CONTINUOUS
 10
3.834160
 20
3.000800
  0
VERTEX
  8
0
  6
CONTINUOUS
 10
3.831080
 20
2.256320
  0
VERTEX
  8
0
  6
CONTINUOUS
 10
3.820080
 20
2.269960
  0
SEQEND
  8
0
  0
SOLID
  8
0
 62
    15
 10
3.831080
 20
2.256320
 11
3.834160
 21
3.000800
 12
3.840760
 22
2.240920
 13
3.843840
 23
2.985400
  0
POLYLINE
  8
0
  6
CONTINUOUS
 66
     1
 40
0.000000
 41
0.000000
  0
VERTEX
  8
0
  6
CONTINUOUS
 10
3.831080
 20
2.256320
  0
VERTEX
  8
0
  6
CONTINUOUS
 10
3.834160
 20
3.000800
  0
VERTEX
  8
0
  6
CONTINUOUS
 10
3.843840
 20
2.985400
  0
VERTEX
  8
0
  6
CONTINUOUS
 10
3.840760
 20
2.240920
  0
VERTEX
  8
0
  6
CONTINUOUS
 10
3.831080
 20
2.256320
  0
SEQEND
  8
0
  0
SOLID
  8
0
 62
    15
 10
3.840760
 20
2.240920
 11
3.843840
 21
2.985400
 12
3.848680
 22
2.224200
 13
3.851760
 23
2.968680
  0
POLYLINE
  8
0
  6
CONTINUOUS
 66
     1
 40
0.000000
 41
0.000000
  0
VERTEX
  8
0
  6
CONTINUOUS
 10
3.840760
 20
2.240920
  0
VERTEX
  8
0
  6
CONTINUOUS
 10
3.843840
 20
2.985400
  0
VERTEX
  8
0
  6
CONTINUOUS
 10
3.851760
 20
2.968680
  0
VERTEX
  8
0
  6
CONTINUOUS
 10
3.848680
 20
2.224200
  0
VERTEX
  8
0
  6
CONTINUOUS
 10
3.840760
 20
2.240920
  0
SEQEND
  8
0
  0
SOLID
  8
0
 62
    15
 10
3.848680
 20
2.224200
 11
3.851760
 21
2.968680
 12
3.855280
 22
2.206160
 13
3.858360
 23
2.950640
  0
POLYLINE
  8
0
  6
CONTINUOUS
 66
     1
 40
0.000000
 41
0.000000
  0
VERTEX
  8
0
  6
CONTINUOUS
 10
3.848680
 20
2.224200
  0
VERTEX
  8
0
  6
CONTINUOUS
 10
3.851760
 20
2.968680
  0
VERTEX
  8
0
  6
CONTINUOUS
 10
3.858360
 20
2.950640
  0
VERTEX
  8
0
  6
CONTINUOUS
 10
3.855280
 20
2.206160
  0
VERTEX
  8
0
  6
CONTINUOUS
 10
3.848680
 20
2.224200
  0
SEQEND
  8
0
  0
SOLID
  8
0
 62
    15
 10
3.855280
 20
2.206160
 11
3.858360
 21
2.950640
 12
3.860120
 22
2.186800
 13
3.863200
 23
2.931280
  0
POLYLINE
  8
0
  6
CONTINUOUS
 66
     1
 40
0.000000
 41
0.000000
  0
VERTEX
  8
0
  6
CONTINUOUS
 10
3.855280
 20
2.206160
  0
VERTEX
  8
0
  6
CONTINUOUS
 10
3.858360
 20
2.950640
  0
VERTEX
  8
0
  6
CONTINUOUS
 10
3.863200
 20
2.931280
  0
VERTEX
  8
0
  6
CONTINUOUS
 10
3.860120
 20
2.186800
  0
VERTEX
  8
0
  6
CONTINUOUS
 10
3.855280
 20
2.206160
  0
SEQEND
  8
0
  0
SOLID
  8
0
 62
    15
 10
3.860120
 20
2.186800
 11
3.863200
 21
2.931280
 12
3.863200
 22
2.166120
 13
3.866280
 23
2.910160
  0
POLYLINE
  8
0
  6
CONTINUOUS
 66
     1
 40
0.000000
 41
0.000000
  0
VERTEX
  8
0
  6
CONTINUOUS
 10
3.860120
 20
2.186800
  0
VERTEX
  8
0
  6
CONTINUOUS
 10
3.863200
 20
2.931280
  0
VERTEX
  8
0
  6
CONTINUOUS
 10
3.866280
 20
2.910160
  0
VERTEX
  8
0
  6
CONTINUOUS
 10
3.863200
 20
2.166120
  0
VERTEX
  8
0
  6
CONTINUOUS
 10
3.860120
 20
2.186800
  0
SEQEND
  8
0
  0
SOLID
  8
0
 62
    15
 10
3.863200
 20
2.166120
 11
3.866280
 21
2.910160
 12
3.864080
 22
2.143680
 13
3.867600
 23
2.888160
  0
POLYLINE
  8
0
  6
CONTINUOUS
 66
     1
 40
0.000000
 41
0.000000
  0
VERTEX
  8
0
  6
CONTINUOUS
 10
3.863200
 20
2.166120
  0
VERTEX
  8
0
  6
CONTINUOUS
 10
3.866280
 20
2.910160
  0
VERTEX
  8
0
  6
CONTINUOUS
 10
3.867600
 20
2.888160
  0
VERTEX
  8
0
  6
CONTINUOUS
 10
3.864080
 20
2.143680
  0
VERTEX
  8
0
  6
CONTINUOUS
 10
3.863200
 20
2.166120
  0
SEQEND
  8
0
  0
SOLID
  8
0
 62
    15
 10
3.864080
 20
2.143680
 11
3.867600
 21
2.888160
 12
3.941080
 22
2.143680
 13
3.944600
 23
2.888160
  0
POLYLINE
  8
0
  6
CONTINUOUS
 66
     1
 40
0.000000
 41
0.000000
  0
VERTEX
  8
0
  6
CONTINUOUS
 10
3.864080
 20
2.143680
  0
VERTEX
  8
0
  6
CONTINUOUS
 10
3.867600
 20
2.888160
  0
VERTEX
  8
0
  6
CONTINUOUS
 10
3.944600
 20
2.888160
  0
VERTEX
  8
0
  6
CONTINUOUS
 10
3.941080
 20
2.143680
  0
VERTEX
  8
0
  6
CONTINUOUS
 10
3.864080
 20
2.143680
  0
SEQEND
  8
0
  0
SOLID
  8
0
 62
    15
 10
3.941080
 20
2.143680
 11
3.944600
 21
2.888160
 12
3.947240
 22
2.126520
 13
3.950320
 23
2.871000
  0
POLYLINE
  8
0
  6
CONTINUOUS
 66
     1
 40
0.000000
 41
0.000000
  0
VERTEX
  8
0
  6
CONTINUOUS
 10
3.941080
 20
2.143680
  0
VERTEX
  8
0
  6
CONTINUOUS
 10
3.944600
 20
2.888160
  0
VERTEX
  8
0
  6
CONTINUOUS
 10
3.950320
 20
2.871000
  0
VERTEX
  8
0
  6
CONTINUOUS
 10
3.947240
 20
2.126520
  0
VERTEX
  8
0
  6
CONTINUOUS
 10
3.941080
 20
2.143680
  0
SEQEND
  8
0
  0
SOLID
  8
0
 62
    15
 10
3.947240
 20
2.126520
 11
3.950320
 21
2.871000
 12
3.954720
 22
2.111120
 13
3.958240
 23
2.855600
  0
POLYLINE
  8
0
  6
CONTINUOUS
 66
     1
 40
0.000000
 41
0.000000
  0
VERTEX
  8
0
  6
CONTINUOUS
 10
3.947240
 20
2.126520
  0
VERTEX
  8
0
  6
CONTINUOUS
 10
3.950320
 20
2.871000
  0
VERTEX
  8
0
  6
CONTINUOUS
 10
3.958240
 20
2.855600
  0
VERTEX
  8
0
  6
CONTINUOUS
 10
3.954720
 20
2.111120
  0
VERTEX
  8
0
  6
CONTINUOUS
 10
3.947240
 20
2.126520
  0
SEQEND
  8
0
  0
SOLID
  8
0
 62
    15
 10
3.954720
 20
2.111120
 11
3.958240
 21
2.855600
 12
3.963960
 22
2.097920
 13
3.967480
 23
2.842400
  0
POLYLINE
  8
0
  6
CONTINUOUS
 66
     1
 40
0.000000
 41
0.000000
  0
VERTEX
  8
0
  6
CONTINUOUS
 10
3.954720
 20
2.111120
  0
VERTEX
  8
0
  6
CONTINUOUS
 10
3.958240
 20
2.855600
  0
VERTEX
  8
0
  6
CONTINUOUS
 10
3.967480
 20
2.842400
  0
VERTEX
  8
0
  6
CONTINUOUS
 10
3.963960
 20
2.097920
  0
VERTEX
  8
0
  6
CONTINUOUS
 10
3.954720
 20
2.111120
  0
SEQEND
  8
0
  0
SOLID
  8
0
 62
    15
 10
3.963960
 20
2.097920
 11
3.967480
 21
2.842400
 12
3.975400
 22
2.086040
 13
3.978480
 23
2.830520
  0
POLYLINE
  8
0
  6
CONTINUOUS
 66
     1
 40
0.000000
 41
0.000000
  0
VERTEX
  8
0
  6
CONTINUOUS
 10
3.963960
 20
2.097920
  0
VERTEX
  8
0
  6
CONTINUOUS
 10
3.967480
 20
2.842400
  0
VERTEX
  8
0
  6
CONTINUOUS
 10
3.978480
 20
2.830520
  0
VERTEX
  8
0
  6
CONTINUOUS
 10
3.975400
 20
2.086040
  0
VERTEX
  8
0
  6
CONTINUOUS
 10
3.963960
 20
2.097920
  0
SEQEND
  8
0
  0
SOLID
  8
0
 62
    15
 10
3.975400
 20
2.086040
 11
3.978480
 21
2.830520
 12
3.987720
 22
2.076360
 13
3.991240
 23
2.820400
  0
POLYLINE
  8
0
  6
CONTINUOUS
 66
     1
 40
0.000000
 41
0.000000
  0
VERTEX
  8
0
  6
CONTINUOUS
 10
3.975400
 20
2.086040
  0
VERTEX
  8
0
  6
CONTINUOUS
 10
3.978480
 20
2.830520
  0
VERTEX
  8
0
  6
CONTINUOUS
 10
3.991240
 20
2.820400
  0
VERTEX
  8
0
  6
CONTINUOUS
 10
3.987720
 20
2.076360
  0
VERTEX
  8
0
  6
CONTINUOUS
 10
3.975400
 20
2.086040
  0
SEQEND
  8
0
  0
SOLID
  8
0
 62
    15
 10
3.987720
 20
2.076360
 11
3.991240
 21
2.820400
 12
4.001800
 22
2.067560
 13
4.004880
 23
2.812040
  0
POLYLINE
  8
0
  6
CONTINUOUS
 66
     1
 40
0.000000
 41
0.000000
  0
VERTEX
  8
0
  6
CONTINUOUS
 10
3.987720
 20
2.076360
  0
VERTEX
  8
0
  6
CONTINUOUS
 10
3.991240
 20
2.820400
  0
VERTEX
  8
0
  6
CONTINUOUS
 10
4.004880
 20
2.812040
  0
VERTEX
  8
0
  6
CONTINUOUS
 10
4.001800
 20
2.067560
  0
VERTEX
  8
0
  6
CONTINUOUS
 10
3.987720
 20
2.076360
  0
SEQEND
  8
0
  0
SOLID
  8
0
 62
    15
 10
4.033480
 20
2.053920
 11
4.037000
 21
2.798400
 12
4.033480
 22
1.953600
 13
4.037000
 23
2.698080
  0
POLYLINE
  8
0
  6
CONTINUOUS
 66
     1
 40
0.000000
 41
0.000000
  0
VERTEX
  8
0
  6
CONTINUOUS
 10
4.033480
 20
2.053920
  0
VERTEX
  8
0
  6
CONTINUOUS
 10
4.037000
 20
2.798400
  0
VERTEX
  8
0
  6
CONTINUOUS
 10
4.037000
 20
2.698080
  0
VERTEX
  8
0
  6
CONTINUOUS
 10
4.033480
 20
1.953600
  0
VERTEX
  8
0
  6
CONTINUOUS
 10
4.033480
 20
2.053920
  0
SEQEND
  8
0
  0
SOLID
  8
0
 62
    15
 10
4.001800
 20
2.067560
 11
4.004880
 21
2.812040
 12
4.033480
 22
2.053920
 13
4.037000
 23
2.798400
  0
POLYLINE
  8
0
  6
CONTINUOUS
 66
     1
 40
0.000000
 41
0.000000
  0
VERTEX
  8
0
  6
CONTINUOUS
 10
4.001800
 20
2.067560
  0
VERTEX
  8
0
  6
CONTINUOUS
 10
4.004880
 20
2.812040
  0
VERTEX
  8
0
  6
CONTINUOUS
 10
4.037000
 20
2.798400
  0
VERTEX
  8
0
  6
CONTINUOUS
 10
4.033480
 20
2.053920
  0
VERTEX
  8
0
  6
CONTINUOUS
 10
4.001800
 20
2.067560
  0
SEQEND
  8
0
  0
POLYLINE
  8
0
  6
CONTINUOUS
 66
     1
 40
0.000000
 41
0.000000
  0
VERTEX
  8
0
  6
CONTINUOUS
 10
4.033480
 20
1.953600
  0
VERTEX
  8
0
  6
CONTINUOUS
 10
3.414400
 20
1.953600
  0
VERTEX
  8
0
  6
CONTINUOUS
 10
3.414400
 20
2.141040
  0
VERTEX
  8
0
  6
CONTINUOUS
 10
3.504160
 20
2.141040
  0
VERTEX
  8
0
  6
CONTINUOUS
 10
3.505480
 20
2.164360
  0
VERTEX
  8
0
  6
CONTINUOUS
 10
3.508120
 20
2.186360
  0
VERTEX
  8
0
  6
CONTINUOUS
 10
3.512960
 20
2.206600
  0
VERTEX
  8
0
  6
CONTINUOUS
 10
3.519560
 20
2.225080
  0
VERTEX
  8
0
  6
CONTINUOUS
 10
3.527920
 20
2.242240
  0
VERTEX
  8
0
  6
CONTINUOUS
 10
3.537600
 20
2.257640
  0
VERTEX
  8
0
  6
CONTINUOUS
 10
3.548600
 20
2.271720
  0
VERTEX
  8
0
  6
CONTINUOUS
 10
3.560480
 20
2.284480
  0
VERTEX
  8
0
  6
CONTINUOUS
 10
3.573680
 20
2.295480
  0
VERTEX
  8
0
  6
CONTINUOUS
 10
3.587760
 20
2.304720
  0
VERTEX
  8
0
  6
CONTINUOUS
 10
3.618120
 20
2.319240
  0
VERTEX
  8
0
  6
CONTINUOUS
 10
3.650680
 20
2.327600
  0
VERTEX
  8
0
  6
CONTINUOUS
 10
3.684120
 20
2.330240
  0
VERTEX
  8
0
  6
CONTINUOUS
 10
3.718000
 20
2.327160
  0
VERTEX
  8
0
  6
CONTINUOUS
 10
3.750120
 20
2.317920
  0
VERTEX
  8
0
  6
CONTINUOUS
 10
3.780920
 20
2.302960
  0
VERTEX
  8
0
  6
CONTINUOUS
 10
3.807760
 20
2.282280
  0
VERTEX
  8
0
  6
CONTINUOUS
 10
3.820080
 20
2.269960
  0
VERTEX
  8
0
  6
CONTINUOUS
 10
3.831080
 20
2.256320
  0
VERTEX
  8
0
  6
CONTINUOUS
 10
3.840760
 20
2.240920
  0
VERTEX
  8
0
  6
CONTINUOUS
 10
3.848680
 20
2.224200
  0
VERTEX
  8
0
  6
CONTINUOUS
 10
3.855280
 20
2.206160
  0
VERTEX
  8
0
  6
CONTINUOUS
 10
3.860120
 20
2.186800
  0
VERTEX
  8
0
  6
CONTINUOUS
 10
3.863200
 20
2.166120
  0
VERTEX
  8
0
  6
CONTINUOUS
 10
3.864080
 20
2.143680
  0
VERTEX
  8
0
  6
CONTINUOUS
 10
3.941080
 20
2.143680
  0
VERTEX
  8
0
  6
CONTINUOUS
 10
3.947240
 20
2.126520
  0
VERTEX
  8
0
  6
CONTINUOUS
 10
3.954720
 20
2.111120
  0
VERTEX
  8
0
  6
CONTINUOUS
 10
3.963960
 20
2.097920
  0
VERTEX
  8
0
  6
CONTINUOUS
 10
3.975400
 20
2.086040
  0
VERTEX
  8
0
  6
CONTINUOUS
 10
3.987720
 20
2.076360
  0
VERTEX
  8
0
  6
CONTINUOUS
 10
4.001800
 20
2.067560
  0
VERTEX
  8
0
  6
CONTINUOUS
 10
4.033480
 20
2.053920
  0
VERTEX
  8
0
  6
CONTINUOUS
 10
4.033480
 20
1.953600
  0
SEQEND
  8
0
  0
TEXT
  8
0
 10
3.383160
 20
1.738000
 40
0.138101
  1
BA  1164
 41
1.000000
  7
SN0
 71
     0
 72
     5
 11
4.065279
 21
1.738000
  0
TEXT
  8
0
 10
3.347520
 20
1.546160
 40
0.138101
  1
3/8" x 5/8"
 41
1.000000
  7
SN0
 71
     0
 72
     5
 11
4.100663
 21
1.546160
  0
ENDSEC
  0
EOF
