  0
SECTION
  2
HEADER
  9
$ACADVER
  1
AC1006
  9
$EXTMIN
 10
2.310000
 20
0.931040
  9
$EXTMAX
 10
7.681080
 20
9.171360
  9
$LTSCALE
 40
0.044000
  9
$PDMODE
 70
    35
  9
$PDSIZE
 40
0.035200
  0
ENDSEC
  0
SECTION
  2
TABLES
  0
TABLE
  2
LTYPE
 70
     9
  0
LTYPE
  2
CONTINUOUS
 70
    64
  3
Solid line
 72
    65
 73
     0
 40
0.000000
  0
LTYPE
  2
DASHED
 70
    64
  3
__ __ __ __ __ __ __ __ __ __ __ __ __ __ __
 72
    65
 73
     2
 40
0.000330
 49
0.000220
 49
-0.000110
  0
LTYPE
  2
HIDDEN
 70
    64
  3
 _ _ _ _ _ _ _ _ _ _ _ _ _ _ _ _ _ _ _ _ _ _
 72
    65
 73
     2
 40
0.000165
 49
0.000110
 49
-0.000055
  0
LTYPE
  2
CENTER
 70
    64
  3
____ _ ____ _ ____ _ ____ _ ____ _ ____ _ ____
 72
    65
 73
     4
 40
0.000880
 49
0.000550
 49
-0.000110
 49
0.000110
 49
-0.000110
  0
LTYPE
  2
PHANTOM
 70
    64
  3
_____ _ _ _____ _ _ _____ _ _ _____ _ _ ____
 72
    65
 73
     6
 40
0.001100
 49
0.000550
 49
-0.000110
 49
0.000110
 49
-0.000110
 49
0.000110
 49
-0.000110
  0
LTYPE
  2
DOT
 70
    64
  3
...............................................
 72
    65
 73
     2
 40
0.000110
 49
0.000000
 49
-0.000110
  0
LTYPE
  2
DASHDOT
 70
    64
  3
__ . __ . __ . __ . __ . __ . __ . __ . __ . __
 72
    65
 73
     4
 40
0.000440
 49
0.000220
 49
-0.000110
 49
0.000000
 49
-0.000110
  0
LTYPE
  2
BORDER
 70
    64
  3
__ __ . __ __ . __ __ . __ __ . __ __ . __ __
 72
    65
 73
     6
 40
0.000770
 49
0.000220
 49
-0.000110
 49
0.000220
 49
-0.000110
 49
0.000000
 49
-0.000110
  0
LTYPE
  2
DIVIDE
 70
    64
  3
__ . . __ . . __ . . __ . . __ . . __ . . __
 72
    65
 73
     6
 40
0.000550
 49
0.000220
 49
-0.000110
 49
0.000000
 49
-0.000110
 49
0.000000
 49
-0.000110
  0
LTYPE
  2
DOTDOT
 70
    64
  3
 . .  . .  . .  . .  . .  . . 
 72
    65
 73
     5
 40
0.000242
 49
-0.000110
 49
0.000000
 49
-0.000110
 49
0.000000
 49
-0.000110
  0
ENDTAB
  0
TABLE
  2
STYLE
 70
     2
  0
STYLE
 70
     0
  2
SN0
 40
0.000000
 41
0.000440
 50
0.000000
 71
     0
 42
0.000000
  3
ROMAND
  0
STYLE
 70
    68
  2
SV0
 40
0.000000
 41
0.000440
 50
0.000000
 71
     0
 42
0.000000
  3
ROMAND
  0
ENDTAB
  0
TABLE
  2
LAYER
 70
     3
  0
LAYER
  2
FOREGROUND
 70
    64
 62
     7
  6
CONTINUOUS
  0
LAYER
  2
BACKGROUND
 70
    65
 62
    -7
  6
CONTINUOUS
  0
LAYER
  2
0
 70
    64
 62
     7
  6
CONTINUOUS
  0
ENDTAB
  0
ENDSEC
  0
SECTION
  2
ENTITIES
  0
POLYLINE
  8
FOREGROUND
  6
CONTINUOUS
 66
     1
 40
0.000000
 41
0.000000
  0
VERTEX
  8
FOREGROUND
  6
CONTINUOUS
 10
0.000000
 20
10.102400
  0
VERTEX
  8
FOREGROUND
  6
CONTINUOUS
 10
8.499920
 20
10.102400
  0
VERTEX
  8
FOREGROUND
  6
CONTINUOUS
 10
8.499920
 20
-0.897600
  0
VERTEX
  8
FOREGROUND
  6
CONTINUOUS
 10
0.000000
 20
-0.897600
  0
VERTEX
  8
FOREGROUND
  6
CONTINUOUS
 10
0.000000
 20
10.102400
  0
SEQEND
  8
0
  0
POLYLINE
  8
FOREGROUND
  6
CONTINUOUS
 66
     1
 40
0.000000
 41
0.000000
  0
VERTEX
  8
FOREGROUND
  6
CONTINUOUS
 10
0.000000
 20
10.102400
  0
VERTEX
  8
FOREGROUND
  6
CONTINUOUS
 10
8.499920
 20
10.102400
  0
VERTEX
  8
FOREGROUND
  6
CONTINUOUS
 10
8.499920
 20
-0.897600
  0
VERTEX
  8
FOREGROUND
  6
CONTINUOUS
 10
0.000000
 20
-0.897600
  0
VERTEX
  8
FOREGROUND
  6
CONTINUOUS
 10
0.000000
 20
10.102400
  0
SEQEND
  8
0
  0
POLYLINE
  8
0
  6
CONTINUOUS
 66
     1
 40
0.014080
 41
0.014080
  0
VERTEX
  8
0
  6
CONTINUOUS
 10
7.674040
 20
8.389480
  0
VERTEX
  8
0
  6
CONTINUOUS
 10
7.670080
 20
8.431720
  0
VERTEX
  8
0
  6
CONTINUOUS
 10
7.657760
 20
8.511360
  0
VERTEX
  8
0
  6
CONTINUOUS
 10
7.649840
 20
8.549640
  0
VERTEX
  8
0
  6
CONTINUOUS
 10
7.629600
 20
8.621360
  0
VERTEX
  8
0
  6
CONTINUOUS
 10
7.618160
 20
8.655680
  0
VERTEX
  8
0
  6
CONTINUOUS
 10
7.591320
 20
8.719920
  0
VERTEX
  8
0
  6
CONTINUOUS
 10
7.560520
 20
8.778880
  0
VERTEX
  8
0
  6
CONTINUOUS
 10
7.525760
 20
8.833440
  0
VERTEX
  8
0
  6
CONTINUOUS
 10
7.487040
 20
8.882720
  0
VERTEX
  8
0
  6
CONTINUOUS
 10
7.445680
 20
8.927600
  0
VERTEX
  8
0
  6
CONTINUOUS
 10
7.400800
 20
8.967640
  0
VERTEX
  8
0
  6
CONTINUOUS
 10
7.353720
 20
9.003280
  0
VERTEX
  8
0
  6
CONTINUOUS
 10
7.304440
 20
9.034520
  0
VERTEX
  8
0
  6
CONTINUOUS
 10
7.252960
 20
9.061360
  0
VERTEX
  8
0
  6
CONTINUOUS
 10
7.199720
 20
9.083800
  0
VERTEX
  8
0
  6
CONTINUOUS
 10
7.145600
 20
9.102720
  0
VERTEX
  8
0
  6
CONTINUOUS
 10
7.090160
 20
9.117240
  0
VERTEX
  8
0
  6
CONTINUOUS
 10
7.033840
 20
9.127800
  0
VERTEX
  8
0
  6
CONTINUOUS
 10
6.977520
 20
9.134840
  0
VERTEX
  8
0
  6
CONTINUOUS
 10
6.920760
 20
9.137920
  0
VERTEX
  8
0
  6
CONTINUOUS
 10
6.892600
 20
9.138360
  0
VERTEX
  8
0
  6
CONTINUOUS
 10
6.836720
 20
9.136160
  0
VERTEX
  8
0
  6
CONTINUOUS
 10
6.781720
 20
9.130440
  0
VERTEX
  8
0
  6
CONTINUOUS
 10
6.727160
 20
9.121640
  0
VERTEX
  8
0
  6
CONTINUOUS
 10
6.674360
 20
9.109760
  0
VERTEX
  8
0
  6
CONTINUOUS
 10
6.623320
 20
9.094800
  0
VERTEX
  8
0
  6
CONTINUOUS
 10
6.550720
 20
9.066200
  0
VERTEX
  8
0
  6
CONTINUOUS
 10
6.505400
 20
9.043760
  0
VERTEX
  8
0
  6
CONTINUOUS
 10
6.462720
 20
9.018680
  0
VERTEX
  8
0
  6
CONTINUOUS
 10
6.423120
 20
8.990960
  0
VERTEX
  8
0
  6
CONTINUOUS
 10
6.387040
 20
8.960600
  0
VERTEX
  8
0
  6
CONTINUOUS
 10
6.354920
 20
8.927600
  0
VERTEX
  8
0
  6
CONTINUOUS
 10
6.326760
 20
8.892840
  0
VERTEX
  8
0
  6
CONTINUOUS
 10
6.314440
 20
8.874360
  0
VERTEX
  8
0
  6
CONTINUOUS
 10
5.880600
 20
8.874360
  0
VERTEX
  8
0
  6
CONTINUOUS
 10
5.880600
 20
9.163440
  0
VERTEX
  8
0
  6
CONTINUOUS
 10
2.434080
 20
9.163440
  0
VERTEX
  8
0
  6
CONTINUOUS
 10
2.432760
 20
9.166520
  0
VERTEX
  8
0
  6
CONTINUOUS
 10
2.432760
 20
7.619480
  0
VERTEX
  8
0
  6
CONTINUOUS
 10
5.879280
 20
7.619480
  0
VERTEX
  8
0
  6
CONTINUOUS
 10
5.879280
 20
7.908560
  0
VERTEX
  8
0
  6
CONTINUOUS
 10
6.313120
 20
7.908560
  0
VERTEX
  8
0
  6
CONTINUOUS
 10
6.339080
 20
7.872480
  0
VERTEX
  8
0
  6
CONTINUOUS
 10
6.369440
 20
7.838600
  0
VERTEX
  8
0
  6
CONTINUOUS
 10
6.403760
 20
7.806920
  0
VERTEX
  8
0
  6
CONTINUOUS
 10
6.441160
 20
7.777880
  0
VERTEX
  8
0
  6
CONTINUOUS
 10
6.482520
 20
7.751480
  0
VERTEX
  8
0
  6
CONTINUOUS
 10
6.526520
 20
7.727280
  0
VERTEX
  8
0
  6
CONTINUOUS
 10
6.597360
 20
7.696920
  0
VERTEX
  8
0
  6
CONTINUOUS
 10
6.647520
 20
7.680200
  0
VERTEX
  8
0
  6
CONTINUOUS
 10
6.699440
 20
7.666560
  0
VERTEX
  8
0
  6
CONTINUOUS
 10
6.753120
 20
7.656440
  0
VERTEX
  8
0
  6
CONTINUOUS
 10
6.808120
 20
7.648960
  0
VERTEX
  8
0
  6
CONTINUOUS
 10
6.863560
 20
7.645440
  0
VERTEX
  8
0
  6
CONTINUOUS
 10
6.919880
 20
7.645000
  0
VERTEX
  8
0
  6
CONTINUOUS
 10
6.976200
 20
7.648080
  0
VERTEX
  8
0
  6
CONTINUOUS
 10
7.032960
 20
7.655120
  0
VERTEX
  8
0
  6
CONTINUOUS
 10
7.088840
 20
7.665680
  0
VERTEX
  8
0
  6
CONTINUOUS
 10
7.144280
 20
7.680200
  0
VERTEX
  8
0
  6
CONTINUOUS
 10
7.198840
 20
7.699120
  0
VERTEX
  8
0
  6
CONTINUOUS
 10
7.251640
 20
7.721560
  0
VERTEX
  8
0
  6
CONTINUOUS
 10
7.303120
 20
7.748400
  0
VERTEX
  8
0
  6
CONTINUOUS
 10
7.352840
 20
7.779640
  0
VERTEX
  8
0
  6
CONTINUOUS
 10
7.399920
 20
7.815280
  0
VERTEX
  8
0
  6
CONTINUOUS
 10
7.444360
 20
7.855320
  0
VERTEX
  8
0
  6
CONTINUOUS
 10
7.486160
 20
7.900200
  0
VERTEX
  8
0
  6
CONTINUOUS
 10
7.524440
 20
7.949480
  0
VERTEX
  8
0
  6
CONTINUOUS
 10
7.542480
 20
7.975880
  0
VERTEX
  8
0
  6
CONTINUOUS
 10
7.575480
 20
8.032640
  0
VERTEX
  8
0
  6
CONTINUOUS
 10
7.604080
 20
8.094680
  0
VERTEX
  8
0
  6
CONTINUOUS
 10
7.617280
 20
8.127240
  0
VERTEX
  8
0
  6
CONTINUOUS
 10
7.639280
 20
8.196760
  0
VERTEX
  8
0
  6
CONTINUOUS
 10
7.656880
 20
8.271560
  0
VERTEX
  8
0
  6
CONTINUOUS
 10
7.669200
 20
8.351200
  0
VERTEX
  8
0
  6
CONTINUOUS
 10
7.673160
 20
8.393440
  0
VERTEX
  8
0
  6
CONTINUOUS
 10
7.674040
 20
8.389480
  0
SEQEND
  8
0
  0
SOLID
  8
0
 62
    15
 10
3.785760
 20
5.671160
 11
4.432560
 21
6.046920
 12
3.746600
 22
5.575680
 13
4.393400
 23
5.951000
  0
POLYLINE
  8
0
  6
CONTINUOUS
 66
     1
 40
0.000000
 41
0.000000
  0
VERTEX
  8
0
  6
CONTINUOUS
 10
3.785760
 20
5.671160
  0
VERTEX
  8
0
  6
CONTINUOUS
 10
4.432560
 20
6.046920
  0
VERTEX
  8
0
  6
CONTINUOUS
 10
4.393400
 20
5.951000
  0
VERTEX
  8
0
  6
CONTINUOUS
 10
3.746600
 20
5.575680
  0
VERTEX
  8
0
  6
CONTINUOUS
 10
3.785760
 20
5.671160
  0
SEQEND
  8
0
  0
SOLID
  8
0
 62
    15
 10
3.241040
 20
6.697680
 11
3.887400
 21
7.073000
 12
3.379640
 22
6.653240
 13
4.026440
 23
7.028560
  0
POLYLINE
  8
0
  6
CONTINUOUS
 66
     1
 40
0.000000
 41
0.000000
  0
VERTEX
  8
0
  6
CONTINUOUS
 10
3.241040
 20
6.697680
  0
VERTEX
  8
0
  6
CONTINUOUS
 10
3.887400
 20
7.073000
  0
VERTEX
  8
0
  6
CONTINUOUS
 10
4.026440
 20
7.028560
  0
VERTEX
  8
0
  6
CONTINUOUS
 10
3.379640
 20
6.653240
  0
VERTEX
  8
0
  6
CONTINUOUS
 10
3.241040
 20
6.697680
  0
SEQEND
  8
0
  0
SOLID
  8
0
 62
    15
 10
3.379640
 20
6.653240
 11
4.026440
 21
7.028560
 12
3.498000
 22
6.591200
 13
4.144800
 23
6.966960
  0
POLYLINE
  8
0
  6
CONTINUOUS
 66
     1
 40
0.000000
 41
0.000000
  0
VERTEX
  8
0
  6
CONTINUOUS
 10
3.379640
 20
6.653240
  0
VERTEX
  8
0
  6
CONTINUOUS
 10
4.026440
 20
7.028560
  0
VERTEX
  8
0
  6
CONTINUOUS
 10
4.144800
 20
6.966960
  0
VERTEX
  8
0
  6
CONTINUOUS
 10
3.498000
 20
6.591200
  0
VERTEX
  8
0
  6
CONTINUOUS
 10
3.379640
 20
6.653240
  0
SEQEND
  8
0
  0
SOLID
  8
0
 62
    15
 10
3.498000
 20
6.591200
 11
4.144800
 21
6.966960
 12
3.597000
 22
6.514640
 13
4.243800
 23
6.889960
  0
POLYLINE
  8
0
  6
CONTINUOUS
 66
     1
 40
0.000000
 41
0.000000
  0
VERTEX
  8
0
  6
CONTINUOUS
 10
3.498000
 20
6.591200
  0
VERTEX
  8
0
  6
CONTINUOUS
 10
4.144800
 20
6.966960
  0
VERTEX
  8
0
  6
CONTINUOUS
 10
4.243800
 20
6.889960
  0
VERTEX
  8
0
  6
CONTINUOUS
 10
3.597000
 20
6.514640
  0
VERTEX
  8
0
  6
CONTINUOUS
 10
3.498000
 20
6.591200
  0
SEQEND
  8
0
  0
SOLID
  8
0
 62
    15
 10
3.597000
 20
6.514640
 11
4.243800
 21
6.889960
 12
3.677080
 22
6.425760
 13
4.323880
 23
6.801080
  0
POLYLINE
  8
0
  6
CONTINUOUS
 66
     1
 40
0.000000
 41
0.000000
  0
VERTEX
  8
0
  6
CONTINUOUS
 10
3.597000
 20
6.514640
  0
VERTEX
  8
0
  6
CONTINUOUS
 10
4.243800
 20
6.889960
  0
VERTEX
  8
0
  6
CONTINUOUS
 10
4.323880
 20
6.801080
  0
VERTEX
  8
0
  6
CONTINUOUS
 10
3.677080
 20
6.425760
  0
VERTEX
  8
0
  6
CONTINUOUS
 10
3.597000
 20
6.514640
  0
SEQEND
  8
0
  0
SOLID
  8
0
 62
    15
 10
3.677080
 20
6.425760
 11
4.323880
 21
6.801080
 12
3.739560
 22
6.326760
 13
4.386360
 23
6.702080
  0
POLYLINE
  8
0
  6
CONTINUOUS
 66
     1
 40
0.000000
 41
0.000000
  0
VERTEX
  8
0
  6
CONTINUOUS
 10
3.677080
 20
6.425760
  0
VERTEX
  8
0
  6
CONTINUOUS
 10
4.323880
 20
6.801080
  0
VERTEX
  8
0
  6
CONTINUOUS
 10
4.386360
 20
6.702080
  0
VERTEX
  8
0
  6
CONTINUOUS
 10
3.739560
 20
6.326760
  0
VERTEX
  8
0
  6
CONTINUOUS
 10
3.677080
 20
6.425760
  0
SEQEND
  8
0
  0
SOLID
  8
0
 62
    15
 10
3.739560
 20
6.326760
 11
4.386360
 21
6.702080
 12
3.784880
 22
6.220720
 13
4.431680
 23
6.596040
  0
POLYLINE
  8
0
  6
CONTINUOUS
 66
     1
 40
0.000000
 41
0.000000
  0
VERTEX
  8
0
  6
CONTINUOUS
 10
3.739560
 20
6.326760
  0
VERTEX
  8
0
  6
CONTINUOUS
 10
4.386360
 20
6.702080
  0
VERTEX
  8
0
  6
CONTINUOUS
 10
4.431680
 20
6.596040
  0
VERTEX
  8
0
  6
CONTINUOUS
 10
3.784880
 20
6.220720
  0
VERTEX
  8
0
  6
CONTINUOUS
 10
3.739560
 20
6.326760
  0
SEQEND
  8
0
  0
SOLID
  8
0
 62
    15
 10
3.784880
 20
6.220720
 11
4.431680
 21
6.596040
 12
3.813920
 22
6.109840
 13
4.460720
 23
6.485600
  0
POLYLINE
  8
0
  6
CONTINUOUS
 66
     1
 40
0.000000
 41
0.000000
  0
VERTEX
  8
0
  6
CONTINUOUS
 10
3.784880
 20
6.220720
  0
VERTEX
  8
0
  6
CONTINUOUS
 10
4.431680
 20
6.596040
  0
VERTEX
  8
0
  6
CONTINUOUS
 10
4.460720
 20
6.485600
  0
VERTEX
  8
0
  6
CONTINUOUS
 10
3.813920
 20
6.109840
  0
VERTEX
  8
0
  6
CONTINUOUS
 10
3.784880
 20
6.220720
  0
SEQEND
  8
0
  0
SOLID
  8
0
 62
    15
 10
3.813920
 20
6.109840
 11
4.460720
 21
6.485600
 12
3.828000
 22
5.997200
 13
4.474360
 23
6.372520
  0
POLYLINE
  8
0
  6
CONTINUOUS
 66
     1
 40
0.000000
 41
0.000000
  0
VERTEX
  8
0
  6
CONTINUOUS
 10
3.813920
 20
6.109840
  0
VERTEX
  8
0
  6
CONTINUOUS
 10
4.460720
 20
6.485600
  0
VERTEX
  8
0
  6
CONTINUOUS
 10
4.474360
 20
6.372520
  0
VERTEX
  8
0
  6
CONTINUOUS
 10
3.828000
 20
5.997200
  0
VERTEX
  8
0
  6
CONTINUOUS
 10
3.813920
 20
6.109840
  0
SEQEND
  8
0
  0
SOLID
  8
0
 62
    15
 10
3.828000
 20
5.997200
 11
4.474360
 21
6.372520
 12
3.827120
 22
5.884560
 13
4.473920
 23
6.260320
  0
POLYLINE
  8
0
  6
CONTINUOUS
 66
     1
 40
0.000000
 41
0.000000
  0
VERTEX
  8
0
  6
CONTINUOUS
 10
3.828000
 20
5.997200
  0
VERTEX
  8
0
  6
CONTINUOUS
 10
4.474360
 20
6.372520
  0
VERTEX
  8
0
  6
CONTINUOUS
 10
4.473920
 20
6.260320
  0
VERTEX
  8
0
  6
CONTINUOUS
 10
3.827120
 20
5.884560
  0
VERTEX
  8
0
  6
CONTINUOUS
 10
3.828000
 20
5.997200
  0
SEQEND
  8
0
  0
SOLID
  8
0
 62
    15
 10
3.827120
 20
5.884560
 11
4.473920
 21
6.260320
 12
3.813040
 22
5.775440
 13
4.459400
 23
6.150760
  0
POLYLINE
  8
0
  6
CONTINUOUS
 66
     1
 40
0.000000
 41
0.000000
  0
VERTEX
  8
0
  6
CONTINUOUS
 10
3.827120
 20
5.884560
  0
VERTEX
  8
0
  6
CONTINUOUS
 10
4.473920
 20
6.260320
  0
VERTEX
  8
0
  6
CONTINUOUS
 10
4.459400
 20
6.150760
  0
VERTEX
  8
0
  6
CONTINUOUS
 10
3.813040
 20
5.775440
  0
VERTEX
  8
0
  6
CONTINUOUS
 10
3.827120
 20
5.884560
  0
SEQEND
  8
0
  0
SOLID
  8
0
 62
    15
 10
3.813040
 20
5.775440
 11
4.459400
 21
6.150760
 12
3.785760
 22
5.671160
 13
4.432560
 23
6.046920
  0
POLYLINE
  8
0
  6
CONTINUOUS
 66
     1
 40
0.000000
 41
0.000000
  0
VERTEX
  8
0
  6
CONTINUOUS
 10
3.813040
 20
5.775440
  0
VERTEX
  8
0
  6
CONTINUOUS
 10
4.459400
 20
6.150760
  0
VERTEX
  8
0
  6
CONTINUOUS
 10
4.432560
 20
6.046920
  0
VERTEX
  8
0
  6
CONTINUOUS
 10
3.785760
 20
5.671160
  0
VERTEX
  8
0
  6
CONTINUOUS
 10
3.813040
 20
5.775440
  0
SEQEND
  8
0
  0
SOLID
  8
0
 62
    15
 10
2.924240
 20
6.696360
 11
3.571040
 21
7.072120
 12
3.084400
 22
6.721000
 13
3.731200
 23
7.096320
  0
POLYLINE
  8
0
  6
CONTINUOUS
 66
     1
 40
0.000000
 41
0.000000
  0
VERTEX
  8
0
  6
CONTINUOUS
 10
2.924240
 20
6.696360
  0
VERTEX
  8
0
  6
CONTINUOUS
 10
3.571040
 20
7.072120
  0
VERTEX
  8
0
  6
CONTINUOUS
 10
3.731200
 20
7.096320
  0
VERTEX
  8
0
  6
CONTINUOUS
 10
3.084400
 20
6.721000
  0
VERTEX
  8
0
  6
CONTINUOUS
 10
2.924240
 20
6.696360
  0
SEQEND
  8
0
  0
SOLID
  8
0
 62
    15
 10
3.746600
 20
5.575680
 11
4.393400
 21
5.951000
 12
3.696440
 22
5.490320
 13
4.342800
 23
5.866080
  0
POLYLINE
  8
0
  6
CONTINUOUS
 66
     1
 40
0.000000
 41
0.000000
  0
VERTEX
  8
0
  6
CONTINUOUS
 10
3.746600
 20
5.575680
  0
VERTEX
  8
0
  6
CONTINUOUS
 10
4.393400
 20
5.951000
  0
VERTEX
  8
0
  6
CONTINUOUS
 10
4.342800
 20
5.866080
  0
VERTEX
  8
0
  6
CONTINUOUS
 10
3.696440
 20
5.490320
  0
VERTEX
  8
0
  6
CONTINUOUS
 10
3.746600
 20
5.575680
  0
SEQEND
  8
0
  0
SOLID
  8
0
 62
    15
 10
3.696440
 20
5.490320
 11
4.342800
 21
5.866080
 12
3.635720
 22
5.418600
 13
4.282080
 23
5.793920
  0
POLYLINE
  8
0
  6
CONTINUOUS
 66
     1
 40
0.000000
 41
0.000000
  0
VERTEX
  8
0
  6
CONTINUOUS
 10
3.696440
 20
5.490320
  0
VERTEX
  8
0
  6
CONTINUOUS
 10
4.342800
 20
5.866080
  0
VERTEX
  8
0
  6
CONTINUOUS
 10
4.282080
 20
5.793920
  0
VERTEX
  8
0
  6
CONTINUOUS
 10
3.635720
 20
5.418600
  0
VERTEX
  8
0
  6
CONTINUOUS
 10
3.696440
 20
5.490320
  0
SEQEND
  8
0
  0
SOLID
  8
0
 62
    15
 10
3.635720
 20
5.418600
 11
4.282080
 21
5.793920
 12
3.565320
 22
5.362280
 13
4.212120
 23
5.737600
  0
POLYLINE
  8
0
  6
CONTINUOUS
 66
     1
 40
0.000000
 41
0.000000
  0
VERTEX
  8
0
  6
CONTINUOUS
 10
3.635720
 20
5.418600
  0
VERTEX
  8
0
  6
CONTINUOUS
 10
4.282080
 20
5.793920
  0
VERTEX
  8
0
  6
CONTINUOUS
 10
4.212120
 20
5.737600
  0
VERTEX
  8
0
  6
CONTINUOUS
 10
3.565320
 20
5.362280
  0
VERTEX
  8
0
  6
CONTINUOUS
 10
3.635720
 20
5.418600
  0
SEQEND
  8
0
  0
SOLID
  8
0
 62
    15
 10
3.565320
 20
5.362280
 11
4.212120
 21
5.737600
 12
3.565320
 22
4.928000
 13
4.212120
 23
5.303760
  0
POLYLINE
  8
0
  6
CONTINUOUS
 66
     1
 40
0.000000
 41
0.000000
  0
VERTEX
  8
0
  6
CONTINUOUS
 10
3.565320
 20
5.362280
  0
VERTEX
  8
0
  6
CONTINUOUS
 10
4.212120
 20
5.737600
  0
VERTEX
  8
0
  6
CONTINUOUS
 10
4.212120
 20
5.303760
  0
VERTEX
  8
0
  6
CONTINUOUS
 10
3.565320
 20
4.928000
  0
VERTEX
  8
0
  6
CONTINUOUS
 10
3.565320
 20
5.362280
  0
SEQEND
  8
0
  0
SOLID
  8
0
 62
    15
 10
3.565320
 20
4.928000
 11
4.212120
 21
5.303760
 12
3.854840
 22
4.928000
 13
4.501200
 23
5.303760
  0
POLYLINE
  8
0
  6
CONTINUOUS
 66
     1
 40
0.000000
 41
0.000000
  0
VERTEX
  8
0
  6
CONTINUOUS
 10
3.565320
 20
4.928000
  0
VERTEX
  8
0
  6
CONTINUOUS
 10
4.212120
 20
5.303760
  0
VERTEX
  8
0
  6
CONTINUOUS
 10
4.501200
 20
5.303760
  0
VERTEX
  8
0
  6
CONTINUOUS
 10
3.854840
 20
4.928000
  0
VERTEX
  8
0
  6
CONTINUOUS
 10
3.565320
 20
4.928000
  0
SEQEND
  8
0
  0
SOLID
  8
0
 62
    15
 10
3.854840
 20
4.928000
 11
4.501200
 21
5.303760
 12
3.854840
 22
1.481920
 13
4.501200
 23
1.857240
  0
POLYLINE
  8
0
  6
CONTINUOUS
 66
     1
 40
0.000000
 41
0.000000
  0
VERTEX
  8
0
  6
CONTINUOUS
 10
3.854840
 20
4.928000
  0
VERTEX
  8
0
  6
CONTINUOUS
 10
4.501200
 20
5.303760
  0
VERTEX
  8
0
  6
CONTINUOUS
 10
4.501200
 20
1.857240
  0
VERTEX
  8
0
  6
CONTINUOUS
 10
3.854840
 20
1.481920
  0
VERTEX
  8
0
  6
CONTINUOUS
 10
3.854840
 20
4.928000
  0
SEQEND
  8
0
  0
SOLID
  8
0
 62
    15
 10
3.854840
 20
1.481920
 11
4.501200
 21
1.857240
 12
3.857920
 22
1.480600
 13
4.504280
 23
1.856360
  0
POLYLINE
  8
0
  6
CONTINUOUS
 66
     1
 40
0.000000
 41
0.000000
  0
VERTEX
  8
0
  6
CONTINUOUS
 10
3.854840
 20
1.481920
  0
VERTEX
  8
0
  6
CONTINUOUS
 10
4.501200
 20
1.857240
  0
VERTEX
  8
0
  6
CONTINUOUS
 10
4.504280
 20
1.856360
  0
VERTEX
  8
0
  6
CONTINUOUS
 10
3.857920
 20
1.480600
  0
VERTEX
  8
0
  6
CONTINUOUS
 10
3.854840
 20
1.481920
  0
SEQEND
  8
0
  0
SOLID
  8
0
 62
    15
 10
2.310440
 20
4.927120
 11
2.957240
 21
5.302440
 12
2.599960
 22
4.927120
 13
3.246320
 23
5.302440
  0
POLYLINE
  8
0
  6
CONTINUOUS
 66
     1
 40
0.000000
 41
0.000000
  0
VERTEX
  8
0
  6
CONTINUOUS
 10
2.310440
 20
4.927120
  0
VERTEX
  8
0
  6
CONTINUOUS
 10
2.957240
 20
5.302440
  0
VERTEX
  8
0
  6
CONTINUOUS
 10
3.246320
 20
5.302440
  0
VERTEX
  8
0
  6
CONTINUOUS
 10
2.599960
 20
4.927120
  0
VERTEX
  8
0
  6
CONTINUOUS
 10
2.310440
 20
4.927120
  0
SEQEND
  8
0
  0
SOLID
  8
0
 62
    15
 10
2.667280
 20
6.590320
 11
3.313640
 21
6.965640
 12
2.785640
 22
6.651920
 13
3.432000
 23
7.027680
  0
POLYLINE
  8
0
  6
CONTINUOUS
 66
     1
 40
0.000000
 41
0.000000
  0
VERTEX
  8
0
  6
CONTINUOUS
 10
2.667280
 20
6.590320
  0
VERTEX
  8
0
  6
CONTINUOUS
 10
3.313640
 20
6.965640
  0
VERTEX
  8
0
  6
CONTINUOUS
 10
3.432000
 20
7.027680
  0
VERTEX
  8
0
  6
CONTINUOUS
 10
2.785640
 20
6.651920
  0
VERTEX
  8
0
  6
CONTINUOUS
 10
2.667280
 20
6.590320
  0
SEQEND
  8
0
  0
SOLID
  8
0
 62
    15
 10
2.785640
 20
6.651920
 11
3.432000
 21
7.027680
 12
2.924240
 22
6.696360
 13
3.571040
 23
7.072120
  0
POLYLINE
  8
0
  6
CONTINUOUS
 66
     1
 40
0.000000
 41
0.000000
  0
VERTEX
  8
0
  6
CONTINUOUS
 10
2.785640
 20
6.651920
  0
VERTEX
  8
0
  6
CONTINUOUS
 10
3.432000
 20
7.027680
  0
VERTEX
  8
0
  6
CONTINUOUS
 10
3.571040
 20
7.072120
  0
VERTEX
  8
0
  6
CONTINUOUS
 10
2.924240
 20
6.696360
  0
VERTEX
  8
0
  6
CONTINUOUS
 10
2.785640
 20
6.651920
  0
SEQEND
  8
0
  0
SOLID
  8
0
 62
    15
 10
3.080880
 20
6.721880
 11
3.727680
 21
7.097640
 12
3.241040
 22
6.697680
 13
3.887400
 23
7.073000
  0
POLYLINE
  8
0
  6
CONTINUOUS
 66
     1
 40
0.000000
 41
0.000000
  0
VERTEX
  8
0
  6
CONTINUOUS
 10
3.080880
 20
6.721880
  0
VERTEX
  8
0
  6
CONTINUOUS
 10
3.727680
 20
7.097640
  0
VERTEX
  8
0
  6
CONTINUOUS
 10
3.887400
 20
7.073000
  0
VERTEX
  8
0
  6
CONTINUOUS
 10
3.241040
 20
6.697680
  0
VERTEX
  8
0
  6
CONTINUOUS
 10
3.080880
 20
6.721880
  0
SEQEND
  8
0
  0
POLYLINE
  8
0
  6
CONTINUOUS
 66
     1
 40
0.000000
 41
0.000000
  0
VERTEX
  8
0
  6
CONTINUOUS
 10
3.080880
 20
6.721880
  0
VERTEX
  8
0
  6
CONTINUOUS
 10
3.241040
 20
6.697680
  0
VERTEX
  8
0
  6
CONTINUOUS
 10
3.379640
 20
6.653240
  0
VERTEX
  8
0
  6
CONTINUOUS
 10
3.498000
 20
6.591200
  0
VERTEX
  8
0
  6
CONTINUOUS
 10
3.597000
 20
6.514640
  0
VERTEX
  8
0
  6
CONTINUOUS
 10
3.677080
 20
6.425760
  0
VERTEX
  8
0
  6
CONTINUOUS
 10
3.739560
 20
6.326760
  0
VERTEX
  8
0
  6
CONTINUOUS
 10
3.784880
 20
6.220720
  0
VERTEX
  8
0
  6
CONTINUOUS
 10
3.813920
 20
6.109840
  0
VERTEX
  8
0
  6
CONTINUOUS
 10
3.828000
 20
5.997200
  0
VERTEX
  8
0
  6
CONTINUOUS
 10
3.827120
 20
5.884560
  0
VERTEX
  8
0
  6
CONTINUOUS
 10
3.813040
 20
5.775440
  0
VERTEX
  8
0
  6
CONTINUOUS
 10
3.785760
 20
5.671160
  0
VERTEX
  8
0
  6
CONTINUOUS
 10
3.746600
 20
5.575680
  0
VERTEX
  8
0
  6
CONTINUOUS
 10
3.696440
 20
5.490320
  0
VERTEX
  8
0
  6
CONTINUOUS
 10
3.635720
 20
5.418600
  0
VERTEX
  8
0
  6
CONTINUOUS
 10
3.565320
 20
5.362280
  0
VERTEX
  8
0
  6
CONTINUOUS
 10
3.565320
 20
4.928000
  0
VERTEX
  8
0
  6
CONTINUOUS
 10
3.854840
 20
4.928000
  0
VERTEX
  8
0
  6
CONTINUOUS
 10
3.854840
 20
1.481920
  0
VERTEX
  8
0
  6
CONTINUOUS
 10
3.857920
 20
1.480600
  0
VERTEX
  8
0
  6
CONTINUOUS
 10
2.310440
 20
1.480600
  0
VERTEX
  8
0
  6
CONTINUOUS
 10
2.310440
 20
4.927120
  0
VERTEX
  8
0
  6
CONTINUOUS
 10
2.599960
 20
4.927120
  0
VERTEX
  8
0
  6
CONTINUOUS
 10
2.599960
 20
5.360960
  0
VERTEX
  8
0
  6
CONTINUOUS
 10
2.529560
 20
5.417280
  0
VERTEX
  8
0
  6
CONTINUOUS
 10
2.468840
 20
5.489440
  0
VERTEX
  8
0
  6
CONTINUOUS
 10
2.418680
 20
5.574360
  0
VERTEX
  8
0
  6
CONTINUOUS
 10
2.379520
 20
5.670280
  0
VERTEX
  8
0
  6
CONTINUOUS
 10
2.352240
 20
5.774120
  0
VERTEX
  8
0
  6
CONTINUOUS
 10
2.338160
 20
5.883680
  0
VERTEX
  8
0
  6
CONTINUOUS
 10
2.337280
 20
5.995880
  0
VERTEX
  8
0
  6
CONTINUOUS
 10
2.351360
 20
6.108960
  0
VERTEX
  8
0
  6
CONTINUOUS
 10
2.380400
 20
6.219400
  0
VERTEX
  8
0
  6
CONTINUOUS
 10
2.425720
 20
6.325440
  0
VERTEX
  8
0
  6
CONTINUOUS
 10
2.488200
 20
6.424440
  0
VERTEX
  8
0
  6
CONTINUOUS
 10
2.568280
 20
6.513320
  0
VERTEX
  8
0
  6
CONTINUOUS
 10
2.667280
 20
6.590320
  0
VERTEX
  8
0
  6
CONTINUOUS
 10
2.785640
 20
6.651920
  0
VERTEX
  8
0
  6
CONTINUOUS
 10
2.924240
 20
6.696360
  0
VERTEX
  8
0
  6
CONTINUOUS
 10
3.084400
 20
6.721000
  0
VERTEX
  8
0
  6
CONTINUOUS
 10
3.080880
 20
6.721880
  0
SEQEND
  8
0
  0
TEXT
  8
0
 10
3.065920
 20
1.174360
 40
0.138236
  1
BA  1163
 41
1.000000
  7
SN0
 71
     0
 72
     5
 11
3.747806
 21
1.174360
  0
TEXT
  8
0
 10
2.882440
 20
0.982960
 40
0.138236
  1
1-1/2" x 5-1/4"
 41
1.000000
  7
SN0
 71
     0
 72
     5
 11
3.929785
 21
0.982960
  0
TEXT
  8
0
 10
3.072520
 20
8.115800
 40
0.138236
  1
BA  1163
 41
1.000000
  7
SN0
 71
     0
 72
     5
 11
3.754406
 21
8.115800
  0
TEXT
  8
0
 10
2.889040
 20
7.924400
 40
0.138236
  1
1-1/2" x 5-1/4"
 41
1.000000
  7
SN0
 71
     0
 72
     5
 11
3.936385
 21
7.924400
  0
ENDSEC
  0
EOF
