  0
SECTION
  2
HEADER
  9
$ACADVER
  1
AC1006
  9
$EXTMIN
 10
2.227280
 20
1.366640
  9
$EXTMAX
 10
6.458760
 20
7.811760
  9
$LTSCALE
 40
0.044000
  9
$PDMODE
 70
    35
  9
$PDSIZE
 40
0.035200
  0
ENDSEC
  0
SECTION
  2
TABLES
  0
TABLE
  2
LTYPE
 70
     9
  0
LTYPE
  2
CONTINUOUS
 70
    64
  3
Solid line
 72
    65
 73
     0
 40
0.000000
  0
LTYPE
  2
DASHED
 70
    64
  3
__ __ __ __ __ __ __ __ __ __ __ __ __ __ __
 72
    65
 73
     2
 40
0.000330
 49
0.000220
 49
-0.000110
  0
LTYPE
  2
HIDDEN
 70
    64
  3
 _ _ _ _ _ _ _ _ _ _ _ _ _ _ _ _ _ _ _ _ _ _
 72
    65
 73
     2
 40
0.000165
 49
0.000110
 49
-0.000055
  0
LTYPE
  2
CENTER
 70
    64
  3
____ _ ____ _ ____ _ ____ _ ____ _ ____ _ ____
 72
    65
 73
     4
 40
0.000880
 49
0.000550
 49
-0.000110
 49
0.000110
 49
-0.000110
  0
LTYPE
  2
PHANTOM
 70
    64
  3
_____ _ _ _____ _ _ _____ _ _ _____ _ _ ____
 72
    65
 73
     6
 40
0.001100
 49
0.000550
 49
-0.000110
 49
0.000110
 49
-0.000110
 49
0.000110
 49
-0.000110
  0
LTYPE
  2
DOT
 70
    64
  3
...............................................
 72
    65
 73
     2
 40
0.000110
 49
0.000000
 49
-0.000110
  0
LTYPE
  2
DASHDOT
 70
    64
  3
__ . __ . __ . __ . __ . __ . __ . __ . __ . __
 72
    65
 73
     4
 40
0.000440
 49
0.000220
 49
-0.000110
 49
0.000000
 49
-0.000110
  0
LTYPE
  2
BORDER
 70
    64
  3
__ __ . __ __ . __ __ . __ __ . __ __ . __ __
 72
    65
 73
     6
 40
0.000770
 49
0.000220
 49
-0.000110
 49
0.000220
 49
-0.000110
 49
0.000000
 49
-0.000110
  0
LTYPE
  2
DIVIDE
 70
    64
  3
__ . . __ . . __ . . __ . . __ . . __ . . __
 72
    65
 73
     6
 40
0.000550
 49
0.000220
 49
-0.000110
 49
0.000000
 49
-0.000110
 49
0.000000
 49
-0.000110
  0
LTYPE
  2
DOTDOT
 70
    64
  3
 . .  . .  . .  . .  . .  . . 
 72
    65
 73
     5
 40
0.000242
 49
-0.000110
 49
0.000000
 49
-0.000110
 49
0.000000
 49
-0.000110
  0
ENDTAB
  0
TABLE
  2
STYLE
 70
     2
  0
STYLE
 70
     0
  2
SN0
 40
0.000000
 41
0.000440
 50
0.000000
 71
     0
 42
0.000000
  3
ROMAND
  0
STYLE
 70
    68
  2
SV0
 40
0.000000
 41
0.000440
 50
0.000000
 71
     0
 42
0.000000
  3
ROMAND
  0
ENDTAB
  0
TABLE
  2
LAYER
 70
     3
  0
LAYER
  2
FOREGROUND
 70
    64
 62
     7
  6
CONTINUOUS
  0
LAYER
  2
BACKGROUND
 70
    65
 62
    -7
  6
CONTINUOUS
  0
LAYER
  2
0
 70
    64
 62
     7
  6
CONTINUOUS
  0
ENDTAB
  0
ENDSEC
  0
SECTION
  2
ENTITIES
  0
POLYLINE
  8
FOREGROUND
  6
CONTINUOUS
 66
     1
 40
0.000000
 41
0.000000
  0
VERTEX
  8
FOREGROUND
  6
CONTINUOUS
 10
0.000000
 20
9.178400
  0
VERTEX
  8
FOREGROUND
  6
CONTINUOUS
 10
8.499920
 20
9.178400
  0
VERTEX
  8
FOREGROUND
  6
CONTINUOUS
 10
8.499920
 20
-1.821600
  0
VERTEX
  8
FOREGROUND
  6
CONTINUOUS
 10
0.000000
 20
-1.821600
  0
VERTEX
  8
FOREGROUND
  6
CONTINUOUS
 10
0.000000
 20
9.178400
  0
SEQEND
  8
0
  0
POLYLINE
  8
FOREGROUND
  6
CONTINUOUS
 66
     1
 40
0.000000
 41
0.000000
  0
VERTEX
  8
FOREGROUND
  6
CONTINUOUS
 10
0.000000
 20
9.178400
  0
VERTEX
  8
FOREGROUND
  6
CONTINUOUS
 10
8.499920
 20
9.178400
  0
VERTEX
  8
FOREGROUND
  6
CONTINUOUS
 10
8.499920
 20
-1.821600
  0
VERTEX
  8
FOREGROUND
  6
CONTINUOUS
 10
0.000000
 20
-1.821600
  0
VERTEX
  8
FOREGROUND
  6
CONTINUOUS
 10
0.000000
 20
9.178400
  0
SEQEND
  8
0
  0
POLYLINE
  8
0
  6
CONTINUOUS
 66
     1
 40
0.000000
 41
0.000000
  0
VERTEX
  8
0
  6
CONTINUOUS
 10
5.854640
 20
2.276560
  0
VERTEX
  8
0
  6
CONTINUOUS
 10
5.841440
 20
2.243120
  0
VERTEX
  8
0
  6
CONTINUOUS
 10
5.826480
 20
2.221120
  0
VERTEX
  8
0
  6
CONTINUOUS
 10
5.811520
 20
2.208360
  0
VERTEX
  8
0
  6
CONTINUOUS
 10
5.790840
 20
2.196920
  0
VERTEX
  8
0
  6
CONTINUOUS
 10
5.745960
 20
2.183280
  0
VERTEX
  8
0
  6
CONTINUOUS
 10
5.704600
 20
2.176680
  0
VERTEX
  8
0
  6
CONTINUOUS
 10
5.459960
 20
2.152480
  0
VERTEX
  8
0
  6
CONTINUOUS
 10
5.439720
 20
2.145000
  0
VERTEX
  8
0
  6
CONTINUOUS
 10
5.420360
 20
2.133560
  0
VERTEX
  8
0
  6
CONTINUOUS
 10
5.402760
 20
2.119040
  0
VERTEX
  8
0
  6
CONTINUOUS
 10
5.381200
 20
2.093080
  0
VERTEX
  8
0
  6
CONTINUOUS
 10
5.370640
 20
2.074600
  0
VERTEX
  8
0
  6
CONTINUOUS
 10
5.364480
 20
2.056120
  0
VERTEX
  8
0
  6
CONTINUOUS
 10
5.362720
 20
2.038960
  0
VERTEX
  8
0
  6
CONTINUOUS
 10
5.212240
 20
2.035880
  0
VERTEX
  8
0
  6
CONTINUOUS
 10
5.210040
 20
2.012560
  0
VERTEX
  8
0
  6
CONTINUOUS
 10
5.202560
 20
1.978240
  0
VERTEX
  8
0
  6
CONTINUOUS
 10
5.194640
 20
1.956680
  0
VERTEX
  8
0
  6
CONTINUOUS
 10
5.175720
 20
1.928960
  0
VERTEX
  8
0
  6
CONTINUOUS
 10
5.167360
 20
1.921040
  0
VERTEX
  8
0
  6
CONTINUOUS
 10
5.147120
 20
1.908280
  0
VERTEX
  8
0
  6
CONTINUOUS
 10
5.122040
 20
1.899480
  0
VERTEX
  8
0
  6
CONTINUOUS
 10
5.107520
 20
1.896840
  0
VERTEX
  8
0
  6
CONTINUOUS
 10
3.649360
 20
1.898160
  0
VERTEX
  8
0
  6
CONTINUOUS
 10
3.626920
 20
1.903440
  0
VERTEX
  8
0
  6
CONTINUOUS
 10
3.608000
 20
1.913120
  0
VERTEX
  8
0
  6
CONTINUOUS
 10
3.600080
 20
1.920600
  0
VERTEX
  8
0
  6
CONTINUOUS
 10
3.592160
 20
1.934240
  0
VERTEX
  8
0
  6
CONTINUOUS
 10
3.589080
 20
1.945680
  0
VERTEX
  8
0
  6
CONTINUOUS
 10
3.587320
 20
2.026200
  0
VERTEX
  8
0
  6
CONTINUOUS
 10
3.248520
 20
2.026200
  0
VERTEX
  8
0
  6
CONTINUOUS
 10
3.241480
 20
1.889360
  0
VERTEX
  8
0
  6
CONTINUOUS
 10
3.198800
 20
1.889360
  0
VERTEX
  8
0
  6
CONTINUOUS
 10
3.184280
 20
1.921920
  0
VERTEX
  8
0
  6
CONTINUOUS
 10
3.166680
 20
1.948760
  0
VERTEX
  8
0
  6
CONTINUOUS
 10
3.145560
 20
1.969880
  0
VERTEX
  8
0
  6
CONTINUOUS
 10
3.122680
 20
1.985280
  0
VERTEX
  8
0
  6
CONTINUOUS
 10
3.097600
 20
1.994960
  0
VERTEX
  8
0
  6
CONTINUOUS
 10
3.071200
 20
1.999360
  0
VERTEX
  8
0
  6
CONTINUOUS
 10
3.053160
 20
1.998920
  0
VERTEX
  8
0
  6
CONTINUOUS
 10
3.035120
 20
1.995840
  0
VERTEX
  8
0
  6
CONTINUOUS
 10
3.016640
 20
1.990560
  0
VERTEX
  8
0
  6
CONTINUOUS
 10
2.998600
 20
1.983080
  0
VERTEX
  8
0
  6
CONTINUOUS
 10
2.972200
 20
1.966800
  0
VERTEX
  8
0
  6
CONTINUOUS
 10
2.947120
 20
1.945240
  0
VERTEX
  8
0
  6
CONTINUOUS
 10
2.928640
 20
1.917080
  0
VERTEX
  8
0
  6
CONTINUOUS
 10
2.907960
 20
1.892440
  0
VERTEX
  8
0
  6
CONTINUOUS
 10
2.884640
 20
1.871320
  0
VERTEX
  8
0
  6
CONTINUOUS
 10
2.857360
 20
1.854160
  0
VERTEX
  8
0
  6
CONTINUOUS
 10
2.825680
 20
1.840960
  0
VERTEX
  8
0
  6
CONTINUOUS
 10
2.789600
 20
1.831280
  0
VERTEX
  8
0
  6
CONTINUOUS
 10
2.747800
 20
1.825120
  0
VERTEX
  8
0
  6
CONTINUOUS
 10
2.700280
 20
1.823360
  0
VERTEX
  8
0
  6
CONTINUOUS
 10
2.697200
 20
1.738000
  0
VERTEX
  8
0
  6
CONTINUOUS
 10
2.445080
 20
1.738000
  0
VERTEX
  8
0
  6
CONTINUOUS
 10
2.439360
 20
1.629320
  0
VERTEX
  8
0
  6
CONTINUOUS
 10
2.235200
 20
1.629320
  0
VERTEX
  8
0
  6
CONTINUOUS
 10
2.235200
 20
1.367080
  0
VERTEX
  8
0
  6
CONTINUOUS
 10
6.451280
 20
1.367080
  0
VERTEX
  8
0
  6
CONTINUOUS
 10
6.451280
 20
2.277880
  0
VERTEX
  8
0
  6
CONTINUOUS
 10
5.854640
 20
2.277880
  0
VERTEX
  8
0
  6
CONTINUOUS
 10
5.854640
 20
2.276560
  0
SEQEND
  8
0
  0
POLYLINE
  8
0
  6
CONTINUOUS
 66
     1
 40
0.000000
 41
0.000000
  0
VERTEX
  8
0
  6
CONTINUOUS
 10
2.831840
 20
3.710520
  0
VERTEX
  8
0
  6
CONTINUOUS
 10
2.845040
 20
3.677080
  0
VERTEX
  8
0
  6
CONTINUOUS
 10
2.854280
 20
3.662120
  0
VERTEX
  8
0
  6
CONTINUOUS
 10
2.867040
 20
3.648480
  0
VERTEX
  8
0
  6
CONTINUOUS
 10
2.884640
 20
3.636600
  0
VERTEX
  8
0
  6
CONTINUOUS
 10
2.908840
 20
3.626040
  0
VERTEX
  8
0
  6
CONTINUOUS
 10
2.940520
 20
3.617240
  0
VERTEX
  8
0
  6
CONTINUOUS
 10
2.981880
 20
3.610640
  0
VERTEX
  8
0
  6
CONTINUOUS
 10
3.226520
 20
3.586440
  0
VERTEX
  8
0
  6
CONTINUOUS
 10
3.246760
 20
3.578960
  0
VERTEX
  8
0
  6
CONTINUOUS
 10
3.274920
 20
3.560920
  0
VERTEX
  8
0
  6
CONTINUOUS
 10
3.291640
 20
3.545080
  0
VERTEX
  8
0
  6
CONTINUOUS
 10
3.311000
 20
3.518240
  0
VERTEX
  8
0
  6
CONTINUOUS
 10
3.319360
 20
3.499320
  0
VERTEX
  8
0
  6
CONTINUOUS
 10
3.323320
 20
3.481280
  0
VERTEX
  8
0
  6
CONTINUOUS
 10
3.323760
 20
3.472920
  0
VERTEX
  8
0
  6
CONTINUOUS
 10
3.474240
 20
3.469840
  0
VERTEX
  8
0
  6
CONTINUOUS
 10
3.476440
 20
3.446520
  0
VERTEX
  8
0
  6
CONTINUOUS
 10
3.483920
 20
3.412200
  0
VERTEX
  8
0
  6
CONTINUOUS
 10
3.491840
 20
3.390640
  0
VERTEX
  8
0
  6
CONTINUOUS
 10
3.510760
 20
3.362920
  0
VERTEX
  8
0
  6
CONTINUOUS
 10
3.528800
 20
3.348400
  0
VERTEX
  8
0
  6
CONTINUOUS
 10
3.551240
 20
3.337400
  0
VERTEX
  8
0
  6
CONTINUOUS
 10
3.578960
 20
3.331240
  0
VERTEX
  8
0
  6
CONTINUOUS
 10
5.037120
 20
3.332560
  0
VERTEX
  8
0
  6
CONTINUOUS
 10
5.059560
 20
3.337840
  0
VERTEX
  8
0
  6
CONTINUOUS
 10
5.078920
 20
3.347520
  0
VERTEX
  8
0
  6
CONTINUOUS
 10
5.086400
 20
3.354560
  0
VERTEX
  8
0
  6
CONTINUOUS
 10
5.094320
 20
3.368200
  0
VERTEX
  8
0
  6
CONTINUOUS
 10
5.097400
 20
3.379640
  0
VERTEX
  8
0
  6
CONTINUOUS
 10
5.099160
 20
3.460160
  0
VERTEX
  8
0
  6
CONTINUOUS
 10
5.437960
 20
3.460160
  0
VERTEX
  8
0
  6
CONTINUOUS
 10
5.445000
 20
3.323320
  0
VERTEX
  8
0
  6
CONTINUOUS
 10
5.487680
 20
3.323320
  0
VERTEX
  8
0
  6
CONTINUOUS
 10
5.502200
 20
3.355880
  0
VERTEX
  8
0
  6
CONTINUOUS
 10
5.519800
 20
3.382720
  0
VERTEX
  8
0
  6
CONTINUOUS
 10
5.540920
 20
3.403840
  0
VERTEX
  8
0
  6
CONTINUOUS
 10
5.563800
 20
3.419240
  0
VERTEX
  8
0
  6
CONTINUOUS
 10
5.588880
 20
3.428920
  0
VERTEX
  8
0
  6
CONTINUOUS
 10
5.615280
 20
3.433320
  0
VERTEX
  8
0
  6
CONTINUOUS
 10
5.633320
 20
3.432880
  0
VERTEX
  8
0
  6
CONTINUOUS
 10
5.651360
 20
3.429800
  0
VERTEX
  8
0
  6
CONTINUOUS
 10
5.669840
 20
3.424520
  0
VERTEX
  8
0
  6
CONTINUOUS
 10
5.687880
 20
3.417040
  0
VERTEX
  8
0
  6
CONTINUOUS
 10
5.714280
 20
3.400760
  0
VERTEX
  8
0
  6
CONTINUOUS
 10
5.739360
 20
3.379200
  0
VERTEX
  8
0
  6
CONTINUOUS
 10
5.757840
 20
3.351040
  0
VERTEX
  8
0
  6
CONTINUOUS
 10
5.778520
 20
3.326400
  0
VERTEX
  8
0
  6
CONTINUOUS
 10
5.801840
 20
3.305720
  0
VERTEX
  8
0
  6
CONTINUOUS
 10
5.829120
 20
3.288560
  0
VERTEX
  8
0
  6
CONTINUOUS
 10
5.860800
 20
3.274920
  0
VERTEX
  8
0
  6
CONTINUOUS
 10
5.896880
 20
3.265240
  0
VERTEX
  8
0
  6
CONTINUOUS
 10
5.938680
 20
3.259080
  0
VERTEX
  8
0
  6
CONTINUOUS
 10
5.986200
 20
3.257320
  0
VERTEX
  8
0
  6
CONTINUOUS
 10
5.989280
 20
3.171960
  0
VERTEX
  8
0
  6
CONTINUOUS
 10
6.241400
 20
3.171960
  0
VERTEX
  8
0
  6
CONTINUOUS
 10
6.247120
 20
3.063280
  0
VERTEX
  8
0
  6
CONTINUOUS
 10
6.451280
 20
3.063280
  0
VERTEX
  8
0
  6
CONTINUOUS
 10
6.451280
 20
2.801040
  0
VERTEX
  8
0
  6
CONTINUOUS
 10
2.235200
 20
2.801040
  0
VERTEX
  8
0
  6
CONTINUOUS
 10
2.235200
 20
3.711840
  0
VERTEX
  8
0
  6
CONTINUOUS
 10
2.831840
 20
3.711840
  0
VERTEX
  8
0
  6
CONTINUOUS
 10
2.831840
 20
3.710520
  0
SEQEND
  8
0
  0
SOLID
  8
0
 62
    15
 10
5.444560
 20
5.228520
 11
5.445440
 21
5.974320
 12
5.487240
 22
5.228520
 13
5.487680
 23
5.974320
  0
POLYLINE
  8
0
  6
CONTINUOUS
 66
     1
 40
0.000000
 41
0.000000
  0
VERTEX
  8
0
  6
CONTINUOUS
 10
5.444560
 20
5.228520
  0
VERTEX
  8
0
  6
CONTINUOUS
 10
5.445440
 20
5.974320
  0
VERTEX
  8
0
  6
CONTINUOUS
 10
5.487680
 20
5.974320
  0
VERTEX
  8
0
  6
CONTINUOUS
 10
5.487240
 20
5.228520
  0
VERTEX
  8
0
  6
CONTINUOUS
 10
5.444560
 20
5.228520
  0
SEQEND
  8
0
  0
SOLID
  8
0
 62
    15
 10
2.845040
 20
5.582280
 11
2.845480
 21
6.328520
 12
2.866600
 22
5.553680
 13
2.867480
 23
6.299920
  0
POLYLINE
  8
0
  6
CONTINUOUS
 66
     1
 40
0.000000
 41
0.000000
  0
VERTEX
  8
0
  6
CONTINUOUS
 10
2.845040
 20
5.582280
  0
VERTEX
  8
0
  6
CONTINUOUS
 10
2.845480
 20
6.328520
  0
VERTEX
  8
0
  6
CONTINUOUS
 10
2.867480
 20
6.299920
  0
VERTEX
  8
0
  6
CONTINUOUS
 10
2.866600
 20
5.553680
  0
VERTEX
  8
0
  6
CONTINUOUS
 10
2.845040
 20
5.582280
  0
SEQEND
  8
0
  0
SOLID
  8
0
 62
    15
 10
2.866600
 20
5.553680
 11
2.867480
 21
6.299920
 12
2.884200
 22
5.541800
 13
2.885080
 23
6.288040
  0
POLYLINE
  8
0
  6
CONTINUOUS
 66
     1
 40
0.000000
 41
0.000000
  0
VERTEX
  8
0
  6
CONTINUOUS
 10
2.866600
 20
5.553680
  0
VERTEX
  8
0
  6
CONTINUOUS
 10
2.867480
 20
6.299920
  0
VERTEX
  8
0
  6
CONTINUOUS
 10
2.885080
 20
6.288040
  0
VERTEX
  8
0
  6
CONTINUOUS
 10
2.884200
 20
5.541800
  0
VERTEX
  8
0
  6
CONTINUOUS
 10
2.866600
 20
5.553680
  0
SEQEND
  8
0
  0
SOLID
  8
0
 62
    15
 10
2.884200
 20
5.541800
 11
2.885080
 21
6.288040
 12
2.908400
 22
5.531240
 13
2.908840
 23
6.277480
  0
POLYLINE
  8
0
  6
CONTINUOUS
 66
     1
 40
0.000000
 41
0.000000
  0
VERTEX
  8
0
  6
CONTINUOUS
 10
2.884200
 20
5.541800
  0
VERTEX
  8
0
  6
CONTINUOUS
 10
2.885080
 20
6.288040
  0
VERTEX
  8
0
  6
CONTINUOUS
 10
2.908840
 20
6.277480
  0
VERTEX
  8
0
  6
CONTINUOUS
 10
2.908400
 20
5.531240
  0
VERTEX
  8
0
  6
CONTINUOUS
 10
2.884200
 20
5.541800
  0
SEQEND
  8
0
  0
SOLID
  8
0
 62
    15
 10
2.908400
 20
5.531240
 11
2.908840
 21
6.277480
 12
2.940520
 22
5.522880
 13
2.940960
 23
6.269120
  0
POLYLINE
  8
0
  6
CONTINUOUS
 66
     1
 40
0.000000
 41
0.000000
  0
VERTEX
  8
0
  6
CONTINUOUS
 10
2.908400
 20
5.531240
  0
VERTEX
  8
0
  6
CONTINUOUS
 10
2.908840
 20
6.277480
  0
VERTEX
  8
0
  6
CONTINUOUS
 10
2.940960
 20
6.269120
  0
VERTEX
  8
0
  6
CONTINUOUS
 10
2.940520
 20
5.522880
  0
VERTEX
  8
0
  6
CONTINUOUS
 10
2.908400
 20
5.531240
  0
SEQEND
  8
0
  0
SOLID
  8
0
 62
    15
 10
2.940520
 20
5.522880
 11
2.940960
 21
6.269120
 12
2.981440
 22
5.515840
 13
2.981880
 23
6.262080
  0
POLYLINE
  8
0
  6
CONTINUOUS
 66
     1
 40
0.000000
 41
0.000000
  0
VERTEX
  8
0
  6
CONTINUOUS
 10
2.940520
 20
5.522880
  0
VERTEX
  8
0
  6
CONTINUOUS
 10
2.940960
 20
6.269120
  0
VERTEX
  8
0
  6
CONTINUOUS
 10
2.981880
 20
6.262080
  0
VERTEX
  8
0
  6
CONTINUOUS
 10
2.981440
 20
5.515840
  0
VERTEX
  8
0
  6
CONTINUOUS
 10
2.940520
 20
5.522880
  0
SEQEND
  8
0
  0
SOLID
  8
0
 62
    15
 10
2.981440
 20
5.515840
 11
2.981880
 21
6.262080
 12
3.215960
 22
5.493400
 13
3.216400
 23
6.239640
  0
POLYLINE
  8
0
  6
CONTINUOUS
 66
     1
 40
0.000000
 41
0.000000
  0
VERTEX
  8
0
  6
CONTINUOUS
 10
2.981440
 20
5.515840
  0
VERTEX
  8
0
  6
CONTINUOUS
 10
2.981880
 20
6.262080
  0
VERTEX
  8
0
  6
CONTINUOUS
 10
3.216400
 20
6.239640
  0
VERTEX
  8
0
  6
CONTINUOUS
 10
3.215960
 20
5.493400
  0
VERTEX
  8
0
  6
CONTINUOUS
 10
2.981440
 20
5.515840
  0
SEQEND
  8
0
  0
SOLID
  8
0
 62
    15
 10
3.215960
 20
5.493400
 11
3.216400
 21
6.239640
 12
3.236640
 22
5.488560
 13
3.237080
 23
6.234800
  0
POLYLINE
  8
0
  6
CONTINUOUS
 66
     1
 40
0.000000
 41
0.000000
  0
VERTEX
  8
0
  6
CONTINUOUS
 10
3.215960
 20
5.493400
  0
VERTEX
  8
0
  6
CONTINUOUS
 10
3.216400
 20
6.239640
  0
VERTEX
  8
0
  6
CONTINUOUS
 10
3.237080
 20
6.234800
  0
VERTEX
  8
0
  6
CONTINUOUS
 10
3.236640
 20
5.488560
  0
VERTEX
  8
0
  6
CONTINUOUS
 10
3.215960
 20
5.493400
  0
SEQEND
  8
0
  0
SOLID
  8
0
 62
    15
 10
3.236640
 20
5.488560
 11
3.237080
 21
6.234800
 12
3.256440
 22
5.478880
 13
3.256880
 23
6.225120
  0
POLYLINE
  8
0
  6
CONTINUOUS
 66
     1
 40
0.000000
 41
0.000000
  0
VERTEX
  8
0
  6
CONTINUOUS
 10
3.236640
 20
5.488560
  0
VERTEX
  8
0
  6
CONTINUOUS
 10
3.237080
 20
6.234800
  0
VERTEX
  8
0
  6
CONTINUOUS
 10
3.256880
 20
6.225120
  0
VERTEX
  8
0
  6
CONTINUOUS
 10
3.256440
 20
5.478880
  0
VERTEX
  8
0
  6
CONTINUOUS
 10
3.236640
 20
5.488560
  0
SEQEND
  8
0
  0
SOLID
  8
0
 62
    15
 10
3.256440
 20
5.478880
 11
3.256880
 21
6.225120
 12
3.291200
 22
5.449840
 13
3.292080
 23
6.196080
  0
POLYLINE
  8
0
  6
CONTINUOUS
 66
     1
 40
0.000000
 41
0.000000
  0
VERTEX
  8
0
  6
CONTINUOUS
 10
3.256440
 20
5.478880
  0
VERTEX
  8
0
  6
CONTINUOUS
 10
3.256880
 20
6.225120
  0
VERTEX
  8
0
  6
CONTINUOUS
 10
3.292080
 20
6.196080
  0
VERTEX
  8
0
  6
CONTINUOUS
 10
3.291200
 20
5.449840
  0
VERTEX
  8
0
  6
CONTINUOUS
 10
3.256440
 20
5.478880
  0
SEQEND
  8
0
  0
SOLID
  8
0
 62
    15
 10
3.291200
 20
5.449840
 11
3.292080
 21
6.196080
 12
3.315400
 22
5.413760
 13
3.316280
 23
6.160000
  0
POLYLINE
  8
0
  6
CONTINUOUS
 66
     1
 40
0.000000
 41
0.000000
  0
VERTEX
  8
0
  6
CONTINUOUS
 10
3.291200
 20
5.449840
  0
VERTEX
  8
0
  6
CONTINUOUS
 10
3.292080
 20
6.196080
  0
VERTEX
  8
0
  6
CONTINUOUS
 10
3.316280
 20
6.160000
  0
VERTEX
  8
0
  6
CONTINUOUS
 10
3.315400
 20
5.413760
  0
VERTEX
  8
0
  6
CONTINUOUS
 10
3.291200
 20
5.449840
  0
SEQEND
  8
0
  0
SOLID
  8
0
 62
    15
 10
3.315400
 20
5.413760
 11
3.316280
 21
6.160000
 12
3.322000
 22
5.395720
 13
3.322440
 23
6.141520
  0
POLYLINE
  8
0
  6
CONTINUOUS
 66
     1
 40
0.000000
 41
0.000000
  0
VERTEX
  8
0
  6
CONTINUOUS
 10
3.315400
 20
5.413760
  0
VERTEX
  8
0
  6
CONTINUOUS
 10
3.316280
 20
6.160000
  0
VERTEX
  8
0
  6
CONTINUOUS
 10
3.322440
 20
6.141520
  0
VERTEX
  8
0
  6
CONTINUOUS
 10
3.322000
 20
5.395720
  0
VERTEX
  8
0
  6
CONTINUOUS
 10
3.315400
 20
5.413760
  0
SEQEND
  8
0
  0
SOLID
  8
0
 62
    15
 10
3.322000
 20
5.395720
 11
3.322440
 21
6.141520
 12
3.323760
 22
5.378120
 13
3.324200
 23
6.124360
  0
POLYLINE
  8
0
  6
CONTINUOUS
 66
     1
 40
0.000000
 41
0.000000
  0
VERTEX
  8
0
  6
CONTINUOUS
 10
3.322000
 20
5.395720
  0
VERTEX
  8
0
  6
CONTINUOUS
 10
3.322440
 20
6.141520
  0
VERTEX
  8
0
  6
CONTINUOUS
 10
3.324200
 20
6.124360
  0
VERTEX
  8
0
  6
CONTINUOUS
 10
3.323760
 20
5.378120
  0
VERTEX
  8
0
  6
CONTINUOUS
 10
3.322000
 20
5.395720
  0
SEQEND
  8
0
  0
SOLID
  8
0
 62
    15
 10
3.323760
 20
5.378120
 11
3.324200
 21
6.124360
 12
3.473800
 22
5.375040
 13
3.474240
 23
6.121280
  0
POLYLINE
  8
0
  6
CONTINUOUS
 66
     1
 40
0.000000
 41
0.000000
  0
VERTEX
  8
0
  6
CONTINUOUS
 10
3.323760
 20
5.378120
  0
VERTEX
  8
0
  6
CONTINUOUS
 10
3.324200
 20
6.124360
  0
VERTEX
  8
0
  6
CONTINUOUS
 10
3.474240
 20
6.121280
  0
VERTEX
  8
0
  6
CONTINUOUS
 10
3.473800
 20
5.375040
  0
VERTEX
  8
0
  6
CONTINUOUS
 10
3.323760
 20
5.378120
  0
SEQEND
  8
0
  0
SOLID
  8
0
 62
    15
 10
3.473800
 20
5.375040
 11
3.474240
 21
6.121280
 12
3.480400
 22
5.328400
 13
3.480840
 23
6.074640
  0
POLYLINE
  8
0
  6
CONTINUOUS
 66
     1
 40
0.000000
 41
0.000000
  0
VERTEX
  8
0
  6
CONTINUOUS
 10
3.473800
 20
5.375040
  0
VERTEX
  8
0
  6
CONTINUOUS
 10
3.474240
 20
6.121280
  0
VERTEX
  8
0
  6
CONTINUOUS
 10
3.480840
 20
6.074640
  0
VERTEX
  8
0
  6
CONTINUOUS
 10
3.480400
 20
5.328400
  0
VERTEX
  8
0
  6
CONTINUOUS
 10
3.473800
 20
5.375040
  0
SEQEND
  8
0
  0
SOLID
  8
0
 62
    15
 10
3.480400
 20
5.328400
 11
3.480840
 21
6.074640
 12
3.497120
 22
5.285720
 13
3.497560
 23
6.031960
  0
POLYLINE
  8
0
  6
CONTINUOUS
 66
     1
 40
0.000000
 41
0.000000
  0
VERTEX
  8
0
  6
CONTINUOUS
 10
3.480400
 20
5.328400
  0
VERTEX
  8
0
  6
CONTINUOUS
 10
3.480840
 20
6.074640
  0
VERTEX
  8
0
  6
CONTINUOUS
 10
3.497560
 20
6.031960
  0
VERTEX
  8
0
  6
CONTINUOUS
 10
3.497120
 20
5.285720
  0
VERTEX
  8
0
  6
CONTINUOUS
 10
3.480400
 20
5.328400
  0
SEQEND
  8
0
  0
SOLID
  8
0
 62
    15
 10
3.497120
 20
5.285720
 11
3.497560
 21
6.031960
 12
3.510760
 22
5.268120
 13
3.511200
 23
6.014360
  0
POLYLINE
  8
0
  6
CONTINUOUS
 66
     1
 40
0.000000
 41
0.000000
  0
VERTEX
  8
0
  6
CONTINUOUS
 10
3.497120
 20
5.285720
  0
VERTEX
  8
0
  6
CONTINUOUS
 10
3.497560
 20
6.031960
  0
VERTEX
  8
0
  6
CONTINUOUS
 10
3.511200
 20
6.014360
  0
VERTEX
  8
0
  6
CONTINUOUS
 10
3.510760
 20
5.268120
  0
VERTEX
  8
0
  6
CONTINUOUS
 10
3.497120
 20
5.285720
  0
SEQEND
  8
0
  0
SOLID
  8
0
 62
    15
 10
3.510760
 20
5.268120
 11
3.511200
 21
6.014360
 12
3.528360
 22
5.253160
 13
3.528800
 23
5.999400
  0
POLYLINE
  8
0
  6
CONTINUOUS
 66
     1
 40
0.000000
 41
0.000000
  0
VERTEX
  8
0
  6
CONTINUOUS
 10
3.510760
 20
5.268120
  0
VERTEX
  8
0
  6
CONTINUOUS
 10
3.511200
 20
6.014360
  0
VERTEX
  8
0
  6
CONTINUOUS
 10
3.528800
 20
5.999400
  0
VERTEX
  8
0
  6
CONTINUOUS
 10
3.528360
 20
5.253160
  0
VERTEX
  8
0
  6
CONTINUOUS
 10
3.510760
 20
5.268120
  0
SEQEND
  8
0
  0
SOLID
  8
0
 62
    15
 10
3.528360
 20
5.253160
 11
3.528800
 21
5.999400
 12
3.550800
 22
5.242600
 13
3.551240
 23
5.988840
  0
POLYLINE
  8
0
  6
CONTINUOUS
 66
     1
 40
0.000000
 41
0.000000
  0
VERTEX
  8
0
  6
CONTINUOUS
 10
3.528360
 20
5.253160
  0
VERTEX
  8
0
  6
CONTINUOUS
 10
3.528800
 20
5.999400
  0
VERTEX
  8
0
  6
CONTINUOUS
 10
3.551240
 20
5.988840
  0
VERTEX
  8
0
  6
CONTINUOUS
 10
3.550800
 20
5.242600
  0
VERTEX
  8
0
  6
CONTINUOUS
 10
3.528360
 20
5.253160
  0
SEQEND
  8
0
  0
SOLID
  8
0
 62
    15
 10
3.550800
 20
5.242600
 11
3.551240
 21
5.988840
 12
3.578960
 22
5.236000
 13
3.579400
 23
5.982240
  0
POLYLINE
  8
0
  6
CONTINUOUS
 66
     1
 40
0.000000
 41
0.000000
  0
VERTEX
  8
0
  6
CONTINUOUS
 10
3.550800
 20
5.242600
  0
VERTEX
  8
0
  6
CONTINUOUS
 10
3.551240
 20
5.988840
  0
VERTEX
  8
0
  6
CONTINUOUS
 10
3.579400
 20
5.982240
  0
VERTEX
  8
0
  6
CONTINUOUS
 10
3.578960
 20
5.236000
  0
VERTEX
  8
0
  6
CONTINUOUS
 10
3.550800
 20
5.242600
  0
SEQEND
  8
0
  0
SOLID
  8
0
 62
    15
 10
3.578960
 20
5.236000
 11
3.579400
 21
5.982240
 12
5.037120
 22
5.237320
 13
5.037560
 23
5.983560
  0
POLYLINE
  8
0
  6
CONTINUOUS
 66
     1
 40
0.000000
 41
0.000000
  0
VERTEX
  8
0
  6
CONTINUOUS
 10
3.578960
 20
5.236000
  0
VERTEX
  8
0
  6
CONTINUOUS
 10
3.579400
 20
5.982240
  0
VERTEX
  8
0
  6
CONTINUOUS
 10
5.037560
 20
5.983560
  0
VERTEX
  8
0
  6
CONTINUOUS
 10
5.037120
 20
5.237320
  0
VERTEX
  8
0
  6
CONTINUOUS
 10
3.578960
 20
5.236000
  0
SEQEND
  8
0
  0
SOLID
  8
0
 62
    15
 10
5.037120
 20
5.237320
 11
5.037560
 21
5.983560
 12
5.059560
 22
5.242600
 13
5.060000
 23
5.988840
  0
POLYLINE
  8
0
  6
CONTINUOUS
 66
     1
 40
0.000000
 41
0.000000
  0
VERTEX
  8
0
  6
CONTINUOUS
 10
5.037120
 20
5.237320
  0
VERTEX
  8
0
  6
CONTINUOUS
 10
5.037560
 20
5.983560
  0
VERTEX
  8
0
  6
CONTINUOUS
 10
5.060000
 20
5.988840
  0
VERTEX
  8
0
  6
CONTINUOUS
 10
5.059560
 20
5.242600
  0
VERTEX
  8
0
  6
CONTINUOUS
 10
5.037120
 20
5.237320
  0
SEQEND
  8
0
  0
SOLID
  8
0
 62
    15
 10
5.059560
 20
5.242600
 11
5.060000
 21
5.988840
 12
5.078480
 22
5.252720
 13
5.078920
 23
5.998960
  0
POLYLINE
  8
0
  6
CONTINUOUS
 66
     1
 40
0.000000
 41
0.000000
  0
VERTEX
  8
0
  6
CONTINUOUS
 10
5.059560
 20
5.242600
  0
VERTEX
  8
0
  6
CONTINUOUS
 10
5.060000
 20
5.988840
  0
VERTEX
  8
0
  6
CONTINUOUS
 10
5.078920
 20
5.998960
  0
VERTEX
  8
0
  6
CONTINUOUS
 10
5.078480
 20
5.252720
  0
VERTEX
  8
0
  6
CONTINUOUS
 10
5.059560
 20
5.242600
  0
SEQEND
  8
0
  0
SOLID
  8
0
 62
    15
 10
5.078480
 20
5.252720
 11
5.078920
 21
5.998960
 12
5.092120
 22
5.268120
 13
5.092560
 23
6.014360
  0
POLYLINE
  8
0
  6
CONTINUOUS
 66
     1
 40
0.000000
 41
0.000000
  0
VERTEX
  8
0
  6
CONTINUOUS
 10
5.078480
 20
5.252720
  0
VERTEX
  8
0
  6
CONTINUOUS
 10
5.078920
 20
5.998960
  0
VERTEX
  8
0
  6
CONTINUOUS
 10
5.092560
 20
6.014360
  0
VERTEX
  8
0
  6
CONTINUOUS
 10
5.092120
 20
5.268120
  0
VERTEX
  8
0
  6
CONTINUOUS
 10
5.078480
 20
5.252720
  0
SEQEND
  8
0
  0
SOLID
  8
0
 62
    15
 10
5.092120
 20
5.268120
 11
5.092560
 21
6.014360
 12
5.097400
 22
5.291440
 13
5.098280
 23
6.037680
  0
POLYLINE
  8
0
  6
CONTINUOUS
 66
     1
 40
0.000000
 41
0.000000
  0
VERTEX
  8
0
  6
CONTINUOUS
 10
5.092120
 20
5.268120
  0
VERTEX
  8
0
  6
CONTINUOUS
 10
5.092560
 20
6.014360
  0
VERTEX
  8
0
  6
CONTINUOUS
 10
5.098280
 20
6.037680
  0
VERTEX
  8
0
  6
CONTINUOUS
 10
5.097400
 20
5.291440
  0
VERTEX
  8
0
  6
CONTINUOUS
 10
5.092120
 20
5.268120
  0
SEQEND
  8
0
  0
SOLID
  8
0
 62
    15
 10
5.097400
 20
5.291440
 11
5.098280
 21
6.037680
 12
5.099160
 22
5.365360
 13
5.099600
 23
6.111600
  0
POLYLINE
  8
0
  6
CONTINUOUS
 66
     1
 40
0.000000
 41
0.000000
  0
VERTEX
  8
0
  6
CONTINUOUS
 10
5.097400
 20
5.291440
  0
VERTEX
  8
0
  6
CONTINUOUS
 10
5.098280
 20
6.037680
  0
VERTEX
  8
0
  6
CONTINUOUS
 10
5.099600
 20
6.111600
  0
VERTEX
  8
0
  6
CONTINUOUS
 10
5.099160
 20
5.365360
  0
VERTEX
  8
0
  6
CONTINUOUS
 10
5.097400
 20
5.291440
  0
SEQEND
  8
0
  0
SOLID
  8
0
 62
    15
 10
2.831400
 20
5.615720
 11
2.831840
 21
6.361960
 12
2.845040
 22
5.582280
 13
2.845480
 23
6.328520
  0
POLYLINE
  8
0
  6
CONTINUOUS
 66
     1
 40
0.000000
 41
0.000000
  0
VERTEX
  8
0
  6
CONTINUOUS
 10
2.831400
 20
5.615720
  0
VERTEX
  8
0
  6
CONTINUOUS
 10
2.831840
 20
6.361960
  0
VERTEX
  8
0
  6
CONTINUOUS
 10
2.845480
 20
6.328520
  0
VERTEX
  8
0
  6
CONTINUOUS
 10
2.845040
 20
5.582280
  0
VERTEX
  8
0
  6
CONTINUOUS
 10
2.831400
 20
5.615720
  0
SEQEND
  8
0
  0
SOLID
  8
0
 62
    15
 10
5.437960
 20
5.365360
 11
5.438400
 21
6.111600
 12
5.444560
 22
5.228520
 13
5.445440
 23
5.974320
  0
POLYLINE
  8
0
  6
CONTINUOUS
 66
     1
 40
0.000000
 41
0.000000
  0
VERTEX
  8
0
  6
CONTINUOUS
 10
5.437960
 20
5.365360
  0
VERTEX
  8
0
  6
CONTINUOUS
 10
5.438400
 20
6.111600
  0
VERTEX
  8
0
  6
CONTINUOUS
 10
5.445440
 20
5.974320
  0
VERTEX
  8
0
  6
CONTINUOUS
 10
5.444560
 20
5.228520
  0
VERTEX
  8
0
  6
CONTINUOUS
 10
5.437960
 20
5.365360
  0
SEQEND
  8
0
  0
SOLID
  8
0
 62
    15
 10
5.099160
 20
5.365360
 11
5.099600
 21
6.111600
 12
5.437960
 22
5.365360
 13
5.438400
 23
6.111600
  0
POLYLINE
  8
0
  6
CONTINUOUS
 66
     1
 40
0.000000
 41
0.000000
  0
VERTEX
  8
0
  6
CONTINUOUS
 10
5.099160
 20
5.365360
  0
VERTEX
  8
0
  6
CONTINUOUS
 10
5.099600
 20
6.111600
  0
VERTEX
  8
0
  6
CONTINUOUS
 10
5.438400
 20
6.111600
  0
VERTEX
  8
0
  6
CONTINUOUS
 10
5.437960
 20
5.365360
  0
VERTEX
  8
0
  6
CONTINUOUS
 10
5.099160
 20
5.365360
  0
SEQEND
  8
0
  0
SOLID
  8
0
 62
    15
 10
5.487240
 20
5.228520
 11
5.487680
 21
5.974320
 12
5.507480
 22
5.270320
 13
5.507920
 23
6.016560
  0
POLYLINE
  8
0
  6
CONTINUOUS
 66
     1
 40
0.000000
 41
0.000000
  0
VERTEX
  8
0
  6
CONTINUOUS
 10
5.487240
 20
5.228520
  0
VERTEX
  8
0
  6
CONTINUOUS
 10
5.487680
 20
5.974320
  0
VERTEX
  8
0
  6
CONTINUOUS
 10
5.507920
 20
6.016560
  0
VERTEX
  8
0
  6
CONTINUOUS
 10
5.507480
 20
5.270320
  0
VERTEX
  8
0
  6
CONTINUOUS
 10
5.487240
 20
5.228520
  0
SEQEND
  8
0
  0
SOLID
  8
0
 62
    15
 10
5.507480
 20
5.270320
 11
5.507920
 21
6.016560
 12
5.533440
 22
5.302440
 13
5.533880
 23
6.048680
  0
POLYLINE
  8
0
  6
CONTINUOUS
 66
     1
 40
0.000000
 41
0.000000
  0
VERTEX
  8
0
  6
CONTINUOUS
 10
5.507480
 20
5.270320
  0
VERTEX
  8
0
  6
CONTINUOUS
 10
5.507920
 20
6.016560
  0
VERTEX
  8
0
  6
CONTINUOUS
 10
5.533880
 20
6.048680
  0
VERTEX
  8
0
  6
CONTINUOUS
 10
5.533440
 20
5.302440
  0
VERTEX
  8
0
  6
CONTINUOUS
 10
5.507480
 20
5.270320
  0
SEQEND
  8
0
  0
SOLID
  8
0
 62
    15
 10
5.533440
 20
5.302440
 11
5.533880
 21
6.048680
 12
5.563800
 22
5.324440
 13
5.564240
 23
6.070680
  0
POLYLINE
  8
0
  6
CONTINUOUS
 66
     1
 40
0.000000
 41
0.000000
  0
VERTEX
  8
0
  6
CONTINUOUS
 10
5.533440
 20
5.302440
  0
VERTEX
  8
0
  6
CONTINUOUS
 10
5.533880
 20
6.048680
  0
VERTEX
  8
0
  6
CONTINUOUS
 10
5.564240
 20
6.070680
  0
VERTEX
  8
0
  6
CONTINUOUS
 10
5.563800
 20
5.324440
  0
VERTEX
  8
0
  6
CONTINUOUS
 10
5.533440
 20
5.302440
  0
SEQEND
  8
0
  0
SOLID
  8
0
 62
    15
 10
5.563800
 20
5.324440
 11
5.564240
 21
6.070680
 12
5.597680
 22
5.336320
 13
5.598120
 23
6.082120
  0
POLYLINE
  8
0
  6
CONTINUOUS
 66
     1
 40
0.000000
 41
0.000000
  0
VERTEX
  8
0
  6
CONTINUOUS
 10
5.563800
 20
5.324440
  0
VERTEX
  8
0
  6
CONTINUOUS
 10
5.564240
 20
6.070680
  0
VERTEX
  8
0
  6
CONTINUOUS
 10
5.598120
 20
6.082120
  0
VERTEX
  8
0
  6
CONTINUOUS
 10
5.597680
 20
5.336320
  0
VERTEX
  8
0
  6
CONTINUOUS
 10
5.563800
 20
5.324440
  0
SEQEND
  8
0
  0
SOLID
  8
0
 62
    15
 10
5.597680
 20
5.336320
 11
5.598120
 21
6.082120
 12
5.633320
 22
5.338080
 13
5.633760
 23
6.084320
  0
POLYLINE
  8
0
  6
CONTINUOUS
 66
     1
 40
0.000000
 41
0.000000
  0
VERTEX
  8
0
  6
CONTINUOUS
 10
5.597680
 20
5.336320
  0
VERTEX
  8
0
  6
CONTINUOUS
 10
5.598120
 20
6.082120
  0
VERTEX
  8
0
  6
CONTINUOUS
 10
5.633760
 20
6.084320
  0
VERTEX
  8
0
  6
CONTINUOUS
 10
5.633320
 20
5.338080
  0
VERTEX
  8
0
  6
CONTINUOUS
 10
5.597680
 20
5.336320
  0
SEQEND
  8
0
  0
SOLID
  8
0
 62
    15
 10
5.633320
 20
5.338080
 11
5.633760
 21
6.084320
 12
5.669400
 22
5.329720
 13
5.669840
 23
6.075960
  0
POLYLINE
  8
0
  6
CONTINUOUS
 66
     1
 40
0.000000
 41
0.000000
  0
VERTEX
  8
0
  6
CONTINUOUS
 10
5.633320
 20
5.338080
  0
VERTEX
  8
0
  6
CONTINUOUS
 10
5.633760
 20
6.084320
  0
VERTEX
  8
0
  6
CONTINUOUS
 10
5.669840
 20
6.075960
  0
VERTEX
  8
0
  6
CONTINUOUS
 10
5.669400
 20
5.329720
  0
VERTEX
  8
0
  6
CONTINUOUS
 10
5.633320
 20
5.338080
  0
SEQEND
  8
0
  0
SOLID
  8
0
 62
    15
 10
5.669400
 20
5.329720
 11
5.669840
 21
6.075960
 12
5.705480
 22
5.312120
 13
5.705920
 23
6.058360
  0
POLYLINE
  8
0
  6
CONTINUOUS
 66
     1
 40
0.000000
 41
0.000000
  0
VERTEX
  8
0
  6
CONTINUOUS
 10
5.669400
 20
5.329720
  0
VERTEX
  8
0
  6
CONTINUOUS
 10
5.669840
 20
6.075960
  0
VERTEX
  8
0
  6
CONTINUOUS
 10
5.705920
 20
6.058360
  0
VERTEX
  8
0
  6
CONTINUOUS
 10
5.705480
 20
5.312120
  0
VERTEX
  8
0
  6
CONTINUOUS
 10
5.669400
 20
5.329720
  0
SEQEND
  8
0
  0
SOLID
  8
0
 62
    15
 10
5.705480
 20
5.312120
 11
5.705920
 21
6.058360
 12
5.739360
 22
5.284400
 13
5.739800
 23
6.030640
  0
POLYLINE
  8
0
  6
CONTINUOUS
 66
     1
 40
0.000000
 41
0.000000
  0
VERTEX
  8
0
  6
CONTINUOUS
 10
5.705480
 20
5.312120
  0
VERTEX
  8
0
  6
CONTINUOUS
 10
5.705920
 20
6.058360
  0
VERTEX
  8
0
  6
CONTINUOUS
 10
5.739800
 20
6.030640
  0
VERTEX
  8
0
  6
CONTINUOUS
 10
5.739360
 20
5.284400
  0
VERTEX
  8
0
  6
CONTINUOUS
 10
5.705480
 20
5.312120
  0
SEQEND
  8
0
  0
SOLID
  8
0
 62
    15
 10
5.739360
 20
5.284400
 11
5.739800
 21
6.030640
 12
5.757400
 22
5.256240
 13
5.757840
 23
6.002480
  0
POLYLINE
  8
0
  6
CONTINUOUS
 66
     1
 40
0.000000
 41
0.000000
  0
VERTEX
  8
0
  6
CONTINUOUS
 10
5.739360
 20
5.284400
  0
VERTEX
  8
0
  6
CONTINUOUS
 10
5.739800
 20
6.030640
  0
VERTEX
  8
0
  6
CONTINUOUS
 10
5.757840
 20
6.002480
  0
VERTEX
  8
0
  6
CONTINUOUS
 10
5.757400
 20
5.256240
  0
VERTEX
  8
0
  6
CONTINUOUS
 10
5.739360
 20
5.284400
  0
SEQEND
  8
0
  0
SOLID
  8
0
 62
    15
 10
5.757400
 20
5.256240
 11
5.757840
 21
6.002480
 12
5.778080
 22
5.231600
 13
5.778520
 23
5.977840
  0
POLYLINE
  8
0
  6
CONTINUOUS
 66
     1
 40
0.000000
 41
0.000000
  0
VERTEX
  8
0
  6
CONTINUOUS
 10
5.757400
 20
5.256240
  0
VERTEX
  8
0
  6
CONTINUOUS
 10
5.757840
 20
6.002480
  0
VERTEX
  8
0
  6
CONTINUOUS
 10
5.778520
 20
5.977840
  0
VERTEX
  8
0
  6
CONTINUOUS
 10
5.778080
 20
5.231600
  0
VERTEX
  8
0
  6
CONTINUOUS
 10
5.757400
 20
5.256240
  0
SEQEND
  8
0
  0
SOLID
  8
0
 62
    15
 10
5.778080
 20
5.231600
 11
5.778520
 21
5.977840
 12
5.801840
 22
5.210920
 13
5.802280
 23
5.957160
  0
POLYLINE
  8
0
  6
CONTINUOUS
 66
     1
 40
0.000000
 41
0.000000
  0
VERTEX
  8
0
  6
CONTINUOUS
 10
5.778080
 20
5.231600
  0
VERTEX
  8
0
  6
CONTINUOUS
 10
5.778520
 20
5.977840
  0
VERTEX
  8
0
  6
CONTINUOUS
 10
5.802280
 20
5.957160
  0
VERTEX
  8
0
  6
CONTINUOUS
 10
5.801840
 20
5.210920
  0
VERTEX
  8
0
  6
CONTINUOUS
 10
5.778080
 20
5.231600
  0
SEQEND
  8
0
  0
SOLID
  8
0
 62
    15
 10
5.801840
 20
5.210920
 11
5.802280
 21
5.957160
 12
5.829120
 22
5.193320
 13
5.829560
 23
5.939560
  0
POLYLINE
  8
0
  6
CONTINUOUS
 66
     1
 40
0.000000
 41
0.000000
  0
VERTEX
  8
0
  6
CONTINUOUS
 10
5.801840
 20
5.210920
  0
VERTEX
  8
0
  6
CONTINUOUS
 10
5.802280
 20
5.957160
  0
VERTEX
  8
0
  6
CONTINUOUS
 10
5.829560
 20
5.939560
  0
VERTEX
  8
0
  6
CONTINUOUS
 10
5.829120
 20
5.193320
  0
VERTEX
  8
0
  6
CONTINUOUS
 10
5.801840
 20
5.210920
  0
SEQEND
  8
0
  0
SOLID
  8
0
 62
    15
 10
5.829120
 20
5.193320
 11
5.829560
 21
5.939560
 12
5.860360
 22
5.180120
 13
5.860800
 23
5.926360
  0
POLYLINE
  8
0
  6
CONTINUOUS
 66
     1
 40
0.000000
 41
0.000000
  0
VERTEX
  8
0
  6
CONTINUOUS
 10
5.829120
 20
5.193320
  0
VERTEX
  8
0
  6
CONTINUOUS
 10
5.829560
 20
5.939560
  0
VERTEX
  8
0
  6
CONTINUOUS
 10
5.860800
 20
5.926360
  0
VERTEX
  8
0
  6
CONTINUOUS
 10
5.860360
 20
5.180120
  0
VERTEX
  8
0
  6
CONTINUOUS
 10
5.829120
 20
5.193320
  0
SEQEND
  8
0
  0
SOLID
  8
0
 62
    15
 10
5.860360
 20
5.180120
 11
5.860800
 21
5.926360
 12
5.896440
 22
5.170440
 13
5.897320
 23
5.916680
  0
POLYLINE
  8
0
  6
CONTINUOUS
 66
     1
 40
0.000000
 41
0.000000
  0
VERTEX
  8
0
  6
CONTINUOUS
 10
5.860360
 20
5.180120
  0
VERTEX
  8
0
  6
CONTINUOUS
 10
5.860800
 20
5.926360
  0
VERTEX
  8
0
  6
CONTINUOUS
 10
5.897320
 20
5.916680
  0
VERTEX
  8
0
  6
CONTINUOUS
 10
5.896440
 20
5.170440
  0
VERTEX
  8
0
  6
CONTINUOUS
 10
5.860360
 20
5.180120
  0
SEQEND
  8
0
  0
SOLID
  8
0
 62
    15
 10
5.896440
 20
5.170440
 11
5.897320
 21
5.916680
 12
5.938240
 22
5.164720
 13
5.938680
 23
5.910520
  0
POLYLINE
  8
0
  6
CONTINUOUS
 66
     1
 40
0.000000
 41
0.000000
  0
VERTEX
  8
0
  6
CONTINUOUS
 10
5.896440
 20
5.170440
  0
VERTEX
  8
0
  6
CONTINUOUS
 10
5.897320
 20
5.916680
  0
VERTEX
  8
0
  6
CONTINUOUS
 10
5.938680
 20
5.910520
  0
VERTEX
  8
0
  6
CONTINUOUS
 10
5.938240
 20
5.164720
  0
VERTEX
  8
0
  6
CONTINUOUS
 10
5.896440
 20
5.170440
  0
SEQEND
  8
0
  0
SOLID
  8
0
 62
    15
 10
6.451280
 20
4.968480
 11
6.451720
 21
5.714720
 12
6.451280
 22
4.706240
 13
6.451720
 23
5.452040
  0
POLYLINE
  8
0
  6
CONTINUOUS
 66
     1
 40
0.000000
 41
0.000000
  0
VERTEX
  8
0
  6
CONTINUOUS
 10
6.451280
 20
4.968480
  0
VERTEX
  8
0
  6
CONTINUOUS
 10
6.451720
 20
5.714720
  0
VERTEX
  8
0
  6
CONTINUOUS
 10
6.451720
 20
5.452040
  0
VERTEX
  8
0
  6
CONTINUOUS
 10
6.451280
 20
4.706240
  0
VERTEX
  8
0
  6
CONTINUOUS
 10
6.451280
 20
4.968480
  0
SEQEND
  8
0
  0
SOLID
  8
0
 62
    15
 10
6.246680
 20
4.968480
 11
6.247120
 21
5.714720
 12
6.451280
 22
4.968480
 13
6.451720
 23
5.714720
  0
POLYLINE
  8
0
  6
CONTINUOUS
 66
     1
 40
0.000000
 41
0.000000
  0
VERTEX
  8
0
  6
CONTINUOUS
 10
6.246680
 20
4.968480
  0
VERTEX
  8
0
  6
CONTINUOUS
 10
6.247120
 20
5.714720
  0
VERTEX
  8
0
  6
CONTINUOUS
 10
6.451720
 20
5.714720
  0
VERTEX
  8
0
  6
CONTINUOUS
 10
6.451280
 20
4.968480
  0
VERTEX
  8
0
  6
CONTINUOUS
 10
6.246680
 20
4.968480
  0
SEQEND
  8
0
  0
SOLID
  8
0
 62
    15
 10
6.241400
 20
5.077160
 11
6.241840
 21
5.823400
 12
6.246680
 22
4.968480
 13
6.247120
 23
5.714720
  0
POLYLINE
  8
0
  6
CONTINUOUS
 66
     1
 40
0.000000
 41
0.000000
  0
VERTEX
  8
0
  6
CONTINUOUS
 10
6.241400
 20
5.077160
  0
VERTEX
  8
0
  6
CONTINUOUS
 10
6.241840
 20
5.823400
  0
VERTEX
  8
0
  6
CONTINUOUS
 10
6.247120
 20
5.714720
  0
VERTEX
  8
0
  6
CONTINUOUS
 10
6.246680
 20
4.968480
  0
VERTEX
  8
0
  6
CONTINUOUS
 10
6.241400
 20
5.077160
  0
SEQEND
  8
0
  0
SOLID
  8
0
 62
    15
 10
5.988840
 20
5.077160
 11
5.989280
 21
5.823400
 12
6.241400
 22
5.077160
 13
6.241840
 23
5.823400
  0
POLYLINE
  8
0
  6
CONTINUOUS
 66
     1
 40
0.000000
 41
0.000000
  0
VERTEX
  8
0
  6
CONTINUOUS
 10
5.988840
 20
5.077160
  0
VERTEX
  8
0
  6
CONTINUOUS
 10
5.989280
 20
5.823400
  0
VERTEX
  8
0
  6
CONTINUOUS
 10
6.241840
 20
5.823400
  0
VERTEX
  8
0
  6
CONTINUOUS
 10
6.241400
 20
5.077160
  0
VERTEX
  8
0
  6
CONTINUOUS
 10
5.988840
 20
5.077160
  0
SEQEND
  8
0
  0
SOLID
  8
0
 62
    15
 10
5.986200
 20
5.162520
 11
5.986640
 21
5.908760
 12
5.988840
 22
5.077160
 13
5.989280
 23
5.823400
  0
POLYLINE
  8
0
  6
CONTINUOUS
 66
     1
 40
0.000000
 41
0.000000
  0
VERTEX
  8
0
  6
CONTINUOUS
 10
5.986200
 20
5.162520
  0
VERTEX
  8
0
  6
CONTINUOUS
 10
5.986640
 20
5.908760
  0
VERTEX
  8
0
  6
CONTINUOUS
 10
5.989280
 20
5.823400
  0
VERTEX
  8
0
  6
CONTINUOUS
 10
5.988840
 20
5.077160
  0
VERTEX
  8
0
  6
CONTINUOUS
 10
5.986200
 20
5.162520
  0
SEQEND
  8
0
  0
SOLID
  8
0
 62
    15
 10
5.938240
 20
5.164720
 11
5.938680
 21
5.910520
 12
5.986200
 22
5.162520
 13
5.986640
 23
5.908760
  0
POLYLINE
  8
0
  6
CONTINUOUS
 66
     1
 40
0.000000
 41
0.000000
  0
VERTEX
  8
0
  6
CONTINUOUS
 10
5.938240
 20
5.164720
  0
VERTEX
  8
0
  6
CONTINUOUS
 10
5.938680
 20
5.910520
  0
VERTEX
  8
0
  6
CONTINUOUS
 10
5.986640
 20
5.908760
  0
VERTEX
  8
0
  6
CONTINUOUS
 10
5.986200
 20
5.162520
  0
VERTEX
  8
0
  6
CONTINUOUS
 10
5.938240
 20
5.164720
  0
SEQEND
  8
0
  0
SOLID
  8
0
 62
    15
 10
2.234760
 20
5.617040
 11
2.235200
 21
6.363280
 12
2.831400
 22
5.617040
 13
2.831840
 23
6.363280
  0
POLYLINE
  8
0
  6
CONTINUOUS
 66
     1
 40
0.000000
 41
0.000000
  0
VERTEX
  8
0
  6
CONTINUOUS
 10
2.234760
 20
5.617040
  0
VERTEX
  8
0
  6
CONTINUOUS
 10
2.235200
 20
6.363280
  0
VERTEX
  8
0
  6
CONTINUOUS
 10
2.831840
 20
6.363280
  0
VERTEX
  8
0
  6
CONTINUOUS
 10
2.831400
 20
5.617040
  0
VERTEX
  8
0
  6
CONTINUOUS
 10
2.234760
 20
5.617040
  0
SEQEND
  8
0
  0
SOLID
  8
0
 62
    15
 10
2.831400
 20
5.617040
 11
2.831840
 21
6.363280
 12
2.831400
 22
5.615720
 13
2.831840
 23
6.361960
  0
POLYLINE
  8
0
  6
CONTINUOUS
 66
     1
 40
0.000000
 41
0.000000
  0
VERTEX
  8
0
  6
CONTINUOUS
 10
2.831400
 20
5.617040
  0
VERTEX
  8
0
  6
CONTINUOUS
 10
2.831840
 20
6.363280
  0
VERTEX
  8
0
  6
CONTINUOUS
 10
2.831840
 20
6.361960
  0
VERTEX
  8
0
  6
CONTINUOUS
 10
2.831400
 20
5.615720
  0
VERTEX
  8
0
  6
CONTINUOUS
 10
2.831400
 20
5.617040
  0
SEQEND
  8
0
  0
POLYLINE
  8
0
  6
CONTINUOUS
 66
     1
 40
0.000000
 41
0.000000
  0
VERTEX
  8
0
  6
CONTINUOUS
 10
2.831400
 20
5.615720
  0
VERTEX
  8
0
  6
CONTINUOUS
 10
2.845040
 20
5.582280
  0
VERTEX
  8
0
  6
CONTINUOUS
 10
2.866600
 20
5.553680
  0
VERTEX
  8
0
  6
CONTINUOUS
 10
2.884200
 20
5.541800
  0
VERTEX
  8
0
  6
CONTINUOUS
 10
2.908400
 20
5.531240
  0
VERTEX
  8
0
  6
CONTINUOUS
 10
2.940520
 20
5.522880
  0
VERTEX
  8
0
  6
CONTINUOUS
 10
2.981440
 20
5.515840
  0
VERTEX
  8
0
  6
CONTINUOUS
 10
3.215960
 20
5.493400
  0
VERTEX
  8
0
  6
CONTINUOUS
 10
3.236640
 20
5.488560
  0
VERTEX
  8
0
  6
CONTINUOUS
 10
3.256440
 20
5.478880
  0
VERTEX
  8
0
  6
CONTINUOUS
 10
3.291200
 20
5.449840
  0
VERTEX
  8
0
  6
CONTINUOUS
 10
3.315400
 20
5.413760
  0
VERTEX
  8
0
  6
CONTINUOUS
 10
3.322000
 20
5.395720
  0
VERTEX
  8
0
  6
CONTINUOUS
 10
3.323760
 20
5.378120
  0
VERTEX
  8
0
  6
CONTINUOUS
 10
3.473800
 20
5.375040
  0
VERTEX
  8
0
  6
CONTINUOUS
 10
3.480400
 20
5.328400
  0
VERTEX
  8
0
  6
CONTINUOUS
 10
3.497120
 20
5.285720
  0
VERTEX
  8
0
  6
CONTINUOUS
 10
3.510760
 20
5.268120
  0
VERTEX
  8
0
  6
CONTINUOUS
 10
3.528360
 20
5.253160
  0
VERTEX
  8
0
  6
CONTINUOUS
 10
3.550800
 20
5.242600
  0
VERTEX
  8
0
  6
CONTINUOUS
 10
3.578960
 20
5.236000
  0
VERTEX
  8
0
  6
CONTINUOUS
 10
5.037120
 20
5.237320
  0
VERTEX
  8
0
  6
CONTINUOUS
 10
5.059560
 20
5.242600
  0
VERTEX
  8
0
  6
CONTINUOUS
 10
5.078480
 20
5.252720
  0
VERTEX
  8
0
  6
CONTINUOUS
 10
5.092120
 20
5.268120
  0
VERTEX
  8
0
  6
CONTINUOUS
 10
5.097400
 20
5.291440
  0
VERTEX
  8
0
  6
CONTINUOUS
 10
5.099160
 20
5.365360
  0
VERTEX
  8
0
  6
CONTINUOUS
 10
5.437960
 20
5.365360
  0
VERTEX
  8
0
  6
CONTINUOUS
 10
5.444560
 20
5.228520
  0
VERTEX
  8
0
  6
CONTINUOUS
 10
5.487240
 20
5.228520
  0
VERTEX
  8
0
  6
CONTINUOUS
 10
5.507480
 20
5.270320
  0
VERTEX
  8
0
  6
CONTINUOUS
 10
5.533440
 20
5.302440
  0
VERTEX
  8
0
  6
CONTINUOUS
 10
5.563800
 20
5.324440
  0
VERTEX
  8
0
  6
CONTINUOUS
 10
5.597680
 20
5.336320
  0
VERTEX
  8
0
  6
CONTINUOUS
 10
5.633320
 20
5.338080
  0
VERTEX
  8
0
  6
CONTINUOUS
 10
5.669400
 20
5.329720
  0
VERTEX
  8
0
  6
CONTINUOUS
 10
5.705480
 20
5.312120
  0
VERTEX
  8
0
  6
CONTINUOUS
 10
5.739360
 20
5.284400
  0
VERTEX
  8
0
  6
CONTINUOUS
 10
5.757400
 20
5.256240
  0
VERTEX
  8
0
  6
CONTINUOUS
 10
5.778080
 20
5.231600
  0
VERTEX
  8
0
  6
CONTINUOUS
 10
5.801840
 20
5.210920
  0
VERTEX
  8
0
  6
CONTINUOUS
 10
5.829120
 20
5.193320
  0
VERTEX
  8
0
  6
CONTINUOUS
 10
5.860360
 20
5.180120
  0
VERTEX
  8
0
  6
CONTINUOUS
 10
5.896440
 20
5.170440
  0
VERTEX
  8
0
  6
CONTINUOUS
 10
5.938240
 20
5.164720
  0
VERTEX
  8
0
  6
CONTINUOUS
 10
5.986200
 20
5.162520
  0
VERTEX
  8
0
  6
CONTINUOUS
 10
5.988840
 20
5.077160
  0
VERTEX
  8
0
  6
CONTINUOUS
 10
6.241400
 20
5.077160
  0
VERTEX
  8
0
  6
CONTINUOUS
 10
6.246680
 20
4.968480
  0
VERTEX
  8
0
  6
CONTINUOUS
 10
6.451280
 20
4.968480
  0
VERTEX
  8
0
  6
CONTINUOUS
 10
6.451280
 20
4.706240
  0
VERTEX
  8
0
  6
CONTINUOUS
 10
2.234760
 20
4.706240
  0
VERTEX
  8
0
  6
CONTINUOUS
 10
2.234760
 20
5.617040
  0
VERTEX
  8
0
  6
CONTINUOUS
 10
2.831400
 20
5.617040
  0
VERTEX
  8
0
  6
CONTINUOUS
 10
2.831400
 20
5.615720
  0
SEQEND
  8
0
  0
TEXT
  8
0
 10
4.002240
 20
4.469960
 40
0.137957
  1
BA  1162
 41
1.000000
  7
SN0
 71
     0
 72
     5
 11
4.683811
 21
4.469960
  0
TEXT
  8
0
 10
3.800280
 20
4.278560
 40
0.137957
  1
15/16" x 4-1/4"
 41
1.000000
  7
SN0
 71
     0
 72
     5
 11
4.884027
 21
4.278560
  0
POLYLINE
  8
0
  6
CONTINUOUS
 66
     1
 40
0.014080
 41
0.014080
  0
VERTEX
  8
0
  6
CONTINUOUS
 10
2.831840
 20
7.802960
  0
VERTEX
  8
0
  6
CONTINUOUS
 10
2.845040
 20
7.769520
  0
VERTEX
  8
0
  6
CONTINUOUS
 10
2.860000
 20
7.747520
  0
VERTEX
  8
0
  6
CONTINUOUS
 10
2.874960
 20
7.734760
  0
VERTEX
  8
0
  6
CONTINUOUS
 10
2.895640
 20
7.723320
  0
VERTEX
  8
0
  6
CONTINUOUS
 10
2.940520
 20
7.709680
  0
VERTEX
  8
0
  6
CONTINUOUS
 10
2.981880
 20
7.703080
  0
VERTEX
  8
0
  6
CONTINUOUS
 10
3.226520
 20
7.678880
  0
VERTEX
  8
0
  6
CONTINUOUS
 10
3.246760
 20
7.671400
  0
VERTEX
  8
0
  6
CONTINUOUS
 10
3.274920
 20
7.653360
  0
VERTEX
  8
0
  6
CONTINUOUS
 10
3.291640
 20
7.637520
  0
VERTEX
  8
0
  6
CONTINUOUS
 10
3.311000
 20
7.610680
  0
VERTEX
  8
0
  6
CONTINUOUS
 10
3.319360
 20
7.591760
  0
VERTEX
  8
0
  6
CONTINUOUS
 10
3.323320
 20
7.573720
  0
VERTEX
  8
0
  6
CONTINUOUS
 10
3.323760
 20
7.565360
  0
VERTEX
  8
0
  6
CONTINUOUS
 10
3.474240
 20
7.562280
  0
VERTEX
  8
0
  6
CONTINUOUS
 10
3.476440
 20
7.538960
  0
VERTEX
  8
0
  6
CONTINUOUS
 10
3.483920
 20
7.504640
  0
VERTEX
  8
0
  6
CONTINUOUS
 10
3.491840
 20
7.483080
  0
VERTEX
  8
0
  6
CONTINUOUS
 10
3.510760
 20
7.455360
  0
VERTEX
  8
0
  6
CONTINUOUS
 10
3.528800
 20
7.440840
  0
VERTEX
  8
0
  6
CONTINUOUS
 10
3.551240
 20
7.429840
  0
VERTEX
  8
0
  6
CONTINUOUS
 10
3.578960
 20
7.423240
  0
VERTEX
  8
0
  6
CONTINUOUS
 10
5.037120
 20
7.424560
  0
VERTEX
  8
0
  6
CONTINUOUS
 10
5.059560
 20
7.429840
  0
VERTEX
  8
0
  6
CONTINUOUS
 10
5.078920
 20
7.439520
  0
VERTEX
  8
0
  6
CONTINUOUS
 10
5.086400
 20
7.447000
  0
VERTEX
  8
0
  6
CONTINUOUS
 10
5.094320
 20
7.460640
  0
VERTEX
  8
0
  6
CONTINUOUS
 10
5.097400
 20
7.472080
  0
VERTEX
  8
0
  6
CONTINUOUS
 10
5.099160
 20
7.552600
  0
VERTEX
  8
0
  6
CONTINUOUS
 10
5.437960
 20
7.552600
  0
VERTEX
  8
0
  6
CONTINUOUS
 10
5.445000
 20
7.415760
  0
VERTEX
  8
0
  6
CONTINUOUS
 10
5.487680
 20
7.415760
  0
VERTEX
  8
0
  6
CONTINUOUS
 10
5.502200
 20
7.448320
  0
VERTEX
  8
0
  6
CONTINUOUS
 10
5.519800
 20
7.475160
  0
VERTEX
  8
0
  6
CONTINUOUS
 10
5.540920
 20
7.496280
  0
VERTEX
  8
0
  6
CONTINUOUS
 10
5.563800
 20
7.511680
  0
VERTEX
  8
0
  6
CONTINUOUS
 10
5.588880
 20
7.521360
  0
VERTEX
  8
0
  6
CONTINUOUS
 10
5.615280
 20
7.525760
  0
VERTEX
  8
0
  6
CONTINUOUS
 10
5.633320
 20
7.525320
  0
VERTEX
  8
0
  6
CONTINUOUS
 10
5.651360
 20
7.522240
  0
VERTEX
  8
0
  6
CONTINUOUS
 10
5.669840
 20
7.516960
  0
VERTEX
  8
0
  6
CONTINUOUS
 10
5.687880
 20
7.509480
  0
VERTEX
  8
0
  6
CONTINUOUS
 10
5.714280
 20
7.493200
  0
VERTEX
  8
0
  6
CONTINUOUS
 10
5.739360
 20
7.471640
  0
VERTEX
  8
0
  6
CONTINUOUS
 10
5.757840
 20
7.443480
  0
VERTEX
  8
0
  6
CONTINUOUS
 10
5.778520
 20
7.418840
  0
VERTEX
  8
0
  6
CONTINUOUS
 10
5.801840
 20
7.398160
  0
VERTEX
  8
0
  6
CONTINUOUS
 10
5.829120
 20
7.381000
  0
VERTEX
  8
0
  6
CONTINUOUS
 10
5.860800
 20
7.367360
  0
VERTEX
  8
0
  6
CONTINUOUS
 10
5.896880
 20
7.357680
  0
VERTEX
  8
0
  6
CONTINUOUS
 10
5.938680
 20
7.351520
  0
VERTEX
  8
0
  6
CONTINUOUS
 10
5.986200
 20
7.349760
  0
VERTEX
  8
0
  6
CONTINUOUS
 10
5.989280
 20
7.264400
  0
VERTEX
  8
0
  6
CONTINUOUS
 10
6.241400
 20
7.264400
  0
VERTEX
  8
0
  6
CONTINUOUS
 10
6.247120
 20
7.155720
  0
VERTEX
  8
0
  6
CONTINUOUS
 10
6.451280
 20
7.155720
  0
VERTEX
  8
0
  6
CONTINUOUS
 10
6.451280
 20
6.893480
  0
VERTEX
  8
0
  6
CONTINUOUS
 10
2.235200
 20
6.893480
  0
VERTEX
  8
0
  6
CONTINUOUS
 10
2.235200
 20
7.804280
  0
VERTEX
  8
0
  6
CONTINUOUS
 10
2.831840
 20
7.804280
  0
VERTEX
  8
0
  6
CONTINUOUS
 10
2.831840
 20
7.802960
  0
SEQEND
  8
0
  0
TEXT
  8
0
 10
2.710400
 20
7.235360
 40
0.137957
  1
BA  1162
 41
1.000000
  7
SN0
 71
     0
 72
     5
 11
3.391971
 21
7.235360
  0
TEXT
  8
0
 10
2.508440
 20
7.043960
 40
0.137957
  1
15/16" x 4-1/4"
 41
1.000000
  7
SN0
 71
     0
 72
     5
 11
3.592187
 21
7.043960
  0
ENDSEC
  0
EOF
