  0
SECTION
  2
HEADER
  9
$ACADVER
  1
AC1006
  9
$EXTMIN
 10
2.882440
 20
0.814880
  9
$EXTMAX
 10
7.813960
 20
3.394600
  9
$LTSCALE
 40
0.044000
  9
$PDMODE
 70
    35
  9
$PDSIZE
 40
0.035200
  0
ENDSEC
  0
SECTION
  2
TABLES
  0
TABLE
  2
LTYPE
 70
     9
  0
LTYPE
  2
CONTINUOUS
 70
    64
  3
Solid line
 72
    65
 73
     0
 40
0.000000
  0
LTYPE
  2
DASHED
 70
    64
  3
__ __ __ __ __ __ __ __ __ __ __ __ __ __ __
 72
    65
 73
     2
 40
0.000330
 49
0.000220
 49
-0.000110
  0
LTYPE
  2
HIDDEN
 70
    64
  3
 _ _ _ _ _ _ _ _ _ _ _ _ _ _ _ _ _ _ _ _ _ _
 72
    65
 73
     2
 40
0.000165
 49
0.000110
 49
-0.000055
  0
LTYPE
  2
CENTER
 70
    64
  3
____ _ ____ _ ____ _ ____ _ ____ _ ____ _ ____
 72
    65
 73
     4
 40
0.000880
 49
0.000550
 49
-0.000110
 49
0.000110
 49
-0.000110
  0
LTYPE
  2
PHANTOM
 70
    64
  3
_____ _ _ _____ _ _ _____ _ _ _____ _ _ ____
 72
    65
 73
     6
 40
0.001100
 49
0.000550
 49
-0.000110
 49
0.000110
 49
-0.000110
 49
0.000110
 49
-0.000110
  0
LTYPE
  2
DOT
 70
    64
  3
...............................................
 72
    65
 73
     2
 40
0.000110
 49
0.000000
 49
-0.000110
  0
LTYPE
  2
DASHDOT
 70
    64
  3
__ . __ . __ . __ . __ . __ . __ . __ . __ . __
 72
    65
 73
     4
 40
0.000440
 49
0.000220
 49
-0.000110
 49
0.000000
 49
-0.000110
  0
LTYPE
  2
BORDER
 70
    64
  3
__ __ . __ __ . __ __ . __ __ . __ __ . __ __
 72
    65
 73
     6
 40
0.000770
 49
0.000220
 49
-0.000110
 49
0.000220
 49
-0.000110
 49
0.000000
 49
-0.000110
  0
LTYPE
  2
DIVIDE
 70
    64
  3
__ . . __ . . __ . . __ . . __ . . __ . . __
 72
    65
 73
     6
 40
0.000550
 49
0.000220
 49
-0.000110
 49
0.000000
 49
-0.000110
 49
0.000000
 49
-0.000110
  0
LTYPE
  2
DOTDOT
 70
    64
  3
 . .  . .  . .  . .  . .  . . 
 72
    65
 73
     5
 40
0.000242
 49
-0.000110
 49
0.000000
 49
-0.000110
 49
0.000000
 49
-0.000110
  0
ENDTAB
  0
TABLE
  2
STYLE
 70
     2
  0
STYLE
 70
     0
  2
SN0
 40
0.000000
 41
0.000440
 50
0.000000
 71
     0
 42
0.000000
  3
ROMAND
  0
STYLE
 70
    68
  2
SV0
 40
0.000000
 41
0.000440
 50
0.000000
 71
     0
 42
0.000000
  3
ROMAND
  0
ENDTAB
  0
TABLE
  2
LAYER
 70
     3
  0
LAYER
  2
FOREGROUND
 70
    64
 62
     7
  6
CONTINUOUS
  0
LAYER
  2
BACKGROUND
 70
    65
 62
    -7
  6
CONTINUOUS
  0
LAYER
  2
0
 70
    64
 62
     7
  6
CONTINUOUS
  0
ENDTAB
  0
ENDSEC
  0
SECTION
  2
ENTITIES
  0
POLYLINE
  8
FOREGROUND
  6
CONTINUOUS
 66
     1
 40
0.000000
 41
0.000000
  0
VERTEX
  8
FOREGROUND
  6
CONTINUOUS
 10
0.000000
 20
4.209480
  0
VERTEX
  8
FOREGROUND
  6
CONTINUOUS
 10
8.499920
 20
4.209480
  0
VERTEX
  8
FOREGROUND
  6
CONTINUOUS
 10
8.499920
 20
-6.790520
  0
VERTEX
  8
FOREGROUND
  6
CONTINUOUS
 10
0.000000
 20
-6.790520
  0
VERTEX
  8
FOREGROUND
  6
CONTINUOUS
 10
0.000000
 20
4.209480
  0
SEQEND
  8
0
  0
POLYLINE
  8
FOREGROUND
  6
CONTINUOUS
 66
     1
 40
0.000000
 41
0.000000
  0
VERTEX
  8
FOREGROUND
  6
CONTINUOUS
 10
0.000000
 20
4.209480
  0
VERTEX
  8
FOREGROUND
  6
CONTINUOUS
 10
8.499920
 20
4.209480
  0
VERTEX
  8
FOREGROUND
  6
CONTINUOUS
 10
8.499920
 20
-6.790520
  0
VERTEX
  8
FOREGROUND
  6
CONTINUOUS
 10
0.000000
 20
-6.790520
  0
VERTEX
  8
FOREGROUND
  6
CONTINUOUS
 10
0.000000
 20
4.209480
  0
SEQEND
  8
0
  0
SOLID
  8
0
 62
    15
 10
3.242800
 20
1.943040
 11
3.878600
 21
1.586640
 12
3.232680
 22
1.807520
 13
3.868480
 23
1.450680
  0
POLYLINE
  8
0
  6
CONTINUOUS
 66
     1
 40
0.000000
 41
0.000000
  0
VERTEX
  8
0
  6
CONTINUOUS
 10
3.242800
 20
1.943040
  0
VERTEX
  8
0
  6
CONTINUOUS
 10
3.878600
 20
1.586640
  0
VERTEX
  8
0
  6
CONTINUOUS
 10
3.868480
 20
1.450680
  0
VERTEX
  8
0
  6
CONTINUOUS
 10
3.232680
 20
1.807520
  0
VERTEX
  8
0
  6
CONTINUOUS
 10
3.242800
 20
1.943040
  0
SEQEND
  8
0
  0
SOLID
  8
0
 62
    15
 10
4.098600
 20
2.978360
 11
4.734400
 21
2.621520
 12
4.098600
 22
2.684880
 13
4.734400
 23
2.328480
  0
POLYLINE
  8
0
  6
CONTINUOUS
 66
     1
 40
0.000000
 41
0.000000
  0
VERTEX
  8
0
  6
CONTINUOUS
 10
4.098600
 20
2.978360
  0
VERTEX
  8
0
  6
CONTINUOUS
 10
4.734400
 20
2.621520
  0
VERTEX
  8
0
  6
CONTINUOUS
 10
4.734400
 20
2.328480
  0
VERTEX
  8
0
  6
CONTINUOUS
 10
4.098600
 20
2.684880
  0
VERTEX
  8
0
  6
CONTINUOUS
 10
4.098600
 20
2.978360
  0
SEQEND
  8
0
  0
SOLID
  8
0
 62
    15
 10
4.098600
 20
2.684880
 11
4.734400
 21
2.328480
 12
3.997400
 22
2.674320
 13
4.633200
 23
2.317480
  0
POLYLINE
  8
0
  6
CONTINUOUS
 66
     1
 40
0.000000
 41
0.000000
  0
VERTEX
  8
0
  6
CONTINUOUS
 10
4.098600
 20
2.684880
  0
VERTEX
  8
0
  6
CONTINUOUS
 10
4.734400
 20
2.328480
  0
VERTEX
  8
0
  6
CONTINUOUS
 10
4.633200
 20
2.317480
  0
VERTEX
  8
0
  6
CONTINUOUS
 10
3.997400
 20
2.674320
  0
VERTEX
  8
0
  6
CONTINUOUS
 10
4.098600
 20
2.684880
  0
SEQEND
  8
0
  0
SOLID
  8
0
 62
    15
 10
3.997400
 20
2.674320
 11
4.633200
 21
2.317480
 12
3.902800
 22
2.662440
 13
4.538600
 23
2.305600
  0
POLYLINE
  8
0
  6
CONTINUOUS
 66
     1
 40
0.000000
 41
0.000000
  0
VERTEX
  8
0
  6
CONTINUOUS
 10
3.997400
 20
2.674320
  0
VERTEX
  8
0
  6
CONTINUOUS
 10
4.633200
 20
2.317480
  0
VERTEX
  8
0
  6
CONTINUOUS
 10
4.538600
 20
2.305600
  0
VERTEX
  8
0
  6
CONTINUOUS
 10
3.902800
 20
2.662440
  0
VERTEX
  8
0
  6
CONTINUOUS
 10
3.997400
 20
2.674320
  0
SEQEND
  8
0
  0
SOLID
  8
0
 62
    15
 10
3.902800
 20
2.662440
 11
4.538600
 21
2.305600
 12
3.814800
 22
2.648360
 13
4.450600
 23
2.291960
  0
POLYLINE
  8
0
  6
CONTINUOUS
 66
     1
 40
0.000000
 41
0.000000
  0
VERTEX
  8
0
  6
CONTINUOUS
 10
3.902800
 20
2.662440
  0
VERTEX
  8
0
  6
CONTINUOUS
 10
4.538600
 20
2.305600
  0
VERTEX
  8
0
  6
CONTINUOUS
 10
4.450600
 20
2.291960
  0
VERTEX
  8
0
  6
CONTINUOUS
 10
3.814800
 20
2.648360
  0
VERTEX
  8
0
  6
CONTINUOUS
 10
3.902800
 20
2.662440
  0
SEQEND
  8
0
  0
SOLID
  8
0
 62
    15
 10
3.814800
 20
2.648360
 11
4.450600
 21
2.291960
 12
3.733400
 22
2.631640
 13
4.369200
 23
2.274800
  0
POLYLINE
  8
0
  6
CONTINUOUS
 66
     1
 40
0.000000
 41
0.000000
  0
VERTEX
  8
0
  6
CONTINUOUS
 10
3.814800
 20
2.648360
  0
VERTEX
  8
0
  6
CONTINUOUS
 10
4.450600
 20
2.291960
  0
VERTEX
  8
0
  6
CONTINUOUS
 10
4.369200
 20
2.274800
  0
VERTEX
  8
0
  6
CONTINUOUS
 10
3.733400
 20
2.631640
  0
VERTEX
  8
0
  6
CONTINUOUS
 10
3.814800
 20
2.648360
  0
SEQEND
  8
0
  0
SOLID
  8
0
 62
    15
 10
3.733400
 20
2.631640
 11
4.369200
 21
2.274800
 12
3.658600
 22
2.610960
 13
4.293960
 23
2.254120
  0
POLYLINE
  8
0
  6
CONTINUOUS
 66
     1
 40
0.000000
 41
0.000000
  0
VERTEX
  8
0
  6
CONTINUOUS
 10
3.733400
 20
2.631640
  0
VERTEX
  8
0
  6
CONTINUOUS
 10
4.369200
 20
2.274800
  0
VERTEX
  8
0
  6
CONTINUOUS
 10
4.293960
 20
2.254120
  0
VERTEX
  8
0
  6
CONTINUOUS
 10
3.658600
 20
2.610960
  0
VERTEX
  8
0
  6
CONTINUOUS
 10
3.733400
 20
2.631640
  0
SEQEND
  8
0
  0
SOLID
  8
0
 62
    15
 10
3.658600
 20
2.610960
 11
4.293960
 21
2.254120
 12
3.589520
 22
2.584560
 13
4.225320
 23
2.228160
  0
POLYLINE
  8
0
  6
CONTINUOUS
 66
     1
 40
0.000000
 41
0.000000
  0
VERTEX
  8
0
  6
CONTINUOUS
 10
3.658600
 20
2.610960
  0
VERTEX
  8
0
  6
CONTINUOUS
 10
4.293960
 20
2.254120
  0
VERTEX
  8
0
  6
CONTINUOUS
 10
4.225320
 20
2.228160
  0
VERTEX
  8
0
  6
CONTINUOUS
 10
3.589520
 20
2.584560
  0
VERTEX
  8
0
  6
CONTINUOUS
 10
3.658600
 20
2.610960
  0
SEQEND
  8
0
  0
SOLID
  8
0
 62
    15
 10
3.589520
 20
2.584560
 11
4.225320
 21
2.228160
 12
3.527040
 22
2.552440
 13
4.162840
 23
2.195600
  0
POLYLINE
  8
0
  6
CONTINUOUS
 66
     1
 40
0.000000
 41
0.000000
  0
VERTEX
  8
0
  6
CONTINUOUS
 10
3.589520
 20
2.584560
  0
VERTEX
  8
0
  6
CONTINUOUS
 10
4.225320
 20
2.228160
  0
VERTEX
  8
0
  6
CONTINUOUS
 10
4.162840
 20
2.195600
  0
VERTEX
  8
0
  6
CONTINUOUS
 10
3.527040
 20
2.552440
  0
VERTEX
  8
0
  6
CONTINUOUS
 10
3.589520
 20
2.584560
  0
SEQEND
  8
0
  0
SOLID
  8
0
 62
    15
 10
3.527040
 20
2.552440
 11
4.162840
 21
2.195600
 12
3.471160
 22
2.512840
 13
4.106520
 23
2.156000
  0
POLYLINE
  8
0
  6
CONTINUOUS
 66
     1
 40
0.000000
 41
0.000000
  0
VERTEX
  8
0
  6
CONTINUOUS
 10
3.527040
 20
2.552440
  0
VERTEX
  8
0
  6
CONTINUOUS
 10
4.162840
 20
2.195600
  0
VERTEX
  8
0
  6
CONTINUOUS
 10
4.106520
 20
2.156000
  0
VERTEX
  8
0
  6
CONTINUOUS
 10
3.471160
 20
2.512840
  0
VERTEX
  8
0
  6
CONTINUOUS
 10
3.527040
 20
2.552440
  0
SEQEND
  8
0
  0
SOLID
  8
0
 62
    15
 10
3.471160
 20
2.512840
 11
4.106520
 21
2.156000
 12
3.420560
 22
2.464880
 13
4.056360
 23
2.108040
  0
POLYLINE
  8
0
  6
CONTINUOUS
 66
     1
 40
0.000000
 41
0.000000
  0
VERTEX
  8
0
  6
CONTINUOUS
 10
3.471160
 20
2.512840
  0
VERTEX
  8
0
  6
CONTINUOUS
 10
4.106520
 20
2.156000
  0
VERTEX
  8
0
  6
CONTINUOUS
 10
4.056360
 20
2.108040
  0
VERTEX
  8
0
  6
CONTINUOUS
 10
3.420560
 20
2.464880
  0
VERTEX
  8
0
  6
CONTINUOUS
 10
3.471160
 20
2.512840
  0
SEQEND
  8
0
  0
SOLID
  8
0
 62
    15
 10
3.420560
 20
2.464880
 11
4.056360
 21
2.108040
 12
3.376560
 22
2.407680
 13
4.012360
 23
2.050840
  0
POLYLINE
  8
0
  6
CONTINUOUS
 66
     1
 40
0.000000
 41
0.000000
  0
VERTEX
  8
0
  6
CONTINUOUS
 10
3.420560
 20
2.464880
  0
VERTEX
  8
0
  6
CONTINUOUS
 10
4.056360
 20
2.108040
  0
VERTEX
  8
0
  6
CONTINUOUS
 10
4.012360
 20
2.050840
  0
VERTEX
  8
0
  6
CONTINUOUS
 10
3.376560
 20
2.407680
  0
VERTEX
  8
0
  6
CONTINUOUS
 10
3.420560
 20
2.464880
  0
SEQEND
  8
0
  0
SOLID
  8
0
 62
    15
 10
3.376560
 20
2.407680
 11
4.012360
 21
2.050840
 12
3.338280
 22
2.339920
 13
3.974080
 23
1.983080
  0
POLYLINE
  8
0
  6
CONTINUOUS
 66
     1
 40
0.000000
 41
0.000000
  0
VERTEX
  8
0
  6
CONTINUOUS
 10
3.376560
 20
2.407680
  0
VERTEX
  8
0
  6
CONTINUOUS
 10
4.012360
 20
2.050840
  0
VERTEX
  8
0
  6
CONTINUOUS
 10
3.974080
 20
1.983080
  0
VERTEX
  8
0
  6
CONTINUOUS
 10
3.338280
 20
2.339920
  0
VERTEX
  8
0
  6
CONTINUOUS
 10
3.376560
 20
2.407680
  0
SEQEND
  8
0
  0
SOLID
  8
0
 62
    15
 10
3.338280
 20
2.339920
 11
3.974080
 21
1.983080
 12
3.305720
 22
2.260720
 13
3.941520
 23
1.903880
  0
POLYLINE
  8
0
  6
CONTINUOUS
 66
     1
 40
0.000000
 41
0.000000
  0
VERTEX
  8
0
  6
CONTINUOUS
 10
3.338280
 20
2.339920
  0
VERTEX
  8
0
  6
CONTINUOUS
 10
3.974080
 20
1.983080
  0
VERTEX
  8
0
  6
CONTINUOUS
 10
3.941520
 20
1.903880
  0
VERTEX
  8
0
  6
CONTINUOUS
 10
3.305720
 20
2.260720
  0
VERTEX
  8
0
  6
CONTINUOUS
 10
3.338280
 20
2.339920
  0
SEQEND
  8
0
  0
SOLID
  8
0
 62
    15
 10
3.305720
 20
2.260720
 11
3.941520
 21
1.903880
 12
3.278880
 22
2.168760
 13
3.914680
 23
1.811920
  0
POLYLINE
  8
0
  6
CONTINUOUS
 66
     1
 40
0.000000
 41
0.000000
  0
VERTEX
  8
0
  6
CONTINUOUS
 10
3.305720
 20
2.260720
  0
VERTEX
  8
0
  6
CONTINUOUS
 10
3.941520
 20
1.903880
  0
VERTEX
  8
0
  6
CONTINUOUS
 10
3.914680
 20
1.811920
  0
VERTEX
  8
0
  6
CONTINUOUS
 10
3.278880
 20
2.168760
  0
VERTEX
  8
0
  6
CONTINUOUS
 10
3.305720
 20
2.260720
  0
SEQEND
  8
0
  0
SOLID
  8
0
 62
    15
 10
3.278880
 20
2.168760
 11
3.914680
 21
1.811920
 12
3.258200
 22
2.063160
 13
3.894000
 23
1.706760
  0
POLYLINE
  8
0
  6
CONTINUOUS
 66
     1
 40
0.000000
 41
0.000000
  0
VERTEX
  8
0
  6
CONTINUOUS
 10
3.278880
 20
2.168760
  0
VERTEX
  8
0
  6
CONTINUOUS
 10
3.914680
 20
1.811920
  0
VERTEX
  8
0
  6
CONTINUOUS
 10
3.894000
 20
1.706760
  0
VERTEX
  8
0
  6
CONTINUOUS
 10
3.258200
 20
2.063160
  0
VERTEX
  8
0
  6
CONTINUOUS
 10
3.278880
 20
2.168760
  0
SEQEND
  8
0
  0
SOLID
  8
0
 62
    15
 10
3.258200
 20
2.063160
 11
3.894000
 21
1.706760
 12
3.242800
 22
1.943040
 13
3.878600
 23
1.586640
  0
POLYLINE
  8
0
  6
CONTINUOUS
 66
     1
 40
0.000000
 41
0.000000
  0
VERTEX
  8
0
  6
CONTINUOUS
 10
3.258200
 20
2.063160
  0
VERTEX
  8
0
  6
CONTINUOUS
 10
3.894000
 20
1.706760
  0
VERTEX
  8
0
  6
CONTINUOUS
 10
3.878600
 20
1.586640
  0
VERTEX
  8
0
  6
CONTINUOUS
 10
3.242800
 20
1.943040
  0
VERTEX
  8
0
  6
CONTINUOUS
 10
3.258200
 20
2.063160
  0
SEQEND
  8
0
  0
SOLID
  8
0
 62
    15
 10
3.067680
 20
1.219240
 11
3.703480
 21
0.862400
 12
2.883320
 22
1.219240
 13
3.519120
 23
0.862400
  0
POLYLINE
  8
0
  6
CONTINUOUS
 66
     1
 40
0.000000
 41
0.000000
  0
VERTEX
  8
0
  6
CONTINUOUS
 10
3.067680
 20
1.219240
  0
VERTEX
  8
0
  6
CONTINUOUS
 10
3.703480
 20
0.862400
  0
VERTEX
  8
0
  6
CONTINUOUS
 10
3.519120
 20
0.862400
  0
VERTEX
  8
0
  6
CONTINUOUS
 10
2.883320
 20
1.219240
  0
VERTEX
  8
0
  6
CONTINUOUS
 10
3.067680
 20
1.219240
  0
SEQEND
  8
0
  0
SOLID
  8
0
 62
    15
 10
3.333880
 20
1.768360
 11
3.969240
 21
1.411520
 12
3.367320
 22
1.745920
 13
4.003120
 23
1.389080
  0
POLYLINE
  8
0
  6
CONTINUOUS
 66
     1
 40
0.000000
 41
0.000000
  0
VERTEX
  8
0
  6
CONTINUOUS
 10
3.333880
 20
1.768360
  0
VERTEX
  8
0
  6
CONTINUOUS
 10
3.969240
 20
1.411520
  0
VERTEX
  8
0
  6
CONTINUOUS
 10
4.003120
 20
1.389080
  0
VERTEX
  8
0
  6
CONTINUOUS
 10
3.367320
 20
1.745920
  0
VERTEX
  8
0
  6
CONTINUOUS
 10
3.333880
 20
1.768360
  0
SEQEND
  8
0
  0
SOLID
  8
0
 62
    15
 10
3.367320
 20
1.745920
 11
4.003120
 21
1.389080
 12
3.391080
 22
1.721720
 13
4.026880
 23
1.364880
  0
POLYLINE
  8
0
  6
CONTINUOUS
 66
     1
 40
0.000000
 41
0.000000
  0
VERTEX
  8
0
  6
CONTINUOUS
 10
3.367320
 20
1.745920
  0
VERTEX
  8
0
  6
CONTINUOUS
 10
4.003120
 20
1.389080
  0
VERTEX
  8
0
  6
CONTINUOUS
 10
4.026880
 20
1.364880
  0
VERTEX
  8
0
  6
CONTINUOUS
 10
3.391080
 20
1.721720
  0
VERTEX
  8
0
  6
CONTINUOUS
 10
3.367320
 20
1.745920
  0
SEQEND
  8
0
  0
SOLID
  8
0
 62
    15
 10
3.391080
 20
1.721720
 11
4.026880
 21
1.364880
 12
3.405600
 22
1.696640
 13
4.041400
 23
1.339800
  0
POLYLINE
  8
0
  6
CONTINUOUS
 66
     1
 40
0.000000
 41
0.000000
  0
VERTEX
  8
0
  6
CONTINUOUS
 10
3.391080
 20
1.721720
  0
VERTEX
  8
0
  6
CONTINUOUS
 10
4.026880
 20
1.364880
  0
VERTEX
  8
0
  6
CONTINUOUS
 10
4.041400
 20
1.339800
  0
VERTEX
  8
0
  6
CONTINUOUS
 10
3.405600
 20
1.696640
  0
VERTEX
  8
0
  6
CONTINUOUS
 10
3.391080
 20
1.721720
  0
SEQEND
  8
0
  0
SOLID
  8
0
 62
    15
 10
3.405600
 20
1.696640
 11
4.041400
 21
1.339800
 12
3.412200
 22
1.671120
 13
4.047560
 23
1.314280
  0
POLYLINE
  8
0
  6
CONTINUOUS
 66
     1
 40
0.000000
 41
0.000000
  0
VERTEX
  8
0
  6
CONTINUOUS
 10
3.405600
 20
1.696640
  0
VERTEX
  8
0
  6
CONTINUOUS
 10
4.041400
 20
1.339800
  0
VERTEX
  8
0
  6
CONTINUOUS
 10
4.047560
 20
1.314280
  0
VERTEX
  8
0
  6
CONTINUOUS
 10
3.412200
 20
1.671120
  0
VERTEX
  8
0
  6
CONTINUOUS
 10
3.405600
 20
1.696640
  0
SEQEND
  8
0
  0
SOLID
  8
0
 62
    15
 10
3.412200
 20
1.671120
 11
4.047560
 21
1.314280
 12
3.411320
 22
1.645160
 13
4.047120
 23
1.288760
  0
POLYLINE
  8
0
  6
CONTINUOUS
 66
     1
 40
0.000000
 41
0.000000
  0
VERTEX
  8
0
  6
CONTINUOUS
 10
3.412200
 20
1.671120
  0
VERTEX
  8
0
  6
CONTINUOUS
 10
4.047560
 20
1.314280
  0
VERTEX
  8
0
  6
CONTINUOUS
 10
4.047120
 20
1.288760
  0
VERTEX
  8
0
  6
CONTINUOUS
 10
3.411320
 20
1.645160
  0
VERTEX
  8
0
  6
CONTINUOUS
 10
3.412200
 20
1.671120
  0
SEQEND
  8
0
  0
SOLID
  8
0
 62
    15
 10
3.411320
 20
1.645160
 11
4.047120
 21
1.288760
 12
3.404280
 22
1.620080
 13
4.040080
 23
1.263680
  0
POLYLINE
  8
0
  6
CONTINUOUS
 66
     1
 40
0.000000
 41
0.000000
  0
VERTEX
  8
0
  6
CONTINUOUS
 10
3.411320
 20
1.645160
  0
VERTEX
  8
0
  6
CONTINUOUS
 10
4.047120
 20
1.288760
  0
VERTEX
  8
0
  6
CONTINUOUS
 10
4.040080
 20
1.263680
  0
VERTEX
  8
0
  6
CONTINUOUS
 10
3.404280
 20
1.620080
  0
VERTEX
  8
0
  6
CONTINUOUS
 10
3.411320
 20
1.645160
  0
SEQEND
  8
0
  0
SOLID
  8
0
 62
    15
 10
3.404280
 20
1.620080
 11
4.040080
 21
1.263680
 12
3.374800
 22
1.573440
 13
4.010600
 23
1.216600
  0
POLYLINE
  8
0
  6
CONTINUOUS
 66
     1
 40
0.000000
 41
0.000000
  0
VERTEX
  8
0
  6
CONTINUOUS
 10
3.404280
 20
1.620080
  0
VERTEX
  8
0
  6
CONTINUOUS
 10
4.040080
 20
1.263680
  0
VERTEX
  8
0
  6
CONTINUOUS
 10
4.010600
 20
1.216600
  0
VERTEX
  8
0
  6
CONTINUOUS
 10
3.374800
 20
1.573440
  0
VERTEX
  8
0
  6
CONTINUOUS
 10
3.404280
 20
1.620080
  0
SEQEND
  8
0
  0
SOLID
  8
0
 62
    15
 10
3.374800
 20
1.573440
 11
4.010600
 21
1.216600
 12
3.331680
 22
1.534720
 13
3.967480
 23
1.178320
  0
POLYLINE
  8
0
  6
CONTINUOUS
 66
     1
 40
0.000000
 41
0.000000
  0
VERTEX
  8
0
  6
CONTINUOUS
 10
3.374800
 20
1.573440
  0
VERTEX
  8
0
  6
CONTINUOUS
 10
4.010600
 20
1.216600
  0
VERTEX
  8
0
  6
CONTINUOUS
 10
3.967480
 20
1.178320
  0
VERTEX
  8
0
  6
CONTINUOUS
 10
3.331680
 20
1.534720
  0
VERTEX
  8
0
  6
CONTINUOUS
 10
3.374800
 20
1.573440
  0
SEQEND
  8
0
  0
SOLID
  8
0
 62
    15
 10
3.331680
 20
1.534720
 11
3.967480
 21
1.178320
 12
3.281960
 22
1.507880
 13
3.917760
 23
1.151480
  0
POLYLINE
  8
0
  6
CONTINUOUS
 66
     1
 40
0.000000
 41
0.000000
  0
VERTEX
  8
0
  6
CONTINUOUS
 10
3.331680
 20
1.534720
  0
VERTEX
  8
0
  6
CONTINUOUS
 10
3.967480
 20
1.178320
  0
VERTEX
  8
0
  6
CONTINUOUS
 10
3.917760
 20
1.151480
  0
VERTEX
  8
0
  6
CONTINUOUS
 10
3.281960
 20
1.507880
  0
VERTEX
  8
0
  6
CONTINUOUS
 10
3.331680
 20
1.534720
  0
SEQEND
  8
0
  0
SOLID
  8
0
 62
    15
 10
3.281960
 20
1.507880
 11
3.917760
 21
1.151480
 12
3.232680
 22
1.497320
 13
3.868480
 23
1.140480
  0
POLYLINE
  8
0
  6
CONTINUOUS
 66
     1
 40
0.000000
 41
0.000000
  0
VERTEX
  8
0
  6
CONTINUOUS
 10
3.281960
 20
1.507880
  0
VERTEX
  8
0
  6
CONTINUOUS
 10
3.917760
 20
1.151480
  0
VERTEX
  8
0
  6
CONTINUOUS
 10
3.868480
 20
1.140480
  0
VERTEX
  8
0
  6
CONTINUOUS
 10
3.232680
 20
1.497320
  0
VERTEX
  8
0
  6
CONTINUOUS
 10
3.281960
 20
1.507880
  0
SEQEND
  8
0
  0
SOLID
  8
0
 62
    15
 10
3.232680
 20
1.497320
 11
3.868480
 21
1.140480
 12
3.230920
 22
1.374120
 13
3.866720
 23
1.017280
  0
POLYLINE
  8
0
  6
CONTINUOUS
 66
     1
 40
0.000000
 41
0.000000
  0
VERTEX
  8
0
  6
CONTINUOUS
 10
3.232680
 20
1.497320
  0
VERTEX
  8
0
  6
CONTINUOUS
 10
3.868480
 20
1.140480
  0
VERTEX
  8
0
  6
CONTINUOUS
 10
3.866720
 20
1.017280
  0
VERTEX
  8
0
  6
CONTINUOUS
 10
3.230920
 20
1.374120
  0
VERTEX
  8
0
  6
CONTINUOUS
 10
3.232680
 20
1.497320
  0
SEQEND
  8
0
  0
SOLID
  8
0
 62
    15
 10
3.230920
 20
1.374120
 11
3.866720
 21
1.017280
 12
3.199240
 22
1.370160
 13
3.835040
 23
1.013760
  0
POLYLINE
  8
0
  6
CONTINUOUS
 66
     1
 40
0.000000
 41
0.000000
  0
VERTEX
  8
0
  6
CONTINUOUS
 10
3.230920
 20
1.374120
  0
VERTEX
  8
0
  6
CONTINUOUS
 10
3.866720
 20
1.017280
  0
VERTEX
  8
0
  6
CONTINUOUS
 10
3.835040
 20
1.013760
  0
VERTEX
  8
0
  6
CONTINUOUS
 10
3.199240
 20
1.370160
  0
VERTEX
  8
0
  6
CONTINUOUS
 10
3.230920
 20
1.374120
  0
SEQEND
  8
0
  0
SOLID
  8
0
 62
    15
 10
3.199240
 20
1.370160
 11
3.835040
 21
1.013760
 12
3.169760
 22
1.360040
 13
3.805560
 23
1.003200
  0
POLYLINE
  8
0
  6
CONTINUOUS
 66
     1
 40
0.000000
 41
0.000000
  0
VERTEX
  8
0
  6
CONTINUOUS
 10
3.199240
 20
1.370160
  0
VERTEX
  8
0
  6
CONTINUOUS
 10
3.835040
 20
1.013760
  0
VERTEX
  8
0
  6
CONTINUOUS
 10
3.805560
 20
1.003200
  0
VERTEX
  8
0
  6
CONTINUOUS
 10
3.169760
 20
1.360040
  0
VERTEX
  8
0
  6
CONTINUOUS
 10
3.199240
 20
1.370160
  0
SEQEND
  8
0
  0
SOLID
  8
0
 62
    15
 10
3.169760
 20
1.360040
 11
3.805560
 21
1.003200
 12
3.118720
 22
1.323520
 13
3.754520
 23
0.966680
  0
POLYLINE
  8
0
  6
CONTINUOUS
 66
     1
 40
0.000000
 41
0.000000
  0
VERTEX
  8
0
  6
CONTINUOUS
 10
3.169760
 20
1.360040
  0
VERTEX
  8
0
  6
CONTINUOUS
 10
3.805560
 20
1.003200
  0
VERTEX
  8
0
  6
CONTINUOUS
 10
3.754520
 20
0.966680
  0
VERTEX
  8
0
  6
CONTINUOUS
 10
3.118720
 20
1.323520
  0
VERTEX
  8
0
  6
CONTINUOUS
 10
3.169760
 20
1.360040
  0
SEQEND
  8
0
  0
SOLID
  8
0
 62
    15
 10
3.118720
 20
1.323520
 11
3.754520
 21
0.966680
 12
3.083080
 22
1.273360
 13
3.718880
 23
0.916520
  0
POLYLINE
  8
0
  6
CONTINUOUS
 66
     1
 40
0.000000
 41
0.000000
  0
VERTEX
  8
0
  6
CONTINUOUS
 10
3.118720
 20
1.323520
  0
VERTEX
  8
0
  6
CONTINUOUS
 10
3.754520
 20
0.966680
  0
VERTEX
  8
0
  6
CONTINUOUS
 10
3.718880
 20
0.916520
  0
VERTEX
  8
0
  6
CONTINUOUS
 10
3.083080
 20
1.273360
  0
VERTEX
  8
0
  6
CONTINUOUS
 10
3.118720
 20
1.323520
  0
SEQEND
  8
0
  0
SOLID
  8
0
 62
    15
 10
3.083080
 20
1.273360
 11
3.718880
 21
0.916520
 12
3.067680
 22
1.219240
 13
3.703480
 23
0.862400
  0
POLYLINE
  8
0
  6
CONTINUOUS
 66
     1
 40
0.000000
 41
0.000000
  0
VERTEX
  8
0
  6
CONTINUOUS
 10
3.083080
 20
1.273360
  0
VERTEX
  8
0
  6
CONTINUOUS
 10
3.718880
 20
0.916520
  0
VERTEX
  8
0
  6
CONTINUOUS
 10
3.703480
 20
0.862400
  0
VERTEX
  8
0
  6
CONTINUOUS
 10
3.067680
 20
1.219240
  0
VERTEX
  8
0
  6
CONTINUOUS
 10
3.083080
 20
1.273360
  0
SEQEND
  8
0
  0
POLYLINE
  8
0
  6
CONTINUOUS
 66
     1
 40
0.000000
 41
0.000000
  0
VERTEX
  8
0
  6
CONTINUOUS
 10
3.067680
 20
1.219240
  0
VERTEX
  8
0
  6
CONTINUOUS
 10
2.883320
 20
1.219240
  0
VERTEX
  8
0
  6
CONTINUOUS
 10
2.883320
 20
2.978360
  0
VERTEX
  8
0
  6
CONTINUOUS
 10
4.098600
 20
2.978360
  0
VERTEX
  8
0
  6
CONTINUOUS
 10
4.098600
 20
2.684880
  0
VERTEX
  8
0
  6
CONTINUOUS
 10
3.997400
 20
2.674320
  0
VERTEX
  8
0
  6
CONTINUOUS
 10
3.902800
 20
2.662440
  0
VERTEX
  8
0
  6
CONTINUOUS
 10
3.814800
 20
2.648360
  0
VERTEX
  8
0
  6
CONTINUOUS
 10
3.733400
 20
2.631640
  0
VERTEX
  8
0
  6
CONTINUOUS
 10
3.658600
 20
2.610960
  0
VERTEX
  8
0
  6
CONTINUOUS
 10
3.589520
 20
2.584560
  0
VERTEX
  8
0
  6
CONTINUOUS
 10
3.527040
 20
2.552440
  0
VERTEX
  8
0
  6
CONTINUOUS
 10
3.471160
 20
2.512840
  0
VERTEX
  8
0
  6
CONTINUOUS
 10
3.420560
 20
2.464880
  0
VERTEX
  8
0
  6
CONTINUOUS
 10
3.376560
 20
2.407680
  0
VERTEX
  8
0
  6
CONTINUOUS
 10
3.338280
 20
2.339920
  0
VERTEX
  8
0
  6
CONTINUOUS
 10
3.305720
 20
2.260720
  0
VERTEX
  8
0
  6
CONTINUOUS
 10
3.278880
 20
2.168760
  0
VERTEX
  8
0
  6
CONTINUOUS
 10
3.258200
 20
2.063160
  0
VERTEX
  8
0
  6
CONTINUOUS
 10
3.242800
 20
1.943040
  0
VERTEX
  8
0
  6
CONTINUOUS
 10
3.232680
 20
1.807520
  0
VERTEX
  8
0
  6
CONTINUOUS
 10
3.289000
 20
1.789040
  0
VERTEX
  8
0
  6
CONTINUOUS
 10
3.333880
 20
1.768360
  0
VERTEX
  8
0
  6
CONTINUOUS
 10
3.367320
 20
1.745920
  0
VERTEX
  8
0
  6
CONTINUOUS
 10
3.391080
 20
1.721720
  0
VERTEX
  8
0
  6
CONTINUOUS
 10
3.405600
 20
1.696640
  0
VERTEX
  8
0
  6
CONTINUOUS
 10
3.412200
 20
1.671120
  0
VERTEX
  8
0
  6
CONTINUOUS
 10
3.411320
 20
1.645160
  0
VERTEX
  8
0
  6
CONTINUOUS
 10
3.404280
 20
1.620080
  0
VERTEX
  8
0
  6
CONTINUOUS
 10
3.374800
 20
1.573440
  0
VERTEX
  8
0
  6
CONTINUOUS
 10
3.331680
 20
1.534720
  0
VERTEX
  8
0
  6
CONTINUOUS
 10
3.281960
 20
1.507880
  0
VERTEX
  8
0
  6
CONTINUOUS
 10
3.232680
 20
1.497320
  0
VERTEX
  8
0
  6
CONTINUOUS
 10
3.230920
 20
1.374120
  0
VERTEX
  8
0
  6
CONTINUOUS
 10
3.199240
 20
1.370160
  0
VERTEX
  8
0
  6
CONTINUOUS
 10
3.169760
 20
1.360040
  0
VERTEX
  8
0
  6
CONTINUOUS
 10
3.118720
 20
1.323520
  0
VERTEX
  8
0
  6
CONTINUOUS
 10
3.083080
 20
1.273360
  0
VERTEX
  8
0
  6
CONTINUOUS
 10
3.067680
 20
1.219240
  0
SEQEND
  8
0
  0
TEXT
  8
0
 10
4.502960
 20
1.058200
 40
0.138108
  1
BA  1159
 41
1.000000
  7
SN0
 71
     0
 72
     5
 11
5.185729
 21
1.058200
  0
TEXT
  8
0
 10
4.319480
 20
0.866800
 40
0.138108
  1
1-1/4" x 1-3/4"
 41
1.000000
  7
SN0
 71
     0
 72
     5
 11
5.368907
 21
0.866800
  0
POLYLINE
  8
0
  6
CONTINUOUS
 66
     1
 40
0.014080
 41
0.014080
  0
VERTEX
  8
0
  6
CONTINUOUS
 10
7.806920
 20
2.356200
  0
VERTEX
  8
0
  6
CONTINUOUS
 10
7.806920
 20
2.171400
  0
VERTEX
  8
0
  6
CONTINUOUS
 10
6.047800
 20
2.171400
  0
VERTEX
  8
0
  6
CONTINUOUS
 10
6.047800
 20
3.387120
  0
VERTEX
  8
0
  6
CONTINUOUS
 10
6.340840
 20
3.387120
  0
VERTEX
  8
0
  6
CONTINUOUS
 10
6.357560
 20
3.237960
  0
VERTEX
  8
0
  6
CONTINUOUS
 10
6.377360
 20
3.103320
  0
VERTEX
  8
0
  6
CONTINUOUS
 10
6.394080
 20
3.021920
  0
VERTEX
  8
0
  6
CONTINUOUS
 10
6.415200
 20
2.946680
  0
VERTEX
  8
0
  6
CONTINUOUS
 10
6.427520
 20
2.911480
  0
VERTEX
  8
0
  6
CONTINUOUS
 10
6.441160
 20
2.878040
  0
VERTEX
  8
0
  6
CONTINUOUS
 10
6.456560
 20
2.845920
  0
VERTEX
  8
0
  6
CONTINUOUS
 10
6.473720
 20
2.815560
  0
VERTEX
  8
0
  6
CONTINUOUS
 10
6.502760
 20
2.772880
  0
VERTEX
  8
0
  6
CONTINUOUS
 10
6.536200
 20
2.733280
  0
VERTEX
  8
0
  6
CONTINUOUS
 10
6.574480
 20
2.697640
  0
VERTEX
  8
0
  6
CONTINUOUS
 10
6.603080
 20
2.675200
  0
VERTEX
  8
0
  6
CONTINUOUS
 10
6.651040
 20
2.644840
  0
VERTEX
  8
0
  6
CONTINUOUS
 10
6.704720
 20
2.618000
  0
VERTEX
  8
0
  6
CONTINUOUS
 10
6.765440
 20
2.594240
  0
VERTEX
  8
0
  6
CONTINUOUS
 10
6.833200
 20
2.573560
  0
VERTEX
  8
0
  6
CONTINUOUS
 10
6.908440
 20
2.556400
  0
VERTEX
  8
0
  6
CONTINUOUS
 10
6.962560
 20
2.546720
  0
VERTEX
  8
0
  6
CONTINUOUS
 10
7.051440
 20
2.534400
  0
VERTEX
  8
0
  6
CONTINUOUS
 10
7.183000
 20
2.522960
  0
VERTEX
  8
0
  6
CONTINUOUS
 10
7.218640
 20
2.521200
  0
VERTEX
  8
0
  6
CONTINUOUS
 10
7.236680
 20
2.577520
  0
VERTEX
  8
0
  6
CONTINUOUS
 10
7.257360
 20
2.621960
  0
VERTEX
  8
0
  6
CONTINUOUS
 10
7.274080
 20
2.648360
  0
VERTEX
  8
0
  6
CONTINUOUS
 10
7.292120
 20
2.668600
  0
VERTEX
  8
0
  6
CONTINUOUS
 10
7.304440
 20
2.679600
  0
VERTEX
  8
0
  6
CONTINUOUS
 10
7.316760
 20
2.687960
  0
VERTEX
  8
0
  6
CONTINUOUS
 10
7.329520
 20
2.694120
  0
VERTEX
  8
0
  6
CONTINUOUS
 10
7.342280
 20
2.698080
  0
VERTEX
  8
0
  6
CONTINUOUS
 10
7.355040
 20
2.700280
  0
VERTEX
  8
0
  6
CONTINUOUS
 10
7.367800
 20
2.700720
  0
VERTEX
  8
0
  6
CONTINUOUS
 10
7.380560
 20
2.699840
  0
VERTEX
  8
0
  6
CONTINUOUS
 10
7.405640
 20
2.692800
  0
VERTEX
  8
0
  6
CONTINUOUS
 10
7.429840
 20
2.680040
  0
VERTEX
  8
0
  6
CONTINUOUS
 10
7.452720
 20
2.663320
  0
VERTEX
  8
0
  6
CONTINUOUS
 10
7.482640
 20
2.632080
  0
VERTEX
  8
0
  6
CONTINUOUS
 10
7.506400
 20
2.595560
  0
VERTEX
  8
0
  6
CONTINUOUS
 10
7.517840
 20
2.570480
  0
VERTEX
  8
0
  6
CONTINUOUS
 10
7.525760
 20
2.544960
  0
VERTEX
  8
0
  6
CONTINUOUS
 10
7.528840
 20
2.521200
  0
VERTEX
  8
0
  6
CONTINUOUS
 10
7.652040
 20
2.519000
  0
VERTEX
  8
0
  6
CONTINUOUS
 10
7.652920
 20
2.503160
  0
VERTEX
  8
0
  6
CONTINUOUS
 10
7.655560
 20
2.487760
  0
VERTEX
  8
0
  6
CONTINUOUS
 10
7.666120
 20
2.458280
  0
VERTEX
  8
0
  6
CONTINUOUS
 10
7.681960
 20
2.431000
  0
VERTEX
  8
0
  6
CONTINUOUS
 10
7.702640
 20
2.407240
  0
VERTEX
  8
0
  6
CONTINUOUS
 10
7.726400
 20
2.387000
  0
VERTEX
  8
0
  6
CONTINUOUS
 10
7.752360
 20
2.371160
  0
VERTEX
  8
0
  6
CONTINUOUS
 10
7.779640
 20
2.361040
  0
VERTEX
  8
0
  6
CONTINUOUS
 10
7.806920
 20
2.356200
  0
SEQEND
  8
0
  0
TEXT
  8
0
 10
6.387480
 20
2.398440
 40
0.138108
  1
BA  1159
 41
1.000000
  7
SN0
 71
     0
 72
     5
 11
7.070249
 21
2.398440
  0
TEXT
  8
0
 10
6.204000
 20
2.207040
 40
0.138108
  1
1-1/4" x 1-3/4"
 41
1.000000
  7
SN0
 71
     0
 72
     5
 11
7.253427
 21
2.207040
  0
ENDSEC
  0
EOF
