  0
SECTION
  2
HEADER
  9
$ACADVER
  1
AC1006
  9
$EXTMIN
 10
1.678160
 20
0.757240
  9
$EXTMAX
 10
7.990840
 20
9.322280
  9
$LTSCALE
 40
0.044000
  9
$PDMODE
 70
    35
  9
$PDSIZE
 40
0.035200
  0
ENDSEC
  0
SECTION
  2
TABLES
  0
TABLE
  2
LTYPE
 70
     9
  0
LTYPE
  2
CONTINUOUS
 70
    64
  3
Solid line
 72
    65
 73
     0
 40
0.000000
  0
LTYPE
  2
DASHED
 70
    64
  3
__ __ __ __ __ __ __ __ __ __ __ __ __ __ __
 72
    65
 73
     2
 40
0.000330
 49
0.000220
 49
-0.000110
  0
LTYPE
  2
HIDDEN
 70
    64
  3
 _ _ _ _ _ _ _ _ _ _ _ _ _ _ _ _ _ _ _ _ _ _
 72
    65
 73
     2
 40
0.000165
 49
0.000110
 49
-0.000055
  0
LTYPE
  2
CENTER
 70
    64
  3
____ _ ____ _ ____ _ ____ _ ____ _ ____ _ ____
 72
    65
 73
     4
 40
0.000880
 49
0.000550
 49
-0.000110
 49
0.000110
 49
-0.000110
  0
LTYPE
  2
PHANTOM
 70
    64
  3
_____ _ _ _____ _ _ _____ _ _ _____ _ _ ____
 72
    65
 73
     6
 40
0.001100
 49
0.000550
 49
-0.000110
 49
0.000110
 49
-0.000110
 49
0.000110
 49
-0.000110
  0
LTYPE
  2
DOT
 70
    64
  3
...............................................
 72
    65
 73
     2
 40
0.000110
 49
0.000000
 49
-0.000110
  0
LTYPE
  2
DASHDOT
 70
    64
  3
__ . __ . __ . __ . __ . __ . __ . __ . __ . __
 72
    65
 73
     4
 40
0.000440
 49
0.000220
 49
-0.000110
 49
0.000000
 49
-0.000110
  0
LTYPE
  2
BORDER
 70
    64
  3
__ __ . __ __ . __ __ . __ __ . __ __ . __ __
 72
    65
 73
     6
 40
0.000770
 49
0.000220
 49
-0.000110
 49
0.000220
 49
-0.000110
 49
0.000000
 49
-0.000110
  0
LTYPE
  2
DIVIDE
 70
    64
  3
__ . . __ . . __ . . __ . . __ . . __ . . __
 72
    65
 73
     6
 40
0.000550
 49
0.000220
 49
-0.000110
 49
0.000000
 49
-0.000110
 49
0.000000
 49
-0.000110
  0
LTYPE
  2
DOTDOT
 70
    64
  3
 . .  . .  . .  . .  . .  . . 
 72
    65
 73
     5
 40
0.000242
 49
-0.000110
 49
0.000000
 49
-0.000110
 49
0.000000
 49
-0.000110
  0
ENDTAB
  0
TABLE
  2
STYLE
 70
     2
  0
STYLE
 70
     0
  2
SN0
 40
0.000000
 41
0.000440
 50
0.000000
 71
     0
 42
0.000000
  3
ROMAND
  0
STYLE
 70
    68
  2
SV0
 40
0.000000
 41
0.000440
 50
0.000000
 71
     0
 42
0.000000
  3
ROMAND
  0
ENDTAB
  0
TABLE
  2
LAYER
 70
     3
  0
LAYER
  2
FOREGROUND
 70
    64
 62
     7
  6
CONTINUOUS
  0
LAYER
  2
BACKGROUND
 70
    65
 62
    -7
  6
CONTINUOUS
  0
LAYER
  2
0
 70
    64
 62
     7
  6
CONTINUOUS
  0
ENDTAB
  0
ENDSEC
  0
SECTION
  2
ENTITIES
  0
POLYLINE
  8
FOREGROUND
  6
CONTINUOUS
 66
     1
 40
0.000000
 41
0.000000
  0
VERTEX
  8
FOREGROUND
  6
CONTINUOUS
 10
0.000000
 20
10.079520
  0
VERTEX
  8
FOREGROUND
  6
CONTINUOUS
 10
8.499920
 20
10.079520
  0
VERTEX
  8
FOREGROUND
  6
CONTINUOUS
 10
8.499920
 20
-0.920480
  0
VERTEX
  8
FOREGROUND
  6
CONTINUOUS
 10
0.000000
 20
-0.920480
  0
VERTEX
  8
FOREGROUND
  6
CONTINUOUS
 10
0.000000
 20
10.079520
  0
SEQEND
  8
0
  0
POLYLINE
  8
FOREGROUND
  6
CONTINUOUS
 66
     1
 40
0.000000
 41
0.000000
  0
VERTEX
  8
FOREGROUND
  6
CONTINUOUS
 10
0.000000
 20
10.079520
  0
VERTEX
  8
FOREGROUND
  6
CONTINUOUS
 10
8.499920
 20
10.079520
  0
VERTEX
  8
FOREGROUND
  6
CONTINUOUS
 10
8.499920
 20
-0.920480
  0
VERTEX
  8
FOREGROUND
  6
CONTINUOUS
 10
0.000000
 20
-0.920480
  0
VERTEX
  8
FOREGROUND
  6
CONTINUOUS
 10
0.000000
 20
10.079520
  0
SEQEND
  8
0
  0
SOLID
  8
0
 62
    15
 10
2.245760
 20
7.282880
 11
2.889040
 21
7.636640
 12
2.269960
 22
7.228760
 13
2.913240
 23
7.582520
  0
POLYLINE
  8
0
  6
CONTINUOUS
 66
     1
 40
0.000000
 41
0.000000
  0
VERTEX
  8
0
  6
CONTINUOUS
 10
2.245760
 20
7.282880
  0
VERTEX
  8
0
  6
CONTINUOUS
 10
2.889040
 20
7.636640
  0
VERTEX
  8
0
  6
CONTINUOUS
 10
2.913240
 20
7.582520
  0
VERTEX
  8
0
  6
CONTINUOUS
 10
2.269960
 20
7.228760
  0
VERTEX
  8
0
  6
CONTINUOUS
 10
2.245760
 20
7.282880
  0
SEQEND
  8
0
  0
SOLID
  8
0
 62
    15
 10
1.755600
 20
7.634000
 11
2.398880
 21
7.987760
 12
1.822480
 22
7.623000
 13
2.466200
 23
7.976760
  0
POLYLINE
  8
0
  6
CONTINUOUS
 66
     1
 40
0.000000
 41
0.000000
  0
VERTEX
  8
0
  6
CONTINUOUS
 10
1.755600
 20
7.634000
  0
VERTEX
  8
0
  6
CONTINUOUS
 10
2.398880
 20
7.987760
  0
VERTEX
  8
0
  6
CONTINUOUS
 10
2.466200
 20
7.976760
  0
VERTEX
  8
0
  6
CONTINUOUS
 10
1.822480
 20
7.623000
  0
VERTEX
  8
0
  6
CONTINUOUS
 10
1.755600
 20
7.634000
  0
SEQEND
  8
0
  0
SOLID
  8
0
 62
    15
 10
1.822480
 20
7.623000
 11
2.466200
 21
7.976760
 12
1.885840
 22
7.605400
 13
2.529120
 23
7.959160
  0
POLYLINE
  8
0
  6
CONTINUOUS
 66
     1
 40
0.000000
 41
0.000000
  0
VERTEX
  8
0
  6
CONTINUOUS
 10
1.822480
 20
7.623000
  0
VERTEX
  8
0
  6
CONTINUOUS
 10
2.466200
 20
7.976760
  0
VERTEX
  8
0
  6
CONTINUOUS
 10
2.529120
 20
7.959160
  0
VERTEX
  8
0
  6
CONTINUOUS
 10
1.885840
 20
7.605400
  0
VERTEX
  8
0
  6
CONTINUOUS
 10
1.822480
 20
7.623000
  0
SEQEND
  8
0
  0
SOLID
  8
0
 62
    15
 10
1.885840
 20
7.605400
 11
2.529120
 21
7.959160
 12
1.945680
 22
7.581200
 13
2.588960
 23
7.934960
  0
POLYLINE
  8
0
  6
CONTINUOUS
 66
     1
 40
0.000000
 41
0.000000
  0
VERTEX
  8
0
  6
CONTINUOUS
 10
1.885840
 20
7.605400
  0
VERTEX
  8
0
  6
CONTINUOUS
 10
2.529120
 20
7.959160
  0
VERTEX
  8
0
  6
CONTINUOUS
 10
2.588960
 20
7.934960
  0
VERTEX
  8
0
  6
CONTINUOUS
 10
1.945680
 20
7.581200
  0
VERTEX
  8
0
  6
CONTINUOUS
 10
1.885840
 20
7.605400
  0
SEQEND
  8
0
  0
SOLID
  8
0
 62
    15
 10
1.945680
 20
7.581200
 11
2.588960
 21
7.934960
 12
2.001120
 22
7.551280
 13
2.644840
 23
7.905040
  0
POLYLINE
  8
0
  6
CONTINUOUS
 66
     1
 40
0.000000
 41
0.000000
  0
VERTEX
  8
0
  6
CONTINUOUS
 10
1.945680
 20
7.581200
  0
VERTEX
  8
0
  6
CONTINUOUS
 10
2.588960
 20
7.934960
  0
VERTEX
  8
0
  6
CONTINUOUS
 10
2.644840
 20
7.905040
  0
VERTEX
  8
0
  6
CONTINUOUS
 10
2.001120
 20
7.551280
  0
VERTEX
  8
0
  6
CONTINUOUS
 10
1.945680
 20
7.581200
  0
SEQEND
  8
0
  0
SOLID
  8
0
 62
    15
 10
2.001120
 20
7.551280
 11
2.644840
 21
7.905040
 12
2.053040
 22
7.516080
 13
2.696320
 23
7.869840
  0
POLYLINE
  8
0
  6
CONTINUOUS
 66
     1
 40
0.000000
 41
0.000000
  0
VERTEX
  8
0
  6
CONTINUOUS
 10
2.001120
 20
7.551280
  0
VERTEX
  8
0
  6
CONTINUOUS
 10
2.644840
 20
7.905040
  0
VERTEX
  8
0
  6
CONTINUOUS
 10
2.696320
 20
7.869840
  0
VERTEX
  8
0
  6
CONTINUOUS
 10
2.053040
 20
7.516080
  0
VERTEX
  8
0
  6
CONTINUOUS
 10
2.001120
 20
7.551280
  0
SEQEND
  8
0
  0
SOLID
  8
0
 62
    15
 10
2.053040
 20
7.516080
 11
2.696320
 21
7.869840
 12
2.100560
 22
7.476480
 13
2.743840
 23
7.830240
  0
POLYLINE
  8
0
  6
CONTINUOUS
 66
     1
 40
0.000000
 41
0.000000
  0
VERTEX
  8
0
  6
CONTINUOUS
 10
2.053040
 20
7.516080
  0
VERTEX
  8
0
  6
CONTINUOUS
 10
2.696320
 20
7.869840
  0
VERTEX
  8
0
  6
CONTINUOUS
 10
2.743840
 20
7.830240
  0
VERTEX
  8
0
  6
CONTINUOUS
 10
2.100560
 20
7.476480
  0
VERTEX
  8
0
  6
CONTINUOUS
 10
2.053040
 20
7.516080
  0
SEQEND
  8
0
  0
SOLID
  8
0
 62
    15
 10
2.100560
 20
7.476480
 11
2.743840
 21
7.830240
 12
2.143680
 22
7.432920
 13
2.786960
 23
7.786680
  0
POLYLINE
  8
0
  6
CONTINUOUS
 66
     1
 40
0.000000
 41
0.000000
  0
VERTEX
  8
0
  6
CONTINUOUS
 10
2.100560
 20
7.476480
  0
VERTEX
  8
0
  6
CONTINUOUS
 10
2.743840
 20
7.830240
  0
VERTEX
  8
0
  6
CONTINUOUS
 10
2.786960
 20
7.786680
  0
VERTEX
  8
0
  6
CONTINUOUS
 10
2.143680
 20
7.432920
  0
VERTEX
  8
0
  6
CONTINUOUS
 10
2.100560
 20
7.476480
  0
SEQEND
  8
0
  0
SOLID
  8
0
 62
    15
 10
2.143680
 20
7.432920
 11
2.786960
 21
7.786680
 12
2.182400
 22
7.385400
 13
2.825680
 23
7.739600
  0
POLYLINE
  8
0
  6
CONTINUOUS
 66
     1
 40
0.000000
 41
0.000000
  0
VERTEX
  8
0
  6
CONTINUOUS
 10
2.143680
 20
7.432920
  0
VERTEX
  8
0
  6
CONTINUOUS
 10
2.786960
 20
7.786680
  0
VERTEX
  8
0
  6
CONTINUOUS
 10
2.825680
 20
7.739600
  0
VERTEX
  8
0
  6
CONTINUOUS
 10
2.182400
 20
7.385400
  0
VERTEX
  8
0
  6
CONTINUOUS
 10
2.143680
 20
7.432920
  0
SEQEND
  8
0
  0
SOLID
  8
0
 62
    15
 10
2.182400
 20
7.385400
 11
2.825680
 21
7.739600
 12
2.216280
 22
7.335680
 13
2.859560
 23
7.689440
  0
POLYLINE
  8
0
  6
CONTINUOUS
 66
     1
 40
0.000000
 41
0.000000
  0
VERTEX
  8
0
  6
CONTINUOUS
 10
2.182400
 20
7.385400
  0
VERTEX
  8
0
  6
CONTINUOUS
 10
2.825680
 20
7.739600
  0
VERTEX
  8
0
  6
CONTINUOUS
 10
2.859560
 20
7.689440
  0
VERTEX
  8
0
  6
CONTINUOUS
 10
2.216280
 20
7.335680
  0
VERTEX
  8
0
  6
CONTINUOUS
 10
2.182400
 20
7.385400
  0
SEQEND
  8
0
  0
SOLID
  8
0
 62
    15
 10
2.216280
 20
7.335680
 11
2.859560
 21
7.689440
 12
2.245760
 22
7.282880
 13
2.889040
 23
7.636640
  0
POLYLINE
  8
0
  6
CONTINUOUS
 66
     1
 40
0.000000
 41
0.000000
  0
VERTEX
  8
0
  6
CONTINUOUS
 10
2.216280
 20
7.335680
  0
VERTEX
  8
0
  6
CONTINUOUS
 10
2.859560
 20
7.689440
  0
VERTEX
  8
0
  6
CONTINUOUS
 10
2.889040
 20
7.636640
  0
VERTEX
  8
0
  6
CONTINUOUS
 10
2.245760
 20
7.282880
  0
VERTEX
  8
0
  6
CONTINUOUS
 10
2.216280
 20
7.335680
  0
SEQEND
  8
0
  0
SOLID
  8
0
 62
    15
 10
1.685200
 20
7.637520
 11
2.328480
 21
7.991280
 12
1.755600
 22
7.634000
 13
2.398880
 23
7.987760
  0
POLYLINE
  8
0
  6
CONTINUOUS
 66
     1
 40
0.000000
 41
0.000000
  0
VERTEX
  8
0
  6
CONTINUOUS
 10
1.685200
 20
7.637520
  0
VERTEX
  8
0
  6
CONTINUOUS
 10
2.328480
 20
7.991280
  0
VERTEX
  8
0
  6
CONTINUOUS
 10
2.398880
 20
7.987760
  0
VERTEX
  8
0
  6
CONTINUOUS
 10
1.755600
 20
7.634000
  0
VERTEX
  8
0
  6
CONTINUOUS
 10
1.685200
 20
7.637520
  0
SEQEND
  8
0
  0
SOLID
  8
0
 62
    15
 10
2.269960
 20
7.228760
 11
2.913240
 21
7.582520
 12
2.288880
 22
7.173320
 13
2.932160
 23
7.527080
  0
POLYLINE
  8
0
  6
CONTINUOUS
 66
     1
 40
0.000000
 41
0.000000
  0
VERTEX
  8
0
  6
CONTINUOUS
 10
2.269960
 20
7.228760
  0
VERTEX
  8
0
  6
CONTINUOUS
 10
2.913240
 20
7.582520
  0
VERTEX
  8
0
  6
CONTINUOUS
 10
2.932160
 20
7.527080
  0
VERTEX
  8
0
  6
CONTINUOUS
 10
2.288880
 20
7.173320
  0
VERTEX
  8
0
  6
CONTINUOUS
 10
2.269960
 20
7.228760
  0
SEQEND
  8
0
  0
SOLID
  8
0
 62
    15
 10
2.288880
 20
7.173320
 11
2.932160
 21
7.527080
 12
2.302960
 22
7.117000
 13
2.946240
 23
7.471200
  0
POLYLINE
  8
0
  6
CONTINUOUS
 66
     1
 40
0.000000
 41
0.000000
  0
VERTEX
  8
0
  6
CONTINUOUS
 10
2.288880
 20
7.173320
  0
VERTEX
  8
0
  6
CONTINUOUS
 10
2.932160
 20
7.527080
  0
VERTEX
  8
0
  6
CONTINUOUS
 10
2.946240
 20
7.471200
  0
VERTEX
  8
0
  6
CONTINUOUS
 10
2.302960
 20
7.117000
  0
VERTEX
  8
0
  6
CONTINUOUS
 10
2.288880
 20
7.173320
  0
SEQEND
  8
0
  0
SOLID
  8
0
 62
    15
 10
2.302960
 20
7.117000
 11
2.946240
 21
7.471200
 12
2.311320
 22
7.061120
 13
2.954600
 23
7.414880
  0
POLYLINE
  8
0
  6
CONTINUOUS
 66
     1
 40
0.000000
 41
0.000000
  0
VERTEX
  8
0
  6
CONTINUOUS
 10
2.302960
 20
7.117000
  0
VERTEX
  8
0
  6
CONTINUOUS
 10
2.946240
 20
7.471200
  0
VERTEX
  8
0
  6
CONTINUOUS
 10
2.954600
 20
7.414880
  0
VERTEX
  8
0
  6
CONTINUOUS
 10
2.311320
 20
7.061120
  0
VERTEX
  8
0
  6
CONTINUOUS
 10
2.302960
 20
7.117000
  0
SEQEND
  8
0
  0
SOLID
  8
0
 62
    15
 10
2.311320
 20
7.061120
 11
2.954600
 21
7.414880
 12
2.313960
 22
7.005240
 13
2.957240
 23
7.359000
  0
POLYLINE
  8
0
  6
CONTINUOUS
 66
     1
 40
0.000000
 41
0.000000
  0
VERTEX
  8
0
  6
CONTINUOUS
 10
2.311320
 20
7.061120
  0
VERTEX
  8
0
  6
CONTINUOUS
 10
2.954600
 20
7.414880
  0
VERTEX
  8
0
  6
CONTINUOUS
 10
2.957240
 20
7.359000
  0
VERTEX
  8
0
  6
CONTINUOUS
 10
2.313960
 20
7.005240
  0
VERTEX
  8
0
  6
CONTINUOUS
 10
2.311320
 20
7.061120
  0
SEQEND
  8
0
  0
SOLID
  8
0
 62
    15
 10
2.313960
 20
7.005240
 11
2.957240
 21
7.359000
 12
2.431440
 22
7.005240
 13
3.074720
 23
7.359000
  0
POLYLINE
  8
0
  6
CONTINUOUS
 66
     1
 40
0.000000
 41
0.000000
  0
VERTEX
  8
0
  6
CONTINUOUS
 10
2.313960
 20
7.005240
  0
VERTEX
  8
0
  6
CONTINUOUS
 10
2.957240
 20
7.359000
  0
VERTEX
  8
0
  6
CONTINUOUS
 10
3.074720
 20
7.359000
  0
VERTEX
  8
0
  6
CONTINUOUS
 10
2.431440
 20
7.005240
  0
VERTEX
  8
0
  6
CONTINUOUS
 10
2.313960
 20
7.005240
  0
SEQEND
  8
0
  0
SOLID
  8
0
 62
    15
 10
2.296800
 20
6.371640
 11
2.940080
 21
6.725400
 12
2.296800
 22
6.217200
 13
2.940080
 23
6.570960
  0
POLYLINE
  8
0
  6
CONTINUOUS
 66
     1
 40
0.000000
 41
0.000000
  0
VERTEX
  8
0
  6
CONTINUOUS
 10
2.296800
 20
6.371640
  0
VERTEX
  8
0
  6
CONTINUOUS
 10
2.940080
 20
6.725400
  0
VERTEX
  8
0
  6
CONTINUOUS
 10
2.940080
 20
6.570960
  0
VERTEX
  8
0
  6
CONTINUOUS
 10
2.296800
 20
6.217200
  0
VERTEX
  8
0
  6
CONTINUOUS
 10
2.296800
 20
6.371640
  0
SEQEND
  8
0
  0
SOLID
  8
0
 62
    15
 10
2.431440
 20
7.005240
 11
3.074720
 21
7.359000
 12
2.432320
 22
6.383960
 13
3.075600
 23
6.737720
  0
POLYLINE
  8
0
  6
CONTINUOUS
 66
     1
 40
0.000000
 41
0.000000
  0
VERTEX
  8
0
  6
CONTINUOUS
 10
2.431440
 20
7.005240
  0
VERTEX
  8
0
  6
CONTINUOUS
 10
3.074720
 20
7.359000
  0
VERTEX
  8
0
  6
CONTINUOUS
 10
3.075600
 20
6.737720
  0
VERTEX
  8
0
  6
CONTINUOUS
 10
2.432320
 20
6.383960
  0
VERTEX
  8
0
  6
CONTINUOUS
 10
2.431440
 20
7.005240
  0
SEQEND
  8
0
  0
SOLID
  8
0
 62
    15
 10
2.296800
 20
6.217200
 11
2.940080
 21
6.570960
 12
2.432320
 22
6.209280
 13
3.075600
 23
6.563040
  0
POLYLINE
  8
0
  6
CONTINUOUS
 66
     1
 40
0.000000
 41
0.000000
  0
VERTEX
  8
0
  6
CONTINUOUS
 10
2.296800
 20
6.217200
  0
VERTEX
  8
0
  6
CONTINUOUS
 10
2.940080
 20
6.570960
  0
VERTEX
  8
0
  6
CONTINUOUS
 10
3.075600
 20
6.563040
  0
VERTEX
  8
0
  6
CONTINUOUS
 10
2.432320
 20
6.209280
  0
VERTEX
  8
0
  6
CONTINUOUS
 10
2.296800
 20
6.217200
  0
SEQEND
  8
0
  0
SOLID
  8
0
 62
    15
 10
2.432320
 20
6.209280
 11
3.075600
 21
6.563040
 12
2.432320
 22
1.341560
 13
3.075600
 23
1.695320
  0
POLYLINE
  8
0
  6
CONTINUOUS
 66
     1
 40
0.000000
 41
0.000000
  0
VERTEX
  8
0
  6
CONTINUOUS
 10
2.432320
 20
6.209280
  0
VERTEX
  8
0
  6
CONTINUOUS
 10
3.075600
 20
6.563040
  0
VERTEX
  8
0
  6
CONTINUOUS
 10
3.075600
 20
1.695320
  0
VERTEX
  8
0
  6
CONTINUOUS
 10
2.432320
 20
1.341560
  0
VERTEX
  8
0
  6
CONTINUOUS
 10
2.432320
 20
6.209280
  0
SEQEND
  8
0
  0
SOLID
  8
0
 62
    15
 10
2.432320
 20
1.341560
 11
3.075600
 21
1.695320
 12
2.432320
 22
1.339360
 13
3.075600
 23
1.693120
  0
POLYLINE
  8
0
  6
CONTINUOUS
 66
     1
 40
0.000000
 41
0.000000
  0
VERTEX
  8
0
  6
CONTINUOUS
 10
2.432320
 20
1.341560
  0
VERTEX
  8
0
  6
CONTINUOUS
 10
3.075600
 20
1.695320
  0
VERTEX
  8
0
  6
CONTINUOUS
 10
3.075600
 20
1.693120
  0
VERTEX
  8
0
  6
CONTINUOUS
 10
2.432320
 20
1.339360
  0
VERTEX
  8
0
  6
CONTINUOUS
 10
2.432320
 20
1.341560
  0
SEQEND
  8
0
  0
POLYLINE
  8
0
  6
CONTINUOUS
 66
     1
 40
0.000000
 41
0.000000
  0
VERTEX
  8
0
  6
CONTINUOUS
 10
2.432320
 20
1.339360
  0
VERTEX
  8
0
  6
CONTINUOUS
 10
1.686080
 20
1.339360
  0
VERTEX
  8
0
  6
CONTINUOUS
 10
1.685200
 20
7.637520
  0
VERTEX
  8
0
  6
CONTINUOUS
 10
1.755600
 20
7.634000
  0
VERTEX
  8
0
  6
CONTINUOUS
 10
1.822480
 20
7.623000
  0
VERTEX
  8
0
  6
CONTINUOUS
 10
1.885840
 20
7.605400
  0
VERTEX
  8
0
  6
CONTINUOUS
 10
1.945680
 20
7.581200
  0
VERTEX
  8
0
  6
CONTINUOUS
 10
2.001120
 20
7.551280
  0
VERTEX
  8
0
  6
CONTINUOUS
 10
2.053040
 20
7.516080
  0
VERTEX
  8
0
  6
CONTINUOUS
 10
2.100560
 20
7.476480
  0
VERTEX
  8
0
  6
CONTINUOUS
 10
2.143680
 20
7.432920
  0
VERTEX
  8
0
  6
CONTINUOUS
 10
2.182400
 20
7.385400
  0
VERTEX
  8
0
  6
CONTINUOUS
 10
2.216280
 20
7.335680
  0
VERTEX
  8
0
  6
CONTINUOUS
 10
2.245760
 20
7.282880
  0
VERTEX
  8
0
  6
CONTINUOUS
 10
2.269960
 20
7.228760
  0
VERTEX
  8
0
  6
CONTINUOUS
 10
2.288880
 20
7.173320
  0
VERTEX
  8
0
  6
CONTINUOUS
 10
2.302960
 20
7.117000
  0
VERTEX
  8
0
  6
CONTINUOUS
 10
2.311320
 20
7.061120
  0
VERTEX
  8
0
  6
CONTINUOUS
 10
2.313960
 20
7.005240
  0
VERTEX
  8
0
  6
CONTINUOUS
 10
2.431440
 20
7.005240
  0
VERTEX
  8
0
  6
CONTINUOUS
 10
2.432320
 20
6.383960
  0
VERTEX
  8
0
  6
CONTINUOUS
 10
2.296800
 20
6.371640
  0
VERTEX
  8
0
  6
CONTINUOUS
 10
2.296800
 20
6.217200
  0
VERTEX
  8
0
  6
CONTINUOUS
 10
2.432320
 20
6.209280
  0
VERTEX
  8
0
  6
CONTINUOUS
 10
2.432320
 20
1.341560
  0
VERTEX
  8
0
  6
CONTINUOUS
 10
2.432320
 20
1.339360
  0
SEQEND
  8
0
  0
TEXT
  8
0
 10
2.038960
 20
0.993080
 40
0.138188
  1
BA  1158
 41
1.000000
  7
SN0
 71
     0
 72
     5
 11
2.720309
 21
0.993080
  0
TEXT
  8
0
 10
1.883200
 20
0.801240
 40
0.138188
  1
3/4" x 6-5/16"
 41
1.000000
  7
SN0
 71
     0
 72
     5
 11
2.875032
 21
0.801240
  0
POLYLINE
  8
0
  6
CONTINUOUS
 66
     1
 40
0.014080
 41
0.014080
  0
VERTEX
  8
0
  6
CONTINUOUS
 10
1.687840
 20
8.813200
  0
VERTEX
  8
0
  6
CONTINUOUS
 10
1.687840
 20
9.314360
  0
VERTEX
  8
0
  6
CONTINUOUS
 10
6.555560
 20
9.314360
  0
VERTEX
  8
0
  6
CONTINUOUS
 10
6.563480
 20
9.178840
  0
VERTEX
  8
0
  6
CONTINUOUS
 10
6.717480
 20
9.178840
  0
VERTEX
  8
0
  6
CONTINUOUS
 10
6.730240
 20
9.314360
  0
VERTEX
  8
0
  6
CONTINUOUS
 10
7.351520
 20
9.313920
  0
VERTEX
  8
0
  6
CONTINUOUS
 10
7.351520
 20
9.196440
  0
VERTEX
  8
0
  6
CONTINUOUS
 10
7.379240
 20
9.195560
  0
VERTEX
  8
0
  6
CONTINUOUS
 10
7.406960
 20
9.193800
  0
VERTEX
  8
0
  6
CONTINUOUS
 10
7.435120
 20
9.190280
  0
VERTEX
  8
0
  6
CONTINUOUS
 10
7.463280
 20
9.185000
  0
VERTEX
  8
0
  6
CONTINUOUS
 10
7.491440
 20
9.178840
  0
VERTEX
  8
0
  6
CONTINUOUS
 10
7.519160
 20
9.171360
  0
VERTEX
  8
0
  6
CONTINUOUS
 10
7.547320
 20
9.162560
  0
VERTEX
  8
0
  6
CONTINUOUS
 10
7.574600
 20
9.152000
  0
VERTEX
  8
0
  6
CONTINUOUS
 10
7.602320
 20
9.140560
  0
VERTEX
  8
0
  6
CONTINUOUS
 10
7.629160
 20
9.127800
  0
VERTEX
  8
0
  6
CONTINUOUS
 10
7.655560
 20
9.114160
  0
VERTEX
  8
0
  6
CONTINUOUS
 10
7.681520
 20
9.098760
  0
VERTEX
  8
0
  6
CONTINUOUS
 10
7.707040
 20
9.082480
  0
VERTEX
  8
0
  6
CONTINUOUS
 10
7.731680
 20
9.064880
  0
VERTEX
  8
0
  6
CONTINUOUS
 10
7.755440
 20
9.045960
  0
VERTEX
  8
0
  6
CONTINUOUS
 10
7.778760
 20
9.026160
  0
VERTEX
  8
0
  6
CONTINUOUS
 10
7.801200
 20
9.005040
  0
VERTEX
  8
0
  6
CONTINUOUS
 10
7.822760
 20
8.983040
  0
VERTEX
  8
0
  6
CONTINUOUS
 10
7.843000
 20
8.959720
  0
VERTEX
  8
0
  6
CONTINUOUS
 10
7.862360
 20
8.935520
  0
VERTEX
  8
0
  6
CONTINUOUS
 10
7.880400
 20
8.910000
  0
VERTEX
  8
0
  6
CONTINUOUS
 10
7.897560
 20
8.883600
  0
VERTEX
  8
0
  6
CONTINUOUS
 10
7.912960
 20
8.856320
  0
VERTEX
  8
0
  6
CONTINUOUS
 10
7.927480
 20
8.828160
  0
VERTEX
  8
0
  6
CONTINUOUS
 10
7.940240
 20
8.798680
  0
VERTEX
  8
0
  6
CONTINUOUS
 10
7.951680
 20
8.768320
  0
VERTEX
  8
0
  6
CONTINUOUS
 10
7.961360
 20
8.737080
  0
VERTEX
  8
0
  6
CONTINUOUS
 10
7.969280
 20
8.704960
  0
VERTEX
  8
0
  6
CONTINUOUS
 10
7.975880
 20
8.671960
  0
VERTEX
  8
0
  6
CONTINUOUS
 10
7.980280
 20
8.638080
  0
VERTEX
  8
0
  6
CONTINUOUS
 10
7.982920
 20
8.603320
  0
VERTEX
  8
0
  6
CONTINUOUS
 10
7.983800
 20
8.567680
  0
VERTEX
  8
0
  6
CONTINUOUS
 10
1.685640
 20
8.568120
  0
VERTEX
  8
0
  6
CONTINUOUS
 10
1.685640
 20
8.813200
  0
VERTEX
  8
0
  6
CONTINUOUS
 10
1.687840
 20
8.813200
  0
SEQEND
  8
0
  0
TEXT
  8
0
 10
6.203120
 20
8.876560
 40
0.138188
  1
BA  517
 41
1.000000
  7
SN0
 71
     0
 72
     5
 11
6.792395
 21
8.876560
  0
TEXT
  8
0
 10
6.190360
 20
8.685160
 40
0.138188
  1
1/2" x 6"
 41
1.000000
  7
SN0
 71
     0
 72
     5
 11
6.804902
 21
8.685160
  0
TEXT
  8
0
 10
4.880920
 20
8.891520
 40
0.138188
  1
BA  176
 41
1.000000
  7
SN0
 71
     0
 72
     5
 11
5.470195
 21
8.891520
  0
TEXT
  8
0
 10
5.031400
 20
8.699680
 40
0.138188
  1
5/8"
 41
1.000000
  7
SN0
 71
     0
 72
     5
 11
5.320470
 21
8.699680
  0
TEXT
  8
0
 10
2.178440
 20
8.888000
 40
0.138188
  1
BA  1158
 41
1.000000
  7
SN0
 71
     0
 72
     5
 11
2.859789
 21
8.888000
  0
TEXT
  8
0
 10
2.022680
 20
8.696600
 40
0.138188
  1
3/4" x 6-5/16"
 41
1.000000
  7
SN0
 71
     0
 72
     5
 11
3.014512
 21
8.696600
  0
TEXT
  8
0
 10
4.776640
 20
6.525200
 40
0.619489
  1
Base
 41
1.000000
  7
SN0
 71
     0
 72
     5
 11
6.475516
 21
6.525200
  0
ENDSEC
  0
EOF
