  0
SECTION
  2
HEADER
  9
$ACADVER
  1
AC1006
  9
$EXTMIN
 10
4.481840
 20
0.716760
  9
$EXTMAX
 10
7.367360
 20
3.050520
  9
$LTSCALE
 40
0.044000
  9
$PDMODE
 70
    35
  9
$PDSIZE
 40
0.035200
  0
ENDSEC
  0
SECTION
  2
TABLES
  0
TABLE
  2
LTYPE
 70
     9
  0
LTYPE
  2
CONTINUOUS
 70
    64
  3
Solid line
 72
    65
 73
     0
 40
0.000000
  0
LTYPE
  2
DASHED
 70
    64
  3
__ __ __ __ __ __ __ __ __ __ __ __ __ __ __
 72
    65
 73
     2
 40
0.000330
 49
0.000220
 49
-0.000110
  0
LTYPE
  2
HIDDEN
 70
    64
  3
 _ _ _ _ _ _ _ _ _ _ _ _ _ _ _ _ _ _ _ _ _ _
 72
    65
 73
     2
 40
0.000165
 49
0.000110
 49
-0.000055
  0
LTYPE
  2
CENTER
 70
    64
  3
____ _ ____ _ ____ _ ____ _ ____ _ ____ _ ____
 72
    65
 73
     4
 40
0.000880
 49
0.000550
 49
-0.000110
 49
0.000110
 49
-0.000110
  0
LTYPE
  2
PHANTOM
 70
    64
  3
_____ _ _ _____ _ _ _____ _ _ _____ _ _ ____
 72
    65
 73
     6
 40
0.001100
 49
0.000550
 49
-0.000110
 49
0.000110
 49
-0.000110
 49
0.000110
 49
-0.000110
  0
LTYPE
  2
DOT
 70
    64
  3
...............................................
 72
    65
 73
     2
 40
0.000110
 49
0.000000
 49
-0.000110
  0
LTYPE
  2
DASHDOT
 70
    64
  3
__ . __ . __ . __ . __ . __ . __ . __ . __ . __
 72
    65
 73
     4
 40
0.000440
 49
0.000220
 49
-0.000110
 49
0.000000
 49
-0.000110
  0
LTYPE
  2
BORDER
 70
    64
  3
__ __ . __ __ . __ __ . __ __ . __ __ . __ __
 72
    65
 73
     6
 40
0.000770
 49
0.000220
 49
-0.000110
 49
0.000220
 49
-0.000110
 49
0.000000
 49
-0.000110
  0
LTYPE
  2
DIVIDE
 70
    64
  3
__ . . __ . . __ . . __ . . __ . . __ . . __
 72
    65
 73
     6
 40
0.000550
 49
0.000220
 49
-0.000110
 49
0.000000
 49
-0.000110
 49
0.000000
 49
-0.000110
  0
LTYPE
  2
DOTDOT
 70
    64
  3
 . .  . .  . .  . .  . .  . . 
 72
    65
 73
     5
 40
0.000242
 49
-0.000110
 49
0.000000
 49
-0.000110
 49
0.000000
 49
-0.000110
  0
ENDTAB
  0
TABLE
  2
STYLE
 70
     2
  0
STYLE
 70
     0
  2
SN0
 40
0.000000
 41
0.000440
 50
0.000000
 71
     0
 42
0.000000
  3
ROMAND
  0
STYLE
 70
    68
  2
SV0
 40
0.000000
 41
0.000440
 50
0.000000
 71
     0
 42
0.000000
  3
ROMAND
  0
ENDTAB
  0
TABLE
  2
LAYER
 70
     3
  0
LAYER
  2
FOREGROUND
 70
    64
 62
     7
  6
CONTINUOUS
  0
LAYER
  2
BACKGROUND
 70
    65
 62
    -7
  6
CONTINUOUS
  0
LAYER
  2
0
 70
    64
 62
     7
  6
CONTINUOUS
  0
ENDTAB
  0
ENDSEC
  0
SECTION
  2
ENTITIES
  0
POLYLINE
  8
FOREGROUND
  6
CONTINUOUS
 66
     1
 40
0.000000
 41
0.000000
  0
VERTEX
  8
FOREGROUND
  6
CONTINUOUS
 10
0.000000
 20
3.767280
  0
VERTEX
  8
FOREGROUND
  6
CONTINUOUS
 10
8.499920
 20
3.767280
  0
VERTEX
  8
FOREGROUND
  6
CONTINUOUS
 10
8.499920
 20
-7.232720
  0
VERTEX
  8
FOREGROUND
  6
CONTINUOUS
 10
0.000000
 20
-7.232720
  0
VERTEX
  8
FOREGROUND
  6
CONTINUOUS
 10
0.000000
 20
3.767280
  0
SEQEND
  8
0
  0
POLYLINE
  8
FOREGROUND
  6
CONTINUOUS
 66
     1
 40
0.000000
 41
0.000000
  0
VERTEX
  8
FOREGROUND
  6
CONTINUOUS
 10
0.000000
 20
3.767280
  0
VERTEX
  8
FOREGROUND
  6
CONTINUOUS
 10
8.499920
 20
3.767280
  0
VERTEX
  8
FOREGROUND
  6
CONTINUOUS
 10
8.499920
 20
-7.232720
  0
VERTEX
  8
FOREGROUND
  6
CONTINUOUS
 10
0.000000
 20
-7.232720
  0
VERTEX
  8
FOREGROUND
  6
CONTINUOUS
 10
0.000000
 20
3.767280
  0
SEQEND
  8
0
  0
SOLID
  8
0
 62
    15
 10
5.195080
 20
2.134000
 11
5.197280
 21
2.884200
 12
5.217080
 22
2.094400
 13
5.218840
 23
2.844600
  0
POLYLINE
  8
0
  6
CONTINUOUS
 66
     1
 40
0.000000
 41
0.000000
  0
VERTEX
  8
0
  6
CONTINUOUS
 10
5.195080
 20
2.134000
  0
VERTEX
  8
0
  6
CONTINUOUS
 10
5.197280
 20
2.884200
  0
VERTEX
  8
0
  6
CONTINUOUS
 10
5.218840
 20
2.844600
  0
VERTEX
  8
0
  6
CONTINUOUS
 10
5.217080
 20
2.094400
  0
VERTEX
  8
0
  6
CONTINUOUS
 10
5.195080
 20
2.134000
  0
SEQEND
  8
0
  0
SOLID
  8
0
 62
    15
 10
4.915680
 20
2.299880
 11
4.917880
 21
3.050080
 12
4.915680
 22
2.219800
 13
4.917880
 23
2.970000
  0
POLYLINE
  8
0
  6
CONTINUOUS
 66
     1
 40
0.000000
 41
0.000000
  0
VERTEX
  8
0
  6
CONTINUOUS
 10
4.915680
 20
2.299880
  0
VERTEX
  8
0
  6
CONTINUOUS
 10
4.917880
 20
3.050080
  0
VERTEX
  8
0
  6
CONTINUOUS
 10
4.917880
 20
2.970000
  0
VERTEX
  8
0
  6
CONTINUOUS
 10
4.915680
 20
2.219800
  0
VERTEX
  8
0
  6
CONTINUOUS
 10
4.915680
 20
2.299880
  0
SEQEND
  8
0
  0
SOLID
  8
0
 62
    15
 10
4.915680
 20
2.219800
 11
4.917880
 21
2.970000
 12
4.955280
 22
2.239600
 13
4.957480
 23
2.989800
  0
POLYLINE
  8
0
  6
CONTINUOUS
 66
     1
 40
0.000000
 41
0.000000
  0
VERTEX
  8
0
  6
CONTINUOUS
 10
4.915680
 20
2.219800
  0
VERTEX
  8
0
  6
CONTINUOUS
 10
4.917880
 20
2.970000
  0
VERTEX
  8
0
  6
CONTINUOUS
 10
4.957480
 20
2.989800
  0
VERTEX
  8
0
  6
CONTINUOUS
 10
4.955280
 20
2.239600
  0
VERTEX
  8
0
  6
CONTINUOUS
 10
4.915680
 20
2.219800
  0
SEQEND
  8
0
  0
SOLID
  8
0
 62
    15
 10
4.955280
 20
2.239600
 11
4.957480
 21
2.989800
 12
4.994880
 22
2.250160
 13
4.997080
 23
3.000360
  0
POLYLINE
  8
0
  6
CONTINUOUS
 66
     1
 40
0.000000
 41
0.000000
  0
VERTEX
  8
0
  6
CONTINUOUS
 10
4.955280
 20
2.239600
  0
VERTEX
  8
0
  6
CONTINUOUS
 10
4.957480
 20
2.989800
  0
VERTEX
  8
0
  6
CONTINUOUS
 10
4.997080
 20
3.000360
  0
VERTEX
  8
0
  6
CONTINUOUS
 10
4.994880
 20
2.250160
  0
VERTEX
  8
0
  6
CONTINUOUS
 10
4.955280
 20
2.239600
  0
SEQEND
  8
0
  0
SOLID
  8
0
 62
    15
 10
4.994880
 20
2.250160
 11
4.997080
 21
3.000360
 12
5.034040
 22
2.251920
 13
5.035800
 23
3.002120
  0
POLYLINE
  8
0
  6
CONTINUOUS
 66
     1
 40
0.000000
 41
0.000000
  0
VERTEX
  8
0
  6
CONTINUOUS
 10
4.994880
 20
2.250160
  0
VERTEX
  8
0
  6
CONTINUOUS
 10
4.997080
 20
3.000360
  0
VERTEX
  8
0
  6
CONTINUOUS
 10
5.035800
 20
3.002120
  0
VERTEX
  8
0
  6
CONTINUOUS
 10
5.034040
 20
2.251920
  0
VERTEX
  8
0
  6
CONTINUOUS
 10
4.994880
 20
2.250160
  0
SEQEND
  8
0
  0
SOLID
  8
0
 62
    15
 10
5.034040
 20
2.251920
 11
5.035800
 21
3.002120
 12
5.071440
 22
2.244880
 13
5.073640
 23
2.995080
  0
POLYLINE
  8
0
  6
CONTINUOUS
 66
     1
 40
0.000000
 41
0.000000
  0
VERTEX
  8
0
  6
CONTINUOUS
 10
5.034040
 20
2.251920
  0
VERTEX
  8
0
  6
CONTINUOUS
 10
5.035800
 20
3.002120
  0
VERTEX
  8
0
  6
CONTINUOUS
 10
5.073640
 20
2.995080
  0
VERTEX
  8
0
  6
CONTINUOUS
 10
5.071440
 20
2.244880
  0
VERTEX
  8
0
  6
CONTINUOUS
 10
5.034040
 20
2.251920
  0
SEQEND
  8
0
  0
SOLID
  8
0
 62
    15
 10
5.071440
 20
2.244880
 11
5.073640
 21
2.995080
 12
5.107080
 22
2.229480
 13
5.109280
 23
2.979680
  0
POLYLINE
  8
0
  6
CONTINUOUS
 66
     1
 40
0.000000
 41
0.000000
  0
VERTEX
  8
0
  6
CONTINUOUS
 10
5.071440
 20
2.244880
  0
VERTEX
  8
0
  6
CONTINUOUS
 10
5.073640
 20
2.995080
  0
VERTEX
  8
0
  6
CONTINUOUS
 10
5.109280
 20
2.979680
  0
VERTEX
  8
0
  6
CONTINUOUS
 10
5.107080
 20
2.229480
  0
VERTEX
  8
0
  6
CONTINUOUS
 10
5.071440
 20
2.244880
  0
SEQEND
  8
0
  0
SOLID
  8
0
 62
    15
 10
5.107080
 20
2.229480
 11
5.109280
 21
2.979680
 12
5.140080
 22
2.205720
 13
5.142280
 23
2.955920
  0
POLYLINE
  8
0
  6
CONTINUOUS
 66
     1
 40
0.000000
 41
0.000000
  0
VERTEX
  8
0
  6
CONTINUOUS
 10
5.107080
 20
2.229480
  0
VERTEX
  8
0
  6
CONTINUOUS
 10
5.109280
 20
2.979680
  0
VERTEX
  8
0
  6
CONTINUOUS
 10
5.142280
 20
2.955920
  0
VERTEX
  8
0
  6
CONTINUOUS
 10
5.140080
 20
2.205720
  0
VERTEX
  8
0
  6
CONTINUOUS
 10
5.107080
 20
2.229480
  0
SEQEND
  8
0
  0
SOLID
  8
0
 62
    15
 10
5.140080
 20
2.205720
 11
5.142280
 21
2.955920
 12
5.169560
 22
2.173600
 13
5.171760
 23
2.924240
  0
POLYLINE
  8
0
  6
CONTINUOUS
 66
     1
 40
0.000000
 41
0.000000
  0
VERTEX
  8
0
  6
CONTINUOUS
 10
5.140080
 20
2.205720
  0
VERTEX
  8
0
  6
CONTINUOUS
 10
5.142280
 20
2.955920
  0
VERTEX
  8
0
  6
CONTINUOUS
 10
5.171760
 20
2.924240
  0
VERTEX
  8
0
  6
CONTINUOUS
 10
5.169560
 20
2.173600
  0
VERTEX
  8
0
  6
CONTINUOUS
 10
5.140080
 20
2.205720
  0
SEQEND
  8
0
  0
SOLID
  8
0
 62
    15
 10
5.192000
 20
1.839200
 11
5.194200
 21
2.589400
 12
5.192000
 22
1.213080
 13
5.194200
 23
1.963280
  0
POLYLINE
  8
0
  6
CONTINUOUS
 66
     1
 40
0.000000
 41
0.000000
  0
VERTEX
  8
0
  6
CONTINUOUS
 10
5.192000
 20
1.839200
  0
VERTEX
  8
0
  6
CONTINUOUS
 10
5.194200
 20
2.589400
  0
VERTEX
  8
0
  6
CONTINUOUS
 10
5.194200
 20
1.963280
  0
VERTEX
  8
0
  6
CONTINUOUS
 10
5.192000
 20
1.213080
  0
VERTEX
  8
0
  6
CONTINUOUS
 10
5.192000
 20
1.839200
  0
SEQEND
  8
0
  0
SOLID
  8
0
 62
    15
 10
4.615160
 20
2.299880
 11
4.616920
 21
3.050080
 12
4.915680
 22
2.299880
 13
4.917880
 23
3.050080
  0
POLYLINE
  8
0
  6
CONTINUOUS
 66
     1
 40
0.000000
 41
0.000000
  0
VERTEX
  8
0
  6
CONTINUOUS
 10
4.615160
 20
2.299880
  0
VERTEX
  8
0
  6
CONTINUOUS
 10
4.616920
 20
3.050080
  0
VERTEX
  8
0
  6
CONTINUOUS
 10
4.917880
 20
3.050080
  0
VERTEX
  8
0
  6
CONTINUOUS
 10
4.915680
 20
2.299880
  0
VERTEX
  8
0
  6
CONTINUOUS
 10
4.615160
 20
2.299880
  0
SEQEND
  8
0
  0
SOLID
  8
0
 62
    15
 10
5.217080
 20
2.094400
 11
5.218840
 21
2.844600
 12
5.237760
 22
2.062280
 13
5.239520
 23
2.812480
  0
POLYLINE
  8
0
  6
CONTINUOUS
 66
     1
 40
0.000000
 41
0.000000
  0
VERTEX
  8
0
  6
CONTINUOUS
 10
5.217080
 20
2.094400
  0
VERTEX
  8
0
  6
CONTINUOUS
 10
5.218840
 20
2.844600
  0
VERTEX
  8
0
  6
CONTINUOUS
 10
5.239520
 20
2.812480
  0
VERTEX
  8
0
  6
CONTINUOUS
 10
5.237760
 20
2.062280
  0
VERTEX
  8
0
  6
CONTINUOUS
 10
5.217080
 20
2.094400
  0
SEQEND
  8
0
  0
SOLID
  8
0
 62
    15
 10
5.237760
 20
2.062280
 11
5.239520
 21
2.812480
 12
5.259320
 22
2.037200
 13
5.261520
 23
2.787400
  0
POLYLINE
  8
0
  6
CONTINUOUS
 66
     1
 40
0.000000
 41
0.000000
  0
VERTEX
  8
0
  6
CONTINUOUS
 10
5.237760
 20
2.062280
  0
VERTEX
  8
0
  6
CONTINUOUS
 10
5.239520
 20
2.812480
  0
VERTEX
  8
0
  6
CONTINUOUS
 10
5.261520
 20
2.787400
  0
VERTEX
  8
0
  6
CONTINUOUS
 10
5.259320
 20
2.037200
  0
VERTEX
  8
0
  6
CONTINUOUS
 10
5.237760
 20
2.062280
  0
SEQEND
  8
0
  0
SOLID
  8
0
 62
    15
 10
5.259320
 20
2.037200
 11
5.261520
 21
2.787400
 12
5.283960
 22
2.018280
 13
5.286160
 23
2.768480
  0
POLYLINE
  8
0
  6
CONTINUOUS
 66
     1
 40
0.000000
 41
0.000000
  0
VERTEX
  8
0
  6
CONTINUOUS
 10
5.259320
 20
2.037200
  0
VERTEX
  8
0
  6
CONTINUOUS
 10
5.261520
 20
2.787400
  0
VERTEX
  8
0
  6
CONTINUOUS
 10
5.286160
 20
2.768480
  0
VERTEX
  8
0
  6
CONTINUOUS
 10
5.283960
 20
2.018280
  0
VERTEX
  8
0
  6
CONTINUOUS
 10
5.259320
 20
2.037200
  0
SEQEND
  8
0
  0
SOLID
  8
0
 62
    15
 10
5.283960
 20
2.018280
 11
5.286160
 21
2.768480
 12
5.314320
 22
2.004640
 13
5.316080
 23
2.754840
  0
POLYLINE
  8
0
  6
CONTINUOUS
 66
     1
 40
0.000000
 41
0.000000
  0
VERTEX
  8
0
  6
CONTINUOUS
 10
5.283960
 20
2.018280
  0
VERTEX
  8
0
  6
CONTINUOUS
 10
5.286160
 20
2.768480
  0
VERTEX
  8
0
  6
CONTINUOUS
 10
5.316080
 20
2.754840
  0
VERTEX
  8
0
  6
CONTINUOUS
 10
5.314320
 20
2.004640
  0
VERTEX
  8
0
  6
CONTINUOUS
 10
5.283960
 20
2.018280
  0
SEQEND
  8
0
  0
SOLID
  8
0
 62
    15
 10
5.314320
 20
2.004640
 11
5.316080
 21
2.754840
 12
5.351280
 22
1.995840
 13
5.353480
 23
2.746040
  0
POLYLINE
  8
0
  6
CONTINUOUS
 66
     1
 40
0.000000
 41
0.000000
  0
VERTEX
  8
0
  6
CONTINUOUS
 10
5.314320
 20
2.004640
  0
VERTEX
  8
0
  6
CONTINUOUS
 10
5.316080
 20
2.754840
  0
VERTEX
  8
0
  6
CONTINUOUS
 10
5.353480
 20
2.746040
  0
VERTEX
  8
0
  6
CONTINUOUS
 10
5.351280
 20
1.995840
  0
VERTEX
  8
0
  6
CONTINUOUS
 10
5.314320
 20
2.004640
  0
SEQEND
  8
0
  0
SOLID
  8
0
 62
    15
 10
5.351280
 20
1.995840
 11
5.353480
 21
2.746040
 12
5.397920
 22
1.991000
 13
5.400120
 23
2.741200
  0
POLYLINE
  8
0
  6
CONTINUOUS
 66
     1
 40
0.000000
 41
0.000000
  0
VERTEX
  8
0
  6
CONTINUOUS
 10
5.351280
 20
1.995840
  0
VERTEX
  8
0
  6
CONTINUOUS
 10
5.353480
 20
2.746040
  0
VERTEX
  8
0
  6
CONTINUOUS
 10
5.400120
 20
2.741200
  0
VERTEX
  8
0
  6
CONTINUOUS
 10
5.397920
 20
1.991000
  0
VERTEX
  8
0
  6
CONTINUOUS
 10
5.351280
 20
1.995840
  0
SEQEND
  8
0
  0
SOLID
  8
0
 62
    15
 10
5.456000
 20
1.989680
 11
5.458200
 21
2.739880
 12
5.456000
 22
1.839200
 13
5.458200
 23
2.589400
  0
POLYLINE
  8
0
  6
CONTINUOUS
 66
     1
 40
0.000000
 41
0.000000
  0
VERTEX
  8
0
  6
CONTINUOUS
 10
5.456000
 20
1.989680
  0
VERTEX
  8
0
  6
CONTINUOUS
 10
5.458200
 20
2.739880
  0
VERTEX
  8
0
  6
CONTINUOUS
 10
5.458200
 20
2.589400
  0
VERTEX
  8
0
  6
CONTINUOUS
 10
5.456000
 20
1.839200
  0
VERTEX
  8
0
  6
CONTINUOUS
 10
5.456000
 20
1.989680
  0
SEQEND
  8
0
  0
SOLID
  8
0
 62
    15
 10
5.397920
 20
1.991000
 11
5.400120
 21
2.741200
 12
5.456000
 22
1.989680
 13
5.458200
 23
2.739880
  0
POLYLINE
  8
0
  6
CONTINUOUS
 66
     1
 40
0.000000
 41
0.000000
  0
VERTEX
  8
0
  6
CONTINUOUS
 10
5.397920
 20
1.991000
  0
VERTEX
  8
0
  6
CONTINUOUS
 10
5.400120
 20
2.741200
  0
VERTEX
  8
0
  6
CONTINUOUS
 10
5.458200
 20
2.739880
  0
VERTEX
  8
0
  6
CONTINUOUS
 10
5.456000
 20
1.989680
  0
VERTEX
  8
0
  6
CONTINUOUS
 10
5.397920
 20
1.991000
  0
SEQEND
  8
0
  0
SOLID
  8
0
 62
    15
 10
5.169560
 20
2.173600
 11
5.171760
 21
2.924240
 12
5.195080
 22
2.134000
 13
5.197280
 23
2.884200
  0
POLYLINE
  8
0
  6
CONTINUOUS
 66
     1
 40
0.000000
 41
0.000000
  0
VERTEX
  8
0
  6
CONTINUOUS
 10
5.169560
 20
2.173600
  0
VERTEX
  8
0
  6
CONTINUOUS
 10
5.171760
 20
2.924240
  0
VERTEX
  8
0
  6
CONTINUOUS
 10
5.197280
 20
2.884200
  0
VERTEX
  8
0
  6
CONTINUOUS
 10
5.195080
 20
2.134000
  0
VERTEX
  8
0
  6
CONTINUOUS
 10
5.169560
 20
2.173600
  0
SEQEND
  8
0
  0
SOLID
  8
0
 62
    15
 10
5.192000
 20
1.213080
 11
5.194200
 21
1.963280
 12
5.192000
 22
1.210000
 13
5.194200
 23
1.960200
  0
POLYLINE
  8
0
  6
CONTINUOUS
 66
     1
 40
0.000000
 41
0.000000
  0
VERTEX
  8
0
  6
CONTINUOUS
 10
5.192000
 20
1.213080
  0
VERTEX
  8
0
  6
CONTINUOUS
 10
5.194200
 20
1.963280
  0
VERTEX
  8
0
  6
CONTINUOUS
 10
5.194200
 20
1.960200
  0
VERTEX
  8
0
  6
CONTINUOUS
 10
5.192000
 20
1.210000
  0
VERTEX
  8
0
  6
CONTINUOUS
 10
5.192000
 20
1.213080
  0
SEQEND
  8
0
  0
POLYLINE
  8
0
  6
CONTINUOUS
 66
     1
 40
0.000000
 41
0.000000
  0
VERTEX
  8
0
  6
CONTINUOUS
 10
5.192000
 20
1.210000
  0
VERTEX
  8
0
  6
CONTINUOUS
 10
4.615160
 20
1.210000
  0
VERTEX
  8
0
  6
CONTINUOUS
 10
4.615160
 20
2.299880
  0
VERTEX
  8
0
  6
CONTINUOUS
 10
4.915680
 20
2.299880
  0
VERTEX
  8
0
  6
CONTINUOUS
 10
4.915680
 20
2.219800
  0
VERTEX
  8
0
  6
CONTINUOUS
 10
4.955280
 20
2.239600
  0
VERTEX
  8
0
  6
CONTINUOUS
 10
4.994880
 20
2.250160
  0
VERTEX
  8
0
  6
CONTINUOUS
 10
5.034040
 20
2.251920
  0
VERTEX
  8
0
  6
CONTINUOUS
 10
5.071440
 20
2.244880
  0
VERTEX
  8
0
  6
CONTINUOUS
 10
5.107080
 20
2.229480
  0
VERTEX
  8
0
  6
CONTINUOUS
 10
5.140080
 20
2.205720
  0
VERTEX
  8
0
  6
CONTINUOUS
 10
5.169560
 20
2.173600
  0
VERTEX
  8
0
  6
CONTINUOUS
 10
5.195080
 20
2.134000
  0
VERTEX
  8
0
  6
CONTINUOUS
 10
5.217080
 20
2.094400
  0
VERTEX
  8
0
  6
CONTINUOUS
 10
5.237760
 20
2.062280
  0
VERTEX
  8
0
  6
CONTINUOUS
 10
5.259320
 20
2.037200
  0
VERTEX
  8
0
  6
CONTINUOUS
 10
5.283960
 20
2.018280
  0
VERTEX
  8
0
  6
CONTINUOUS
 10
5.314320
 20
2.004640
  0
VERTEX
  8
0
  6
CONTINUOUS
 10
5.351280
 20
1.995840
  0
VERTEX
  8
0
  6
CONTINUOUS
 10
5.397920
 20
1.991000
  0
VERTEX
  8
0
  6
CONTINUOUS
 10
5.456000
 20
1.989680
  0
VERTEX
  8
0
  6
CONTINUOUS
 10
5.456000
 20
1.839200
  0
VERTEX
  8
0
  6
CONTINUOUS
 10
5.192000
 20
1.839200
  0
VERTEX
  8
0
  6
CONTINUOUS
 10
5.192000
 20
1.213080
  0
VERTEX
  8
0
  6
CONTINUOUS
 10
5.192000
 20
1.210000
  0
SEQEND
  8
0
  0
TEXT
  8
0
 10
4.694800
 20
0.953040
 40
0.138209
  1
BA  1157
 41
1.000000
  7
SN0
 71
     0
 72
     5
 11
5.377081
 21
0.953040
  0
TEXT
  8
0
 10
4.585240
 20
0.761200
 40
0.138209
  1
7/8" x 1-1/4"
 41
1.000000
  7
SN0
 71
     0
 72
     5
 11
5.485378
 21
0.761200
  0
POLYLINE
  8
0
  6
CONTINUOUS
 66
     1
 40
0.014080
 41
0.014080
  0
VERTEX
  8
0
  6
CONTINUOUS
 10
7.357240
 20
2.605240
  0
VERTEX
  8
0
  6
CONTINUOUS
 10
6.731120
 20
2.605240
  0
VERTEX
  8
0
  6
CONTINUOUS
 10
6.731120
 20
2.869240
  0
VERTEX
  8
0
  6
CONTINUOUS
 10
6.580640
 20
2.869240
  0
VERTEX
  8
0
  6
CONTINUOUS
 10
6.580640
 20
2.853400
  0
VERTEX
  8
0
  6
CONTINUOUS
 10
6.580200
 20
2.838440
  0
VERTEX
  8
0
  6
CONTINUOUS
 10
6.579760
 20
2.824360
  0
VERTEX
  8
0
  6
CONTINUOUS
 10
6.579320
 20
2.811160
  0
VERTEX
  8
0
  6
CONTINUOUS
 10
6.578440
 20
2.798400
  0
VERTEX
  8
0
  6
CONTINUOUS
 10
6.577120
 20
2.786520
  0
VERTEX
  8
0
  6
CONTINUOUS
 10
6.576240
 20
2.775080
  0
VERTEX
  8
0
  6
CONTINUOUS
 10
6.574480
 20
2.764520
  0
VERTEX
  8
0
  6
CONTINUOUS
 10
6.572720
 20
2.754400
  0
VERTEX
  8
0
  6
CONTINUOUS
 10
6.570520
 20
2.744720
  0
VERTEX
  8
0
  6
CONTINUOUS
 10
6.565680
 20
2.727120
  0
VERTEX
  8
0
  6
CONTINUOUS
 10
6.559520
 20
2.711280
  0
VERTEX
  8
0
  6
CONTINUOUS
 10
6.552040
 20
2.697200
  0
VERTEX
  8
0
  6
CONTINUOUS
 10
6.543240
 20
2.684440
  0
VERTEX
  8
0
  6
CONTINUOUS
 10
6.533120
 20
2.672560
  0
VERTEX
  8
0
  6
CONTINUOUS
 10
6.521240
 20
2.661120
  0
VERTEX
  8
0
  6
CONTINUOUS
 10
6.508040
 20
2.650560
  0
VERTEX
  8
0
  6
CONTINUOUS
 10
6.493080
 20
2.640440
  0
VERTEX
  8
0
  6
CONTINUOUS
 10
6.475920
 20
2.629880
  0
VERTEX
  8
0
  6
CONTINUOUS
 10
6.457000
 20
2.619320
  0
VERTEX
  8
0
  6
CONTINUOUS
 10
6.436320
 20
2.608320
  0
VERTEX
  8
0
  6
CONTINUOUS
 10
6.415640
 20
2.596000
  0
VERTEX
  8
0
  6
CONTINUOUS
 10
6.396720
 20
2.582800
  0
VERTEX
  8
0
  6
CONTINUOUS
 10
6.379560
 20
2.568720
  0
VERTEX
  8
0
  6
CONTINUOUS
 10
6.364600
 20
2.553320
  0
VERTEX
  8
0
  6
CONTINUOUS
 10
6.351840
 20
2.537040
  0
VERTEX
  8
0
  6
CONTINUOUS
 10
6.340840
 20
2.520320
  0
VERTEX
  8
0
  6
CONTINUOUS
 10
6.332040
 20
2.502720
  0
VERTEX
  8
0
  6
CONTINUOUS
 10
6.325440
 20
2.484680
  0
VERTEX
  8
0
  6
CONTINUOUS
 10
6.321040
 20
2.465760
  0
VERTEX
  8
0
  6
CONTINUOUS
 10
6.318840
 20
2.446840
  0
VERTEX
  8
0
  6
CONTINUOUS
 10
6.318400
 20
2.427480
  0
VERTEX
  8
0
  6
CONTINUOUS
 10
6.320600
 20
2.408120
  0
VERTEX
  8
0
  6
CONTINUOUS
 10
6.324560
 20
2.388320
  0
VERTEX
  8
0
  6
CONTINUOUS
 10
6.331160
 20
2.368520
  0
VERTEX
  8
0
  6
CONTINUOUS
 10
6.339520
 20
2.348720
  0
VERTEX
  8
0
  6
CONTINUOUS
 10
6.350520
 20
2.328920
  0
VERTEX
  8
0
  6
CONTINUOUS
 10
6.270880
 20
2.328920
  0
VERTEX
  8
0
  6
CONTINUOUS
 10
6.270880
 20
2.028400
  0
VERTEX
  8
0
  6
CONTINUOUS
 10
7.360320
 20
2.028400
  0
VERTEX
  8
0
  6
CONTINUOUS
 10
7.360320
 20
2.605240
  0
VERTEX
  8
0
  6
CONTINUOUS
 10
7.357240
 20
2.605240
  0
SEQEND
  8
0
  0
TEXT
  8
0
 10
6.464920
 20
1.812800
 40
0.138209
  1
BA  1157
 41
1.000000
  7
SN0
 71
     0
 72
     5
 11
7.147201
 21
1.812800
  0
TEXT
  8
0
 10
6.355360
 20
1.620960
 40
0.138209
  1
7/8" x 1-1/4"
 41
1.000000
  7
SN0
 71
     0
 72
     5
 11
7.255498
 21
1.620960
  0
ENDSEC
  0
EOF
