  0
SECTION
  2
HEADER
  9
$ACADVER
  1
AC1006
  9
$EXTMIN
 10
3.397692
 20
0.722043
  9
$EXTMAX
 10
7.763828
 20
2.366768
  9
$LTSCALE
 40
0.044000
  9
$PDMODE
 70
    35
  9
$PDSIZE
 40
0.035200
  0
ENDSEC
  0
SECTION
  2
TABLES
  0
TABLE
  2
LTYPE
 70
     9
  0
LTYPE
  2
CONTINUOUS
 70
    64
  3
Solid line
 72
    65
 73
     0
 40
0.000000
  0
LTYPE
  2
DASHED
 70
    64
  3
__ __ __ __ __ __ __ __ __ __ __ __ __ __ __
 72
    65
 73
     2
 40
0.000330
 49
0.000220
 49
-0.000110
  0
LTYPE
  2
HIDDEN
 70
    64
  3
 _ _ _ _ _ _ _ _ _ _ _ _ _ _ _ _ _ _ _ _ _ _
 72
    65
 73
     2
 40
0.000165
 49
0.000110
 49
-0.000055
  0
LTYPE
  2
CENTER
 70
    64
  3
____ _ ____ _ ____ _ ____ _ ____ _ ____ _ ____
 72
    65
 73
     4
 40
0.000880
 49
0.000550
 49
-0.000110
 49
0.000110
 49
-0.000110
  0
LTYPE
  2
PHANTOM
 70
    64
  3
_____ _ _ _____ _ _ _____ _ _ _____ _ _ ____
 72
    65
 73
     6
 40
0.001100
 49
0.000550
 49
-0.000110
 49
0.000110
 49
-0.000110
 49
0.000110
 49
-0.000110
  0
LTYPE
  2
DOT
 70
    64
  3
...............................................
 72
    65
 73
     2
 40
0.000110
 49
0.000000
 49
-0.000110
  0
LTYPE
  2
DASHDOT
 70
    64
  3
__ . __ . __ . __ . __ . __ . __ . __ . __ . __
 72
    65
 73
     4
 40
0.000440
 49
0.000220
 49
-0.000110
 49
0.000000
 49
-0.000110
  0
LTYPE
  2
BORDER
 70
    64
  3
__ __ . __ __ . __ __ . __ __ . __ __ . __ __
 72
    65
 73
     6
 40
0.000770
 49
0.000220
 49
-0.000110
 49
0.000220
 49
-0.000110
 49
0.000000
 49
-0.000110
  0
LTYPE
  2
DIVIDE
 70
    64
  3
__ . . __ . . __ . . __ . . __ . . __ . . __
 72
    65
 73
     6
 40
0.000550
 49
0.000220
 49
-0.000110
 49
0.000000
 49
-0.000110
 49
0.000000
 49
-0.000110
  0
LTYPE
  2
DOTDOT
 70
    64
  3
 . .  . .  . .  . .  . .  . . 
 72
    65
 73
     5
 40
0.000242
 49
-0.000110
 49
0.000000
 49
-0.000110
 49
0.000000
 49
-0.000110
  0
ENDTAB
  0
TABLE
  2
STYLE
 70
     2
  0
STYLE
 70
     0
  2
SN0
 40
0.000000
 41
0.000440
 50
0.000000
 71
     0
 42
0.000000
  3
ROMAND
  0
STYLE
 70
    68
  2
SV0
 40
0.000000
 41
0.000440
 50
0.000000
 71
     0
 42
0.000000
  3
ROMAND
  0
ENDTAB
  0
TABLE
  2
LAYER
 70
     3
  0
LAYER
  2
FOREGROUND
 70
    64
 62
     7
  6
CONTINUOUS
  0
LAYER
  2
BACKGROUND
 70
    65
 62
    -7
  6
CONTINUOUS
  0
LAYER
  2
0
 70
    64
 62
     7
  6
CONTINUOUS
  0
ENDTAB
  0
ENDSEC
  0
SECTION
  2
ENTITIES
  0
POLYLINE
  8
FOREGROUND
  6
CONTINUOUS
 66
     1
 40
0.000000
 41
0.000000
  0
VERTEX
  8
FOREGROUND
  6
CONTINUOUS
 10
0.000000
 20
3.088811
  0
VERTEX
  8
FOREGROUND
  6
CONTINUOUS
 10
8.499950
 20
3.088811
  0
VERTEX
  8
FOREGROUND
  6
CONTINUOUS
 10
8.499950
 20
-7.911228
  0
VERTEX
  8
FOREGROUND
  6
CONTINUOUS
 10
0.000000
 20
-7.911228
  0
VERTEX
  8
FOREGROUND
  6
CONTINUOUS
 10
0.000000
 20
3.088811
  0
SEQEND
  8
0
  0
POLYLINE
  8
FOREGROUND
  6
CONTINUOUS
 66
     1
 40
0.000000
 41
0.000000
  0
VERTEX
  8
FOREGROUND
  6
CONTINUOUS
 10
0.000000
 20
3.088811
  0
VERTEX
  8
FOREGROUND
  6
CONTINUOUS
 10
8.499950
 20
3.088811
  0
VERTEX
  8
FOREGROUND
  6
CONTINUOUS
 10
8.499950
 20
-7.911228
  0
VERTEX
  8
FOREGROUND
  6
CONTINUOUS
 10
0.000000
 20
-7.911228
  0
VERTEX
  8
FOREGROUND
  6
CONTINUOUS
 10
0.000000
 20
3.088811
  0
SEQEND
  8
0
  0
POLYLINE
  8
0
  6
CONTINUOUS
 66
     1
 40
0.014080
 41
0.014080
  0
VERTEX
  8
0
  6
CONTINUOUS
 10
6.080822
 20
1.114964
  0
VERTEX
  8
0
  6
CONTINUOUS
 10
6.281022
 20
1.114964
  0
VERTEX
  8
0
  6
CONTINUOUS
 10
6.281022
 20
1.327925
  0
VERTEX
  8
0
  6
CONTINUOUS
 10
6.336023
 20
1.330125
  0
VERTEX
  8
0
  6
CONTINUOUS
 10
6.385743
 20
1.335845
  0
VERTEX
  8
0
  6
CONTINUOUS
 10
6.430183
 20
1.345525
  0
VERTEX
  8
0
  6
CONTINUOUS
 10
6.469343
 20
1.358285
  0
VERTEX
  8
0
  6
CONTINUOUS
 10
6.514223
 20
1.380285
  0
VERTEX
  8
0
  6
CONTINUOUS
 10
6.534023
 20
1.393045
  0
VERTEX
  8
0
  6
CONTINUOUS
 10
6.567904
 20
1.421205
  0
VERTEX
  8
0
  6
CONTINUOUS
 10
6.595184
 20
1.452885
  0
VERTEX
  8
0
  6
CONTINUOUS
 10
6.616744
 20
1.487205
  0
VERTEX
  8
0
  6
CONTINUOUS
 10
6.633024
 20
1.523725
  0
VERTEX
  8
0
  6
CONTINUOUS
 10
6.645344
 20
1.561566
  0
VERTEX
  8
0
  6
CONTINUOUS
 10
6.656784
 20
1.618326
  0
VERTEX
  8
0
  6
CONTINUOUS
 10
6.661624
 20
1.655726
  0
VERTEX
  8
0
  6
CONTINUOUS
 10
6.673504
 20
1.834367
  0
VERTEX
  8
0
  6
CONTINUOUS
 10
6.678784
 20
1.887607
  0
VERTEX
  8
0
  6
CONTINUOUS
 10
6.683184
 20
1.914007
  0
VERTEX
  8
0
  6
CONTINUOUS
 10
6.693304
 20
1.951847
  0
VERTEX
  8
0
  6
CONTINUOUS
 10
6.702984
 20
1.976047
  0
VERTEX
  8
0
  6
CONTINUOUS
 10
6.715744
 20
1.998487
  0
VERTEX
  8
0
  6
CONTINUOUS
 10
6.732464
 20
2.019607
  0
VERTEX
  8
0
  6
CONTINUOUS
 10
6.753144
 20
2.038527
  0
VERTEX
  8
0
  6
CONTINUOUS
 10
6.778224
 20
2.054807
  0
VERTEX
  8
0
  6
CONTINUOUS
 10
6.808584
 20
2.068887
  0
VERTEX
  8
0
  6
CONTINUOUS
 10
6.844224
 20
2.079887
  0
VERTEX
  8
0
  6
CONTINUOUS
 10
6.886465
 20
2.087367
  0
VERTEX
  8
0
  6
CONTINUOUS
 10
6.934865
 20
2.091327
  0
VERTEX
  8
0
  6
CONTINUOUS
 10
6.961705
 20
2.091767
  0
VERTEX
  8
0
  6
CONTINUOUS
 10
6.961705
 20
2.359288
  0
VERTEX
  8
0
  6
CONTINUOUS
 10
6.080822
 20
2.359288
  0
VERTEX
  8
0
  6
CONTINUOUS
 10
6.080822
 20
1.114964
  0
SEQEND
  8
0
  0
TEXT
  8
0
 10
6.866665
 20
1.346845
 40
0.138084
  1
BA  1156
 41
1.000000
  7
SN0
 71
     0
 72
     5
 11
7.548218
 21
1.346845
  0
TEXT
  8
0
 10
6.757104
 20
1.155444
 40
0.138084
  1
7/8" x 1-1/4"
 41
1.000000
  7
SN0
 71
     0
 72
     5
 11
7.656310
 21
1.155444
  0
TEXT
  8
0
 10
4.763457
 20
0.957883
 40
0.138084
  1
BA  1156
 41
1.000000
  7
SN0
 71
     0
 72
     5
 11
5.445011
 21
0.957883
  0
TEXT
  8
0
 10
4.653897
 20
0.766483
 40
0.138084
  1
7/8" x 1-1/4"
 41
1.000000
  7
SN0
 71
     0
 72
     5
 11
5.553102
 21
0.766483
  0
SOLID
  8
0
 62
    15
 10
3.986854
 20
1.764846
 11
4.627057
 21
1.390405
 12
3.985094
 22
1.737566
 13
4.624857
 23
1.363125
  0
POLYLINE
  8
0
  6
CONTINUOUS
 66
     1
 40
0.000000
 41
0.000000
  0
VERTEX
  8
0
  6
CONTINUOUS
 10
3.986854
 20
1.764846
  0
VERTEX
  8
0
  6
CONTINUOUS
 10
4.627057
 20
1.390405
  0
VERTEX
  8
0
  6
CONTINUOUS
 10
4.624857
 20
1.363125
  0
VERTEX
  8
0
  6
CONTINUOUS
 10
3.985094
 20
1.737566
  0
VERTEX
  8
0
  6
CONTINUOUS
 10
3.986854
 20
1.764846
  0
SEQEND
  8
0
  0
SOLID
  8
0
 62
    15
 10
4.279015
 20
2.073727
 11
4.919218
 21
1.699286
 12
4.227095
 22
2.071967
 13
4.867297
 23
1.697526
  0
POLYLINE
  8
0
  6
CONTINUOUS
 66
     1
 40
0.000000
 41
0.000000
  0
VERTEX
  8
0
  6
CONTINUOUS
 10
4.279015
 20
2.073727
  0
VERTEX
  8
0
  6
CONTINUOUS
 10
4.919218
 20
1.699286
  0
VERTEX
  8
0
  6
CONTINUOUS
 10
4.867297
 20
1.697526
  0
VERTEX
  8
0
  6
CONTINUOUS
 10
4.227095
 20
2.071967
  0
VERTEX
  8
0
  6
CONTINUOUS
 10
4.279015
 20
2.073727
  0
SEQEND
  8
0
  0
SOLID
  8
0
 62
    15
 10
4.227095
 20
2.071967
 11
4.867297
 21
1.697526
 12
4.182215
 22
2.065807
 13
4.821977
 23
1.691366
  0
POLYLINE
  8
0
  6
CONTINUOUS
 66
     1
 40
0.000000
 41
0.000000
  0
VERTEX
  8
0
  6
CONTINUOUS
 10
4.227095
 20
2.071967
  0
VERTEX
  8
0
  6
CONTINUOUS
 10
4.867297
 20
1.697526
  0
VERTEX
  8
0
  6
CONTINUOUS
 10
4.821977
 20
1.691366
  0
VERTEX
  8
0
  6
CONTINUOUS
 10
4.182215
 20
2.065807
  0
VERTEX
  8
0
  6
CONTINUOUS
 10
4.227095
 20
2.071967
  0
SEQEND
  8
0
  0
SOLID
  8
0
 62
    15
 10
4.182215
 20
2.065807
 11
4.821977
 21
1.691366
 12
4.143055
 22
2.056567
 13
4.783257
 23
1.682126
  0
POLYLINE
  8
0
  6
CONTINUOUS
 66
     1
 40
0.000000
 41
0.000000
  0
VERTEX
  8
0
  6
CONTINUOUS
 10
4.182215
 20
2.065807
  0
VERTEX
  8
0
  6
CONTINUOUS
 10
4.821977
 20
1.691366
  0
VERTEX
  8
0
  6
CONTINUOUS
 10
4.783257
 20
1.682126
  0
VERTEX
  8
0
  6
CONTINUOUS
 10
4.143055
 20
2.056567
  0
VERTEX
  8
0
  6
CONTINUOUS
 10
4.182215
 20
2.065807
  0
SEQEND
  8
0
  0
SOLID
  8
0
 62
    15
 10
4.143055
 20
2.056567
 11
4.783257
 21
1.682126
 12
4.110495
 22
2.044247
 13
4.750257
 23
1.669806
  0
POLYLINE
  8
0
  6
CONTINUOUS
 66
     1
 40
0.000000
 41
0.000000
  0
VERTEX
  8
0
  6
CONTINUOUS
 10
4.143055
 20
2.056567
  0
VERTEX
  8
0
  6
CONTINUOUS
 10
4.783257
 20
1.682126
  0
VERTEX
  8
0
  6
CONTINUOUS
 10
4.750257
 20
1.669806
  0
VERTEX
  8
0
  6
CONTINUOUS
 10
4.110495
 20
2.044247
  0
VERTEX
  8
0
  6
CONTINUOUS
 10
4.143055
 20
2.056567
  0
SEQEND
  8
0
  0
SOLID
  8
0
 62
    15
 10
4.110495
 20
2.044247
 11
4.750257
 21
1.669806
 12
4.082775
 22
2.028847
 13
4.722537
 23
1.654406
  0
POLYLINE
  8
0
  6
CONTINUOUS
 66
     1
 40
0.000000
 41
0.000000
  0
VERTEX
  8
0
  6
CONTINUOUS
 10
4.110495
 20
2.044247
  0
VERTEX
  8
0
  6
CONTINUOUS
 10
4.750257
 20
1.669806
  0
VERTEX
  8
0
  6
CONTINUOUS
 10
4.722537
 20
1.654406
  0
VERTEX
  8
0
  6
CONTINUOUS
 10
4.082775
 20
2.028847
  0
VERTEX
  8
0
  6
CONTINUOUS
 10
4.110495
 20
2.044247
  0
SEQEND
  8
0
  0
SOLID
  8
0
 62
    15
 10
4.082775
 20
2.028847
 11
4.722537
 21
1.654406
 12
4.059895
 22
2.011247
 13
4.699657
 23
1.636806
  0
POLYLINE
  8
0
  6
CONTINUOUS
 66
     1
 40
0.000000
 41
0.000000
  0
VERTEX
  8
0
  6
CONTINUOUS
 10
4.082775
 20
2.028847
  0
VERTEX
  8
0
  6
CONTINUOUS
 10
4.722537
 20
1.654406
  0
VERTEX
  8
0
  6
CONTINUOUS
 10
4.699657
 20
1.636806
  0
VERTEX
  8
0
  6
CONTINUOUS
 10
4.059895
 20
2.011247
  0
VERTEX
  8
0
  6
CONTINUOUS
 10
4.082775
 20
2.028847
  0
SEQEND
  8
0
  0
SOLID
  8
0
 62
    15
 10
4.059895
 20
2.011247
 11
4.699657
 21
1.636806
 12
4.041414
 22
1.991447
 13
4.681177
 23
1.617006
  0
POLYLINE
  8
0
  6
CONTINUOUS
 66
     1
 40
0.000000
 41
0.000000
  0
VERTEX
  8
0
  6
CONTINUOUS
 10
4.059895
 20
2.011247
  0
VERTEX
  8
0
  6
CONTINUOUS
 10
4.699657
 20
1.636806
  0
VERTEX
  8
0
  6
CONTINUOUS
 10
4.681177
 20
1.617006
  0
VERTEX
  8
0
  6
CONTINUOUS
 10
4.041414
 20
1.991447
  0
VERTEX
  8
0
  6
CONTINUOUS
 10
4.059895
 20
2.011247
  0
SEQEND
  8
0
  0
SOLID
  8
0
 62
    15
 10
4.041414
 20
1.991447
 11
4.681177
 21
1.617006
 12
4.026454
 22
1.969447
 13
4.666657
 23
1.595006
  0
POLYLINE
  8
0
  6
CONTINUOUS
 66
     1
 40
0.000000
 41
0.000000
  0
VERTEX
  8
0
  6
CONTINUOUS
 10
4.041414
 20
1.991447
  0
VERTEX
  8
0
  6
CONTINUOUS
 10
4.681177
 20
1.617006
  0
VERTEX
  8
0
  6
CONTINUOUS
 10
4.666657
 20
1.595006
  0
VERTEX
  8
0
  6
CONTINUOUS
 10
4.026454
 20
1.969447
  0
VERTEX
  8
0
  6
CONTINUOUS
 10
4.041414
 20
1.991447
  0
SEQEND
  8
0
  0
SOLID
  8
0
 62
    15
 10
4.026454
 20
1.969447
 11
4.666657
 21
1.595006
 12
4.006654
 22
1.921487
 13
4.646857
 23
1.547046
  0
POLYLINE
  8
0
  6
CONTINUOUS
 66
     1
 40
0.000000
 41
0.000000
  0
VERTEX
  8
0
  6
CONTINUOUS
 10
4.026454
 20
1.969447
  0
VERTEX
  8
0
  6
CONTINUOUS
 10
4.666657
 20
1.595006
  0
VERTEX
  8
0
  6
CONTINUOUS
 10
4.646857
 20
1.547046
  0
VERTEX
  8
0
  6
CONTINUOUS
 10
4.006654
 20
1.921487
  0
VERTEX
  8
0
  6
CONTINUOUS
 10
4.026454
 20
1.969447
  0
SEQEND
  8
0
  0
SOLID
  8
0
 62
    15
 10
4.006654
 20
1.921487
 11
4.646857
 21
1.547046
 12
3.996094
 22
1.869567
 13
4.636297
 23
1.495125
  0
POLYLINE
  8
0
  6
CONTINUOUS
 66
     1
 40
0.000000
 41
0.000000
  0
VERTEX
  8
0
  6
CONTINUOUS
 10
4.006654
 20
1.921487
  0
VERTEX
  8
0
  6
CONTINUOUS
 10
4.646857
 20
1.547046
  0
VERTEX
  8
0
  6
CONTINUOUS
 10
4.636297
 20
1.495125
  0
VERTEX
  8
0
  6
CONTINUOUS
 10
3.996094
 20
1.869567
  0
VERTEX
  8
0
  6
CONTINUOUS
 10
4.006654
 20
1.921487
  0
SEQEND
  8
0
  0
SOLID
  8
0
 62
    15
 10
3.996094
 20
1.869567
 11
4.636297
 21
1.495125
 12
3.990814
 22
1.816327
 13
4.631017
 23
1.441885
  0
POLYLINE
  8
0
  6
CONTINUOUS
 66
     1
 40
0.000000
 41
0.000000
  0
VERTEX
  8
0
  6
CONTINUOUS
 10
3.996094
 20
1.869567
  0
VERTEX
  8
0
  6
CONTINUOUS
 10
4.636297
 20
1.495125
  0
VERTEX
  8
0
  6
CONTINUOUS
 10
4.631017
 20
1.441885
  0
VERTEX
  8
0
  6
CONTINUOUS
 10
3.990814
 20
1.816327
  0
VERTEX
  8
0
  6
CONTINUOUS
 10
3.996094
 20
1.869567
  0
SEQEND
  8
0
  0
SOLID
  8
0
 62
    15
 10
3.990814
 20
1.816327
 11
4.631017
 21
1.441885
 12
3.989054
 22
1.790366
 13
4.628817
 23
1.415925
  0
POLYLINE
  8
0
  6
CONTINUOUS
 66
     1
 40
0.000000
 41
0.000000
  0
VERTEX
  8
0
  6
CONTINUOUS
 10
3.990814
 20
1.816327
  0
VERTEX
  8
0
  6
CONTINUOUS
 10
4.631017
 20
1.441885
  0
VERTEX
  8
0
  6
CONTINUOUS
 10
4.628817
 20
1.415925
  0
VERTEX
  8
0
  6
CONTINUOUS
 10
3.989054
 20
1.790366
  0
VERTEX
  8
0
  6
CONTINUOUS
 10
3.990814
 20
1.816327
  0
SEQEND
  8
0
  0
SOLID
  8
0
 62
    15
 10
3.989054
 20
1.790366
 11
4.628817
 21
1.415925
 12
3.986854
 22
1.764846
 13
4.627057
 23
1.390405
  0
POLYLINE
  8
0
  6
CONTINUOUS
 66
     1
 40
0.000000
 41
0.000000
  0
VERTEX
  8
0
  6
CONTINUOUS
 10
3.989054
 20
1.790366
  0
VERTEX
  8
0
  6
CONTINUOUS
 10
4.628817
 20
1.415925
  0
VERTEX
  8
0
  6
CONTINUOUS
 10
4.627057
 20
1.390405
  0
VERTEX
  8
0
  6
CONTINUOUS
 10
3.986854
 20
1.764846
  0
VERTEX
  8
0
  6
CONTINUOUS
 10
3.989054
 20
1.790366
  0
SEQEND
  8
0
  0
SOLID
  8
0
 62
    15
 10
4.279015
 20
2.340808
 11
4.919218
 21
1.966367
 12
4.279015
 22
2.073727
 13
4.919218
 23
1.699286
  0
POLYLINE
  8
0
  6
CONTINUOUS
 66
     1
 40
0.000000
 41
0.000000
  0
VERTEX
  8
0
  6
CONTINUOUS
 10
4.279015
 20
2.340808
  0
VERTEX
  8
0
  6
CONTINUOUS
 10
4.919218
 20
1.966367
  0
VERTEX
  8
0
  6
CONTINUOUS
 10
4.919218
 20
1.699286
  0
VERTEX
  8
0
  6
CONTINUOUS
 10
4.279015
 20
2.073727
  0
VERTEX
  8
0
  6
CONTINUOUS
 10
4.279015
 20
2.340808
  0
SEQEND
  8
0
  0
SOLID
  8
0
 62
    15
 10
3.985094
 20
1.737566
 11
4.624857
 21
1.363125
 12
3.983774
 22
1.706766
 13
4.623537
 23
1.332325
  0
POLYLINE
  8
0
  6
CONTINUOUS
 66
     1
 40
0.000000
 41
0.000000
  0
VERTEX
  8
0
  6
CONTINUOUS
 10
3.985094
 20
1.737566
  0
VERTEX
  8
0
  6
CONTINUOUS
 10
4.624857
 20
1.363125
  0
VERTEX
  8
0
  6
CONTINUOUS
 10
4.623537
 20
1.332325
  0
VERTEX
  8
0
  6
CONTINUOUS
 10
3.983774
 20
1.706766
  0
VERTEX
  8
0
  6
CONTINUOUS
 10
3.985094
 20
1.737566
  0
SEQEND
  8
0
  0
SOLID
  8
0
 62
    15
 10
3.983774
 20
1.706766
 11
4.623537
 21
1.332325
 12
3.978934
 22
1.637246
 13
4.619137
 23
1.262805
  0
POLYLINE
  8
0
  6
CONTINUOUS
 66
     1
 40
0.000000
 41
0.000000
  0
VERTEX
  8
0
  6
CONTINUOUS
 10
3.983774
 20
1.706766
  0
VERTEX
  8
0
  6
CONTINUOUS
 10
4.623537
 20
1.332325
  0
VERTEX
  8
0
  6
CONTINUOUS
 10
4.619137
 20
1.262805
  0
VERTEX
  8
0
  6
CONTINUOUS
 10
3.978934
 20
1.637246
  0
VERTEX
  8
0
  6
CONTINUOUS
 10
3.983774
 20
1.706766
  0
SEQEND
  8
0
  0
SOLID
  8
0
 62
    15
 10
3.978934
 20
1.637246
 11
4.619137
 21
1.262805
 12
3.967494
 22
1.562006
 13
4.607696
 23
1.187564
  0
POLYLINE
  8
0
  6
CONTINUOUS
 66
     1
 40
0.000000
 41
0.000000
  0
VERTEX
  8
0
  6
CONTINUOUS
 10
3.978934
 20
1.637246
  0
VERTEX
  8
0
  6
CONTINUOUS
 10
4.619137
 20
1.262805
  0
VERTEX
  8
0
  6
CONTINUOUS
 10
4.607696
 20
1.187564
  0
VERTEX
  8
0
  6
CONTINUOUS
 10
3.967494
 20
1.562006
  0
VERTEX
  8
0
  6
CONTINUOUS
 10
3.978934
 20
1.637246
  0
SEQEND
  8
0
  0
SOLID
  8
0
 62
    15
 10
3.967494
 20
1.562006
 11
4.607696
 21
1.187564
 12
3.943294
 22
1.487205
 13
4.583056
 23
1.112764
  0
POLYLINE
  8
0
  6
CONTINUOUS
 66
     1
 40
0.000000
 41
0.000000
  0
VERTEX
  8
0
  6
CONTINUOUS
 10
3.967494
 20
1.562006
  0
VERTEX
  8
0
  6
CONTINUOUS
 10
4.607696
 20
1.187564
  0
VERTEX
  8
0
  6
CONTINUOUS
 10
4.583056
 20
1.112764
  0
VERTEX
  8
0
  6
CONTINUOUS
 10
3.943294
 20
1.487205
  0
VERTEX
  8
0
  6
CONTINUOUS
 10
3.967494
 20
1.562006
  0
SEQEND
  8
0
  0
SOLID
  8
0
 62
    15
 10
3.943294
 20
1.487205
 11
4.583056
 21
1.112764
 12
3.924374
 22
1.451565
 13
4.564136
 23
1.077124
  0
POLYLINE
  8
0
  6
CONTINUOUS
 66
     1
 40
0.000000
 41
0.000000
  0
VERTEX
  8
0
  6
CONTINUOUS
 10
3.943294
 20
1.487205
  0
VERTEX
  8
0
  6
CONTINUOUS
 10
4.583056
 20
1.112764
  0
VERTEX
  8
0
  6
CONTINUOUS
 10
4.564136
 20
1.077124
  0
VERTEX
  8
0
  6
CONTINUOUS
 10
3.924374
 20
1.451565
  0
VERTEX
  8
0
  6
CONTINUOUS
 10
3.943294
 20
1.487205
  0
SEQEND
  8
0
  0
SOLID
  8
0
 62
    15
 10
3.924374
 20
1.451565
 11
4.564136
 21
1.077124
 12
3.899734
 22
1.418565
 13
4.539936
 23
1.044124
  0
POLYLINE
  8
0
  6
CONTINUOUS
 66
     1
 40
0.000000
 41
0.000000
  0
VERTEX
  8
0
  6
CONTINUOUS
 10
3.924374
 20
1.451565
  0
VERTEX
  8
0
  6
CONTINUOUS
 10
4.564136
 20
1.077124
  0
VERTEX
  8
0
  6
CONTINUOUS
 10
4.539936
 20
1.044124
  0
VERTEX
  8
0
  6
CONTINUOUS
 10
3.899734
 20
1.418565
  0
VERTEX
  8
0
  6
CONTINUOUS
 10
3.924374
 20
1.451565
  0
SEQEND
  8
0
  0
SOLID
  8
0
 62
    15
 10
3.899734
 20
1.418565
 11
4.539936
 21
1.044124
 12
3.869374
 22
1.388205
 13
4.509136
 23
1.013764
  0
POLYLINE
  8
0
  6
CONTINUOUS
 66
     1
 40
0.000000
 41
0.000000
  0
VERTEX
  8
0
  6
CONTINUOUS
 10
3.899734
 20
1.418565
  0
VERTEX
  8
0
  6
CONTINUOUS
 10
4.539936
 20
1.044124
  0
VERTEX
  8
0
  6
CONTINUOUS
 10
4.509136
 20
1.013764
  0
VERTEX
  8
0
  6
CONTINUOUS
 10
3.869374
 20
1.388205
  0
VERTEX
  8
0
  6
CONTINUOUS
 10
3.899734
 20
1.418565
  0
SEQEND
  8
0
  0
SOLID
  8
0
 62
    15
 10
3.869374
 20
1.388205
 11
4.509136
 21
1.013764
 12
3.831974
 22
1.362245
 13
4.471736
 23
0.987804
  0
POLYLINE
  8
0
  6
CONTINUOUS
 66
     1
 40
0.000000
 41
0.000000
  0
VERTEX
  8
0
  6
CONTINUOUS
 10
3.869374
 20
1.388205
  0
VERTEX
  8
0
  6
CONTINUOUS
 10
4.509136
 20
1.013764
  0
VERTEX
  8
0
  6
CONTINUOUS
 10
4.471736
 20
0.987804
  0
VERTEX
  8
0
  6
CONTINUOUS
 10
3.831974
 20
1.362245
  0
VERTEX
  8
0
  6
CONTINUOUS
 10
3.869374
 20
1.388205
  0
SEQEND
  8
0
  0
SOLID
  8
0
 62
    15
 10
3.831974
 20
1.362245
 11
4.471736
 21
0.987804
 12
3.787094
 22
1.340245
 13
4.426856
 23
0.965803
  0
POLYLINE
  8
0
  6
CONTINUOUS
 66
     1
 40
0.000000
 41
0.000000
  0
VERTEX
  8
0
  6
CONTINUOUS
 10
3.831974
 20
1.362245
  0
VERTEX
  8
0
  6
CONTINUOUS
 10
4.471736
 20
0.987804
  0
VERTEX
  8
0
  6
CONTINUOUS
 10
4.426856
 20
0.965803
  0
VERTEX
  8
0
  6
CONTINUOUS
 10
3.787094
 20
1.340245
  0
VERTEX
  8
0
  6
CONTINUOUS
 10
3.831974
 20
1.362245
  0
SEQEND
  8
0
  0
SOLID
  8
0
 62
    15
 10
3.787094
 20
1.340245
 11
4.426856
 21
0.965803
 12
3.733413
 22
1.323965
 13
4.373616
 23
0.949523
  0
POLYLINE
  8
0
  6
CONTINUOUS
 66
     1
 40
0.000000
 41
0.000000
  0
VERTEX
  8
0
  6
CONTINUOUS
 10
3.787094
 20
1.340245
  0
VERTEX
  8
0
  6
CONTINUOUS
 10
4.426856
 20
0.965803
  0
VERTEX
  8
0
  6
CONTINUOUS
 10
4.373616
 20
0.949523
  0
VERTEX
  8
0
  6
CONTINUOUS
 10
3.733413
 20
1.323965
  0
VERTEX
  8
0
  6
CONTINUOUS
 10
3.787094
 20
1.340245
  0
SEQEND
  8
0
  0
SOLID
  8
0
 62
    15
 10
3.733413
 20
1.323965
 11
4.373616
 21
0.949523
 12
3.670933
 22
1.313405
 13
4.311135
 23
0.938963
  0
POLYLINE
  8
0
  6
CONTINUOUS
 66
     1
 40
0.000000
 41
0.000000
  0
VERTEX
  8
0
  6
CONTINUOUS
 10
3.733413
 20
1.323965
  0
VERTEX
  8
0
  6
CONTINUOUS
 10
4.373616
 20
0.949523
  0
VERTEX
  8
0
  6
CONTINUOUS
 10
4.311135
 20
0.938963
  0
VERTEX
  8
0
  6
CONTINUOUS
 10
3.670933
 20
1.313405
  0
VERTEX
  8
0
  6
CONTINUOUS
 10
3.733413
 20
1.323965
  0
SEQEND
  8
0
  0
SOLID
  8
0
 62
    15
 10
3.670933
 20
1.313405
 11
4.311135
 21
0.938963
 12
3.598773
 22
1.309885
 13
4.238535
 23
0.935443
  0
POLYLINE
  8
0
  6
CONTINUOUS
 66
     1
 40
0.000000
 41
0.000000
  0
VERTEX
  8
0
  6
CONTINUOUS
 10
3.670933
 20
1.313405
  0
VERTEX
  8
0
  6
CONTINUOUS
 10
4.311135
 20
0.938963
  0
VERTEX
  8
0
  6
CONTINUOUS
 10
4.238535
 20
0.935443
  0
VERTEX
  8
0
  6
CONTINUOUS
 10
3.598773
 20
1.309885
  0
VERTEX
  8
0
  6
CONTINUOUS
 10
3.670933
 20
1.313405
  0
SEQEND
  8
0
  0
SOLID
  8
0
 62
     7
 10
3.598773
 20
1.309885
 11
4.238535
 21
0.935443
 12
3.598773
 22
1.096924
 13
4.238535
 23
0.722483
  0
POLYLINE
  8
0
  6
CONTINUOUS
 66
     1
 40
0.000000
 41
0.000000
  0
VERTEX
  8
0
  6
CONTINUOUS
 10
3.598773
 20
1.309885
  0
VERTEX
  8
0
  6
CONTINUOUS
 10
4.238535
 20
0.935443
  0
VERTEX
  8
0
  6
CONTINUOUS
 10
4.238535
 20
0.722483
  0
VERTEX
  8
0
  6
CONTINUOUS
 10
3.598773
 20
1.096924
  0
VERTEX
  8
0
  6
CONTINUOUS
 10
3.598773
 20
1.309885
  0
SEQEND
  8
0
  0
SOLID
  8
0
 62
    15
 10
3.598773
 20
1.096924
 11
4.238535
 21
0.722483
 12
3.398132
 22
1.096924
 13
4.038334
 23
0.722483
  0
POLYLINE
  8
0
  6
CONTINUOUS
 66
     1
 40
0.000000
 41
0.000000
  0
VERTEX
  8
0
  6
CONTINUOUS
 10
3.598773
 20
1.096924
  0
VERTEX
  8
0
  6
CONTINUOUS
 10
4.238535
 20
0.722483
  0
VERTEX
  8
0
  6
CONTINUOUS
 10
4.038334
 20
0.722483
  0
VERTEX
  8
0
  6
CONTINUOUS
 10
3.398132
 20
1.096924
  0
VERTEX
  8
0
  6
CONTINUOUS
 10
3.598773
 20
1.096924
  0
SEQEND
  8
0
  0
POLYLINE
  8
0
  6
CONTINUOUS
 66
     1
 40
0.000000
 41
0.000000
  0
VERTEX
  8
0
  6
CONTINUOUS
 10
3.398132
 20
2.340808
  0
VERTEX
  8
0
  6
CONTINUOUS
 10
4.279015
 20
2.340808
  0
VERTEX
  8
0
  6
CONTINUOUS
 10
4.279015
 20
2.073727
  0
VERTEX
  8
0
  6
CONTINUOUS
 10
4.227095
 20
2.071967
  0
VERTEX
  8
0
  6
CONTINUOUS
 10
4.182215
 20
2.065807
  0
VERTEX
  8
0
  6
CONTINUOUS
 10
4.143055
 20
2.056567
  0
VERTEX
  8
0
  6
CONTINUOUS
 10
4.110495
 20
2.044247
  0
VERTEX
  8
0
  6
CONTINUOUS
 10
4.082775
 20
2.028847
  0
VERTEX
  8
0
  6
CONTINUOUS
 10
4.059895
 20
2.011247
  0
VERTEX
  8
0
  6
CONTINUOUS
 10
4.041414
 20
1.991447
  0
VERTEX
  8
0
  6
CONTINUOUS
 10
4.026454
 20
1.969447
  0
VERTEX
  8
0
  6
CONTINUOUS
 10
4.006654
 20
1.921487
  0
VERTEX
  8
0
  6
CONTINUOUS
 10
3.996094
 20
1.869567
  0
VERTEX
  8
0
  6
CONTINUOUS
 10
3.990814
 20
1.816327
  0
VERTEX
  8
0
  6
CONTINUOUS
 10
3.989054
 20
1.790366
  0
VERTEX
  8
0
  6
CONTINUOUS
 10
3.986854
 20
1.764846
  0
VERTEX
  8
0
  6
CONTINUOUS
 10
3.985094
 20
1.737566
  0
VERTEX
  8
0
  6
CONTINUOUS
 10
3.983774
 20
1.706766
  0
VERTEX
  8
0
  6
CONTINUOUS
 10
3.978934
 20
1.637246
  0
VERTEX
  8
0
  6
CONTINUOUS
 10
3.967494
 20
1.562006
  0
VERTEX
  8
0
  6
CONTINUOUS
 10
3.943294
 20
1.487205
  0
VERTEX
  8
0
  6
CONTINUOUS
 10
3.924374
 20
1.451565
  0
VERTEX
  8
0
  6
CONTINUOUS
 10
3.899734
 20
1.418565
  0
VERTEX
  8
0
  6
CONTINUOUS
 10
3.869374
 20
1.388205
  0
VERTEX
  8
0
  6
CONTINUOUS
 10
3.831974
 20
1.362245
  0
VERTEX
  8
0
  6
CONTINUOUS
 10
3.787094
 20
1.340245
  0
VERTEX
  8
0
  6
CONTINUOUS
 10
3.733413
 20
1.323965
  0
VERTEX
  8
0
  6
CONTINUOUS
 10
3.670933
 20
1.313405
  0
VERTEX
  8
0
  6
CONTINUOUS
 10
3.598773
 20
1.309885
  0
VERTEX
  8
0
  6
CONTINUOUS
 10
3.598773
 20
1.096924
  0
VERTEX
  8
0
  6
CONTINUOUS
 10
3.398132
 20
1.096924
  0
VERTEX
  8
0
  6
CONTINUOUS
 10
3.398132
 20
2.340808
  0
SEQEND
  8
0
  0
ENDSEC
  0
EOF
