  0
SECTION
  2
HEADER
  9
$ACADVER
  1
AC1006
  9
$EXTMIN
 10
2.502720
 20
0.672760
  9
$EXTMAX
 10
7.321160
 20
7.700880
  9
$LTSCALE
 40
0.044000
  9
$PDMODE
 70
    35
  9
$PDSIZE
 40
0.035200
  0
ENDSEC
  0
SECTION
  2
TABLES
  0
TABLE
  2
LTYPE
 70
     9
  0
LTYPE
  2
CONTINUOUS
 70
    64
  3
Solid line
 72
    65
 73
     0
 40
0.000000
  0
LTYPE
  2
DASHED
 70
    64
  3
__ __ __ __ __ __ __ __ __ __ __ __ __ __ __
 72
    65
 73
     2
 40
0.000330
 49
0.000220
 49
-0.000110
  0
LTYPE
  2
HIDDEN
 70
    64
  3
 _ _ _ _ _ _ _ _ _ _ _ _ _ _ _ _ _ _ _ _ _ _
 72
    65
 73
     2
 40
0.000165
 49
0.000110
 49
-0.000055
  0
LTYPE
  2
CENTER
 70
    64
  3
____ _ ____ _ ____ _ ____ _ ____ _ ____ _ ____
 72
    65
 73
     4
 40
0.000880
 49
0.000550
 49
-0.000110
 49
0.000110
 49
-0.000110
  0
LTYPE
  2
PHANTOM
 70
    64
  3
_____ _ _ _____ _ _ _____ _ _ _____ _ _ ____
 72
    65
 73
     6
 40
0.001100
 49
0.000550
 49
-0.000110
 49
0.000110
 49
-0.000110
 49
0.000110
 49
-0.000110
  0
LTYPE
  2
DOT
 70
    64
  3
...............................................
 72
    65
 73
     2
 40
0.000110
 49
0.000000
 49
-0.000110
  0
LTYPE
  2
DASHDOT
 70
    64
  3
__ . __ . __ . __ . __ . __ . __ . __ . __ . __
 72
    65
 73
     4
 40
0.000440
 49
0.000220
 49
-0.000110
 49
0.000000
 49
-0.000110
  0
LTYPE
  2
BORDER
 70
    64
  3
__ __ . __ __ . __ __ . __ __ . __ __ . __ __
 72
    65
 73
     6
 40
0.000770
 49
0.000220
 49
-0.000110
 49
0.000220
 49
-0.000110
 49
0.000000
 49
-0.000110
  0
LTYPE
  2
DIVIDE
 70
    64
  3
__ . . __ . . __ . . __ . . __ . . __ . . __
 72
    65
 73
     6
 40
0.000550
 49
0.000220
 49
-0.000110
 49
0.000000
 49
-0.000110
 49
0.000000
 49
-0.000110
  0
LTYPE
  2
DOTDOT
 70
    64
  3
 . .  . .  . .  . .  . .  . . 
 72
    65
 73
     5
 40
0.000242
 49
-0.000110
 49
0.000000
 49
-0.000110
 49
0.000000
 49
-0.000110
  0
ENDTAB
  0
TABLE
  2
STYLE
 70
     2
  0
STYLE
 70
     0
  2
SN0
 40
0.000000
 41
0.000440
 50
0.000000
 71
     0
 42
0.000000
  3
ROMAND
  0
STYLE
 70
    68
  2
SV0
 40
0.000000
 41
0.000440
 50
0.000000
 71
     0
 42
0.000000
  3
ROMAND
  0
ENDTAB
  0
TABLE
  2
LAYER
 70
     3
  0
LAYER
  2
FOREGROUND
 70
    64
 62
     7
  6
CONTINUOUS
  0
LAYER
  2
BACKGROUND
 70
    65
 62
    -7
  6
CONTINUOUS
  0
LAYER
  2
0
 70
    64
 62
     7
  6
CONTINUOUS
  0
ENDTAB
  0
ENDSEC
  0
SECTION
  2
ENTITIES
  0
POLYLINE
  8
FOREGROUND
  6
CONTINUOUS
 66
     1
 40
0.000000
 41
0.000000
  0
VERTEX
  8
FOREGROUND
  6
CONTINUOUS
 10
0.000000
 20
8.373640
  0
VERTEX
  8
FOREGROUND
  6
CONTINUOUS
 10
8.499920
 20
8.373640
  0
VERTEX
  8
FOREGROUND
  6
CONTINUOUS
 10
8.499920
 20
-2.626360
  0
VERTEX
  8
FOREGROUND
  6
CONTINUOUS
 10
0.000000
 20
-2.626360
  0
VERTEX
  8
FOREGROUND
  6
CONTINUOUS
 10
0.000000
 20
8.373640
  0
SEQEND
  8
0
  0
POLYLINE
  8
FOREGROUND
  6
CONTINUOUS
 66
     1
 40
0.000000
 41
0.000000
  0
VERTEX
  8
FOREGROUND
  6
CONTINUOUS
 10
0.000000
 20
8.373640
  0
VERTEX
  8
FOREGROUND
  6
CONTINUOUS
 10
8.499920
 20
8.373640
  0
VERTEX
  8
FOREGROUND
  6
CONTINUOUS
 10
8.499920
 20
-2.626360
  0
VERTEX
  8
FOREGROUND
  6
CONTINUOUS
 10
0.000000
 20
-2.626360
  0
VERTEX
  8
FOREGROUND
  6
CONTINUOUS
 10
0.000000
 20
8.373640
  0
SEQEND
  8
0
  0
POLYLINE
  8
0
  6
CONTINUOUS
 66
     1
 40
0.000000
 41
0.000000
  0
VERTEX
  8
0
  6
CONTINUOUS
 10
4.969800
 20
5.155920
  0
VERTEX
  8
0
  6
CONTINUOUS
 10
5.011600
 20
5.154600
  0
VERTEX
  8
0
  6
CONTINUOUS
 10
5.073640
 20
5.146240
  0
VERTEX
  8
0
  6
CONTINUOUS
 10
5.115000
 20
5.136560
  0
VERTEX
  8
0
  6
CONTINUOUS
 10
5.156800
 20
5.122920
  0
VERTEX
  8
0
  6
CONTINUOUS
 10
5.221480
 20
5.094320
  0
VERTEX
  8
0
  6
CONTINUOUS
 10
5.288800
 20
5.055600
  0
VERTEX
  8
0
  6
CONTINUOUS
 10
5.335880
 20
5.025240
  0
VERTEX
  8
0
  6
CONTINUOUS
 10
5.383400
 20
4.999280
  0
VERTEX
  8
0
  6
CONTINUOUS
 10
5.430040
 20
4.979040
  0
VERTEX
  8
0
  6
CONTINUOUS
 10
5.496480
 20
4.957920
  0
VERTEX
  8
0
  6
CONTINUOUS
 10
5.555440
 20
4.946040
  0
VERTEX
  8
0
  6
CONTINUOUS
 10
5.603840
 20
4.941200
  0
VERTEX
  8
0
  6
CONTINUOUS
 10
5.628480
 20
4.940760
  0
VERTEX
  8
0
  6
CONTINUOUS
 10
5.628480
 20
4.749360
  0
VERTEX
  8
0
  6
CONTINUOUS
 10
5.682600
 20
4.716360
  0
VERTEX
  8
0
  6
CONTINUOUS
 10
5.728800
 20
4.682040
  0
VERTEX
  8
0
  6
CONTINUOUS
 10
5.755640
 20
4.658720
  0
VERTEX
  8
0
  6
CONTINUOUS
 10
5.789520
 20
4.623080
  0
VERTEX
  8
0
  6
CONTINUOUS
 10
5.816360
 20
4.587000
  0
VERTEX
  8
0
  6
CONTINUOUS
 10
5.837040
 20
4.550920
  0
VERTEX
  8
0
  6
CONTINUOUS
 10
5.851560
 20
4.514400
  0
VERTEX
  8
0
  6
CONTINUOUS
 10
5.857720
 20
4.490200
  0
VERTEX
  8
0
  6
CONTINUOUS
 10
5.862120
 20
4.466440
  0
VERTEX
  8
0
  6
CONTINUOUS
 10
5.863880
 20
4.442680
  0
VERTEX
  8
0
  6
CONTINUOUS
 10
5.863440
 20
4.419800
  0
VERTEX
  8
0
  6
CONTINUOUS
 10
5.861240
 20
4.396920
  0
VERTEX
  8
0
  6
CONTINUOUS
 10
5.857280
 20
4.374480
  0
VERTEX
  8
0
  6
CONTINUOUS
 10
5.843640
 20
4.331360
  0
VERTEX
  8
0
  6
CONTINUOUS
 10
5.824280
 20
4.291320
  0
VERTEX
  8
0
  6
CONTINUOUS
 10
5.799640
 20
4.254800
  0
VERTEX
  8
0
  6
CONTINUOUS
 10
5.771040
 20
4.222240
  0
VERTEX
  8
0
  6
CONTINUOUS
 10
5.739360
 20
4.194520
  0
VERTEX
  8
0
  6
CONTINUOUS
 10
5.705480
 20
4.171640
  0
VERTEX
  8
0
  6
CONTINUOUS
 10
5.688320
 20
4.162400
  0
VERTEX
  8
0
  6
CONTINUOUS
 10
5.653120
 20
4.148760
  0
VERTEX
  8
0
  6
CONTINUOUS
 10
5.635960
 20
4.144360
  0
VERTEX
  8
0
  6
CONTINUOUS
 10
5.635960
 20
4.007520
  0
VERTEX
  8
0
  6
CONTINUOUS
 10
5.343360
 20
4.007520
  0
VERTEX
  8
0
  6
CONTINUOUS
 10
5.343360
 20
4.285160
  0
VERTEX
  8
0
  6
CONTINUOUS
 10
4.968480
 20
4.285160
  0
VERTEX
  8
0
  6
CONTINUOUS
 10
4.968920
 20
4.285160
  0
VERTEX
  8
0
  6
CONTINUOUS
 10
4.593600
 20
4.285160
  0
VERTEX
  8
0
  6
CONTINUOUS
 10
4.593600
 20
4.007520
  0
VERTEX
  8
0
  6
CONTINUOUS
 10
4.301440
 20
4.007520
  0
VERTEX
  8
0
  6
CONTINUOUS
 10
4.301440
 20
4.144360
  0
VERTEX
  8
0
  6
CONTINUOUS
 10
4.266680
 20
4.154920
  0
VERTEX
  8
0
  6
CONTINUOUS
 10
4.249080
 20
4.162400
  0
VERTEX
  8
0
  6
CONTINUOUS
 10
4.214760
 20
4.182200
  0
VERTEX
  8
0
  6
CONTINUOUS
 10
4.181760
 20
4.207720
  0
VERTEX
  8
0
  6
CONTINUOUS
 10
4.151840
 20
4.238080
  0
VERTEX
  8
0
  6
CONTINUOUS
 10
4.137760
 20
4.254800
  0
VERTEX
  8
0
  6
CONTINUOUS
 10
4.113120
 20
4.291320
  0
VERTEX
  8
0
  6
CONTINUOUS
 10
4.093760
 20
4.331360
  0
VERTEX
  8
0
  6
CONTINUOUS
 10
4.080120
 20
4.374480
  0
VERTEX
  8
0
  6
CONTINUOUS
 10
4.076160
 20
4.396920
  0
VERTEX
  8
0
  6
CONTINUOUS
 10
4.073960
 20
4.419800
  0
VERTEX
  8
0
  6
CONTINUOUS
 10
4.073520
 20
4.442680
  0
VERTEX
  8
0
  6
CONTINUOUS
 10
4.075280
 20
4.466440
  0
VERTEX
  8
0
  6
CONTINUOUS
 10
4.079240
 20
4.490200
  0
VERTEX
  8
0
  6
CONTINUOUS
 10
4.085840
 20
4.514400
  0
VERTEX
  8
0
  6
CONTINUOUS
 10
4.100360
 20
4.550920
  0
VERTEX
  8
0
  6
CONTINUOUS
 10
4.120600
 20
4.587000
  0
VERTEX
  8
0
  6
CONTINUOUS
 10
4.137760
 20
4.611200
  0
VERTEX
  8
0
  6
CONTINUOUS
 10
4.169440
 20
4.646840
  0
VERTEX
  8
0
  6
CONTINUOUS
 10
4.208160
 20
4.682040
  0
VERTEX
  8
0
  6
CONTINUOUS
 10
4.254360
 20
4.716360
  0
VERTEX
  8
0
  6
CONTINUOUS
 10
4.308480
 20
4.749360
  0
VERTEX
  8
0
  6
CONTINUOUS
 10
4.308480
 20
4.940760
  0
VERTEX
  8
0
  6
CONTINUOUS
 10
4.347640
 20
4.942080
  0
VERTEX
  8
0
  6
CONTINUOUS
 10
4.400440
 20
4.949120
  0
VERTEX
  8
0
  6
CONTINUOUS
 10
4.440920
 20
4.957920
  0
VERTEX
  8
0
  6
CONTINUOUS
 10
4.507360
 20
4.979040
  0
VERTEX
  8
0
  6
CONTINUOUS
 10
4.554000
 20
4.999280
  0
VERTEX
  8
0
  6
CONTINUOUS
 10
4.601080
 20
5.025240
  0
VERTEX
  8
0
  6
CONTINUOUS
 10
4.671040
 20
5.069680
  0
VERTEX
  8
0
  6
CONTINUOUS
 10
4.715480
 20
5.094320
  0
VERTEX
  8
0
  6
CONTINUOUS
 10
4.780160
 20
5.122920
  0
VERTEX
  8
0
  6
CONTINUOUS
 10
4.821960
 20
5.136560
  0
VERTEX
  8
0
  6
CONTINUOUS
 10
4.863320
 20
5.146240
  0
VERTEX
  8
0
  6
CONTINUOUS
 10
4.925360
 20
5.154600
  0
VERTEX
  8
0
  6
CONTINUOUS
 10
4.969800
 20
5.155920
  0
SEQEND
  8
0
  0
POLYLINE
  8
0
  6
CONTINUOUS
 66
     1
 40
0.000000
 41
0.000000
  0
VERTEX
  8
0
  6
CONTINUOUS
 10
4.969800
 20
1.821160
  0
VERTEX
  8
0
  6
CONTINUOUS
 10
5.011600
 20
1.819840
  0
VERTEX
  8
0
  6
CONTINUOUS
 10
5.073640
 20
1.811480
  0
VERTEX
  8
0
  6
CONTINUOUS
 10
5.115000
 20
1.801800
  0
VERTEX
  8
0
  6
CONTINUOUS
 10
5.156800
 20
1.788160
  0
VERTEX
  8
0
  6
CONTINUOUS
 10
5.221480
 20
1.759560
  0
VERTEX
  8
0
  6
CONTINUOUS
 10
5.288800
 20
1.720840
  0
VERTEX
  8
0
  6
CONTINUOUS
 10
5.335880
 20
1.690040
  0
VERTEX
  8
0
  6
CONTINUOUS
 10
5.383400
 20
1.664520
  0
VERTEX
  8
0
  6
CONTINUOUS
 10
5.430040
 20
1.644280
  0
VERTEX
  8
0
  6
CONTINUOUS
 10
5.474920
 20
1.628880
  0
VERTEX
  8
0
  6
CONTINUOUS
 10
5.536960
 20
1.614360
  0
VERTEX
  8
0
  6
CONTINUOUS
 10
5.573040
 20
1.608640
  0
VERTEX
  8
0
  6
CONTINUOUS
 10
5.617040
 20
1.606000
  0
VERTEX
  8
0
  6
CONTINUOUS
 10
5.628480
 20
1.606000
  0
VERTEX
  8
0
  6
CONTINUOUS
 10
5.628480
 20
1.414600
  0
VERTEX
  8
0
  6
CONTINUOUS
 10
5.682600
 20
1.381600
  0
VERTEX
  8
0
  6
CONTINUOUS
 10
5.728800
 20
1.347280
  0
VERTEX
  8
0
  6
CONTINUOUS
 10
5.755640
 20
1.323960
  0
VERTEX
  8
0
  6
CONTINUOUS
 10
5.789520
 20
1.288320
  0
VERTEX
  8
0
  6
CONTINUOUS
 10
5.816360
 20
1.252240
  0
VERTEX
  8
0
  6
CONTINUOUS
 10
5.837040
 20
1.216160
  0
VERTEX
  8
0
  6
CONTINUOUS
 10
5.851560
 20
1.179640
  0
VERTEX
  8
0
  6
CONTINUOUS
 10
5.857720
 20
1.155440
  0
VERTEX
  8
0
  6
CONTINUOUS
 10
5.862120
 20
1.131680
  0
VERTEX
  8
0
  6
CONTINUOUS
 10
5.863880
 20
1.107920
  0
VERTEX
  8
0
  6
CONTINUOUS
 10
5.863440
 20
1.085040
  0
VERTEX
  8
0
  6
CONTINUOUS
 10
5.861240
 20
1.062160
  0
VERTEX
  8
0
  6
CONTINUOUS
 10
5.857280
 20
1.039720
  0
VERTEX
  8
0
  6
CONTINUOUS
 10
5.843640
 20
0.996600
  0
VERTEX
  8
0
  6
CONTINUOUS
 10
5.824280
 20
0.956560
  0
VERTEX
  8
0
  6
CONTINUOUS
 10
5.799640
 20
0.920040
  0
VERTEX
  8
0
  6
CONTINUOUS
 10
5.771040
 20
0.887480
  0
VERTEX
  8
0
  6
CONTINUOUS
 10
5.739360
 20
0.859760
  0
VERTEX
  8
0
  6
CONTINUOUS
 10
5.705480
 20
0.836880
  0
VERTEX
  8
0
  6
CONTINUOUS
 10
5.688320
 20
0.827640
  0
VERTEX
  8
0
  6
CONTINUOUS
 10
5.653120
 20
0.814000
  0
VERTEX
  8
0
  6
CONTINUOUS
 10
5.635960
 20
0.809600
  0
VERTEX
  8
0
  6
CONTINUOUS
 10
5.635960
 20
0.672760
  0
VERTEX
  8
0
  6
CONTINUOUS
 10
5.343360
 20
0.672760
  0
VERTEX
  8
0
  6
CONTINUOUS
 10
5.343360
 20
0.950400
  0
VERTEX
  8
0
  6
CONTINUOUS
 10
4.968480
 20
0.950400
  0
VERTEX
  8
0
  6
CONTINUOUS
 10
4.968920
 20
0.950400
  0
VERTEX
  8
0
  6
CONTINUOUS
 10
4.593600
 20
0.950400
  0
VERTEX
  8
0
  6
CONTINUOUS
 10
4.593600
 20
0.672760
  0
VERTEX
  8
0
  6
CONTINUOUS
 10
4.301440
 20
0.672760
  0
VERTEX
  8
0
  6
CONTINUOUS
 10
4.301440
 20
0.809600
  0
VERTEX
  8
0
  6
CONTINUOUS
 10
4.266680
 20
0.820160
  0
VERTEX
  8
0
  6
CONTINUOUS
 10
4.249080
 20
0.827640
  0
VERTEX
  8
0
  6
CONTINUOUS
 10
4.214760
 20
0.847440
  0
VERTEX
  8
0
  6
CONTINUOUS
 10
4.181760
 20
0.872960
  0
VERTEX
  8
0
  6
CONTINUOUS
 10
4.151840
 20
0.903320
  0
VERTEX
  8
0
  6
CONTINUOUS
 10
4.137760
 20
0.920040
  0
VERTEX
  8
0
  6
CONTINUOUS
 10
4.113120
 20
0.956560
  0
VERTEX
  8
0
  6
CONTINUOUS
 10
4.093760
 20
0.996600
  0
VERTEX
  8
0
  6
CONTINUOUS
 10
4.080120
 20
1.039720
  0
VERTEX
  8
0
  6
CONTINUOUS
 10
4.076160
 20
1.062160
  0
VERTEX
  8
0
  6
CONTINUOUS
 10
4.073960
 20
1.085040
  0
VERTEX
  8
0
  6
CONTINUOUS
 10
4.073520
 20
1.107920
  0
VERTEX
  8
0
  6
CONTINUOUS
 10
4.075280
 20
1.131680
  0
VERTEX
  8
0
  6
CONTINUOUS
 10
4.079240
 20
1.155440
  0
VERTEX
  8
0
  6
CONTINUOUS
 10
4.085840
 20
1.179640
  0
VERTEX
  8
0
  6
CONTINUOUS
 10
4.100360
 20
1.216160
  0
VERTEX
  8
0
  6
CONTINUOUS
 10
4.120600
 20
1.252240
  0
VERTEX
  8
0
  6
CONTINUOUS
 10
4.137760
 20
1.276440
  0
VERTEX
  8
0
  6
CONTINUOUS
 10
4.169440
 20
1.312080
  0
VERTEX
  8
0
  6
CONTINUOUS
 10
4.208160
 20
1.347280
  0
VERTEX
  8
0
  6
CONTINUOUS
 10
4.254360
 20
1.381600
  0
VERTEX
  8
0
  6
CONTINUOUS
 10
4.308480
 20
1.414600
  0
VERTEX
  8
0
  6
CONTINUOUS
 10
4.308480
 20
1.606000
  0
VERTEX
  8
0
  6
CONTINUOUS
 10
4.347640
 20
1.607320
  0
VERTEX
  8
0
  6
CONTINUOUS
 10
4.381520
 20
1.611280
  0
VERTEX
  8
0
  6
CONTINUOUS
 10
4.440920
 20
1.623160
  0
VERTEX
  8
0
  6
CONTINUOUS
 10
4.484480
 20
1.635920
  0
VERTEX
  8
0
  6
CONTINUOUS
 10
4.530240
 20
1.653520
  0
VERTEX
  8
0
  6
CONTINUOUS
 10
4.577760
 20
1.676400
  0
VERTEX
  8
0
  6
CONTINUOUS
 10
4.671040
 20
1.734920
  0
VERTEX
  8
0
  6
CONTINUOUS
 10
4.715480
 20
1.759560
  0
VERTEX
  8
0
  6
CONTINUOUS
 10
4.780160
 20
1.788160
  0
VERTEX
  8
0
  6
CONTINUOUS
 10
4.821960
 20
1.801800
  0
VERTEX
  8
0
  6
CONTINUOUS
 10
4.863320
 20
1.811480
  0
VERTEX
  8
0
  6
CONTINUOUS
 10
4.925360
 20
1.819840
  0
VERTEX
  8
0
  6
CONTINUOUS
 10
4.969800
 20
1.821160
  0
SEQEND
  8
0
  0
POLYLINE
  8
0
  6
CONTINUOUS
 66
     1
 40
0.000000
 41
0.000000
  0
VERTEX
  8
0
  6
CONTINUOUS
 10
4.969800
 20
3.488320
  0
VERTEX
  8
0
  6
CONTINUOUS
 10
5.011600
 20
3.487000
  0
VERTEX
  8
0
  6
CONTINUOUS
 10
5.073640
 20
3.478640
  0
VERTEX
  8
0
  6
CONTINUOUS
 10
5.115000
 20
3.468960
  0
VERTEX
  8
0
  6
CONTINUOUS
 10
5.178360
 20
3.446960
  0
VERTEX
  8
0
  6
CONTINUOUS
 10
5.243480
 20
3.415280
  0
VERTEX
  8
0
  6
CONTINUOUS
 10
5.359640
 20
3.344000
  0
VERTEX
  8
0
  6
CONTINUOUS
 10
5.406720
 20
3.321120
  0
VERTEX
  8
0
  6
CONTINUOUS
 10
5.452480
 20
3.303520
  0
VERTEX
  8
0
  6
CONTINUOUS
 10
5.517160
 20
3.285480
  0
VERTEX
  8
0
  6
CONTINUOUS
 10
5.573040
 20
3.276240
  0
VERTEX
  8
0
  6
CONTINUOUS
 10
5.617040
 20
3.273160
  0
VERTEX
  8
0
  6
CONTINUOUS
 10
5.628480
 20
3.273160
  0
VERTEX
  8
0
  6
CONTINUOUS
 10
5.628480
 20
3.081760
  0
VERTEX
  8
0
  6
CONTINUOUS
 10
5.682600
 20
3.048760
  0
VERTEX
  8
0
  6
CONTINUOUS
 10
5.728800
 20
3.014440
  0
VERTEX
  8
0
  6
CONTINUOUS
 10
5.755640
 20
2.991120
  0
VERTEX
  8
0
  6
CONTINUOUS
 10
5.789520
 20
2.955480
  0
VERTEX
  8
0
  6
CONTINUOUS
 10
5.816360
 20
2.919400
  0
VERTEX
  8
0
  6
CONTINUOUS
 10
5.837040
 20
2.883320
  0
VERTEX
  8
0
  6
CONTINUOUS
 10
5.851560
 20
2.846800
  0
VERTEX
  8
0
  6
CONTINUOUS
 10
5.857720
 20
2.822600
  0
VERTEX
  8
0
  6
CONTINUOUS
 10
5.862120
 20
2.798840
  0
VERTEX
  8
0
  6
CONTINUOUS
 10
5.863880
 20
2.775520
  0
VERTEX
  8
0
  6
CONTINUOUS
 10
5.863440
 20
2.752200
  0
VERTEX
  8
0
  6
CONTINUOUS
 10
5.861240
 20
2.729320
  0
VERTEX
  8
0
  6
CONTINUOUS
 10
5.857280
 20
2.706880
  0
VERTEX
  8
0
  6
CONTINUOUS
 10
5.843640
 20
2.663760
  0
VERTEX
  8
0
  6
CONTINUOUS
 10
5.824280
 20
2.623720
  0
VERTEX
  8
0
  6
CONTINUOUS
 10
5.799640
 20
2.587200
  0
VERTEX
  8
0
  6
CONTINUOUS
 10
5.771040
 20
2.554640
  0
VERTEX
  8
0
  6
CONTINUOUS
 10
5.739360
 20
2.526920
  0
VERTEX
  8
0
  6
CONTINUOUS
 10
5.705480
 20
2.504480
  0
VERTEX
  8
0
  6
CONTINUOUS
 10
5.688320
 20
2.495240
  0
VERTEX
  8
0
  6
CONTINUOUS
 10
5.653120
 20
2.481600
  0
VERTEX
  8
0
  6
CONTINUOUS
 10
5.635960
 20
2.477200
  0
VERTEX
  8
0
  6
CONTINUOUS
 10
5.635960
 20
2.340360
  0
VERTEX
  8
0
  6
CONTINUOUS
 10
5.343360
 20
2.340360
  0
VERTEX
  8
0
  6
CONTINUOUS
 10
5.343360
 20
2.617560
  0
VERTEX
  8
0
  6
CONTINUOUS
 10
4.968480
 20
2.617560
  0
VERTEX
  8
0
  6
CONTINUOUS
 10
4.968920
 20
2.617560
  0
VERTEX
  8
0
  6
CONTINUOUS
 10
4.593600
 20
2.617560
  0
VERTEX
  8
0
  6
CONTINUOUS
 10
4.593600
 20
2.340360
  0
VERTEX
  8
0
  6
CONTINUOUS
 10
4.301440
 20
2.340360
  0
VERTEX
  8
0
  6
CONTINUOUS
 10
4.301440
 20
2.477200
  0
VERTEX
  8
0
  6
CONTINUOUS
 10
4.266680
 20
2.487760
  0
VERTEX
  8
0
  6
CONTINUOUS
 10
4.249080
 20
2.495240
  0
VERTEX
  8
0
  6
CONTINUOUS
 10
4.214760
 20
2.515040
  0
VERTEX
  8
0
  6
CONTINUOUS
 10
4.181760
 20
2.540120
  0
VERTEX
  8
0
  6
CONTINUOUS
 10
4.151840
 20
2.570480
  0
VERTEX
  8
0
  6
CONTINUOUS
 10
4.137760
 20
2.587200
  0
VERTEX
  8
0
  6
CONTINUOUS
 10
4.113120
 20
2.623720
  0
VERTEX
  8
0
  6
CONTINUOUS
 10
4.093760
 20
2.663760
  0
VERTEX
  8
0
  6
CONTINUOUS
 10
4.080120
 20
2.706880
  0
VERTEX
  8
0
  6
CONTINUOUS
 10
4.076160
 20
2.729320
  0
VERTEX
  8
0
  6
CONTINUOUS
 10
4.073960
 20
2.752200
  0
VERTEX
  8
0
  6
CONTINUOUS
 10
4.073520
 20
2.775520
  0
VERTEX
  8
0
  6
CONTINUOUS
 10
4.075280
 20
2.798840
  0
VERTEX
  8
0
  6
CONTINUOUS
 10
4.079240
 20
2.822600
  0
VERTEX
  8
0
  6
CONTINUOUS
 10
4.085840
 20
2.846800
  0
VERTEX
  8
0
  6
CONTINUOUS
 10
4.100360
 20
2.883320
  0
VERTEX
  8
0
  6
CONTINUOUS
 10
4.120600
 20
2.919400
  0
VERTEX
  8
0
  6
CONTINUOUS
 10
4.137760
 20
2.943600
  0
VERTEX
  8
0
  6
CONTINUOUS
 10
4.169440
 20
2.979240
  0
VERTEX
  8
0
  6
CONTINUOUS
 10
4.208160
 20
3.014440
  0
VERTEX
  8
0
  6
CONTINUOUS
 10
4.254360
 20
3.048760
  0
VERTEX
  8
0
  6
CONTINUOUS
 10
4.308480
 20
3.081760
  0
VERTEX
  8
0
  6
CONTINUOUS
 10
4.308480
 20
3.273160
  0
VERTEX
  8
0
  6
CONTINUOUS
 10
4.347640
 20
3.274480
  0
VERTEX
  8
0
  6
CONTINUOUS
 10
4.400440
 20
3.281520
  0
VERTEX
  8
0
  6
CONTINUOUS
 10
4.462480
 20
3.296480
  0
VERTEX
  8
0
  6
CONTINUOUS
 10
4.507360
 20
3.311880
  0
VERTEX
  8
0
  6
CONTINUOUS
 10
4.554000
 20
3.332120
  0
VERTEX
  8
0
  6
CONTINUOUS
 10
4.601080
 20
3.357640
  0
VERTEX
  8
0
  6
CONTINUOUS
 10
4.671040
 20
3.402520
  0
VERTEX
  8
0
  6
CONTINUOUS
 10
4.715480
 20
3.426720
  0
VERTEX
  8
0
  6
CONTINUOUS
 10
4.758600
 20
3.446960
  0
VERTEX
  8
0
  6
CONTINUOUS
 10
4.821960
 20
3.468960
  0
VERTEX
  8
0
  6
CONTINUOUS
 10
4.863320
 20
3.478640
  0
VERTEX
  8
0
  6
CONTINUOUS
 10
4.925360
 20
3.487000
  0
VERTEX
  8
0
  6
CONTINUOUS
 10
4.969800
 20
3.488320
  0
SEQEND
  8
0
  0
SOLID
  8
0
 62
    15
 10
4.293080
 20
6.588560
 11
4.942960
 21
6.963880
 12
4.286480
 22
6.543240
 13
4.936800
 23
6.918560
  0
POLYLINE
  8
0
  6
CONTINUOUS
 66
     1
 40
0.000000
 41
0.000000
  0
VERTEX
  8
0
  6
CONTINUOUS
 10
4.293080
 20
6.588560
  0
VERTEX
  8
0
  6
CONTINUOUS
 10
4.942960
 20
6.963880
  0
VERTEX
  8
0
  6
CONTINUOUS
 10
4.936800
 20
6.918560
  0
VERTEX
  8
0
  6
CONTINUOUS
 10
4.286480
 20
6.543240
  0
VERTEX
  8
0
  6
CONTINUOUS
 10
4.293080
 20
6.588560
  0
SEQEND
  8
0
  0
SOLID
  8
0
 62
    15
 10
3.482600
 20
7.318960
 11
4.132920
 21
7.694280
 12
3.565760
 22
7.299160
 13
4.215640
 23
7.674480
  0
POLYLINE
  8
0
  6
CONTINUOUS
 66
     1
 40
0.000000
 41
0.000000
  0
VERTEX
  8
0
  6
CONTINUOUS
 10
3.482600
 20
7.318960
  0
VERTEX
  8
0
  6
CONTINUOUS
 10
4.132920
 20
7.694280
  0
VERTEX
  8
0
  6
CONTINUOUS
 10
4.215640
 20
7.674480
  0
VERTEX
  8
0
  6
CONTINUOUS
 10
3.565760
 20
7.299160
  0
VERTEX
  8
0
  6
CONTINUOUS
 10
3.482600
 20
7.318960
  0
SEQEND
  8
0
  0
SOLID
  8
0
 62
    15
 10
3.565760
 20
7.299160
 11
4.215640
 21
7.674480
 12
3.651120
 22
7.263520
 13
4.301000
 23
7.638840
  0
POLYLINE
  8
0
  6
CONTINUOUS
 66
     1
 40
0.000000
 41
0.000000
  0
VERTEX
  8
0
  6
CONTINUOUS
 10
3.565760
 20
7.299160
  0
VERTEX
  8
0
  6
CONTINUOUS
 10
4.215640
 20
7.674480
  0
VERTEX
  8
0
  6
CONTINUOUS
 10
4.301000
 20
7.638840
  0
VERTEX
  8
0
  6
CONTINUOUS
 10
3.651120
 20
7.263520
  0
VERTEX
  8
0
  6
CONTINUOUS
 10
3.565760
 20
7.299160
  0
SEQEND
  8
0
  0
SOLID
  8
0
 62
    15
 10
3.651120
 20
7.263520
 11
4.301000
 21
7.638840
 12
3.741760
 22
7.209400
 13
4.391640
 23
7.584720
  0
POLYLINE
  8
0
  6
CONTINUOUS
 66
     1
 40
0.000000
 41
0.000000
  0
VERTEX
  8
0
  6
CONTINUOUS
 10
3.651120
 20
7.263520
  0
VERTEX
  8
0
  6
CONTINUOUS
 10
4.301000
 20
7.638840
  0
VERTEX
  8
0
  6
CONTINUOUS
 10
4.391640
 20
7.584720
  0
VERTEX
  8
0
  6
CONTINUOUS
 10
3.741760
 20
7.209400
  0
VERTEX
  8
0
  6
CONTINUOUS
 10
3.651120
 20
7.263520
  0
SEQEND
  8
0
  0
SOLID
  8
0
 62
    15
 10
3.741760
 20
7.209400
 11
4.391640
 21
7.584720
 12
3.789280
 22
7.180360
 13
4.439160
 23
7.555680
  0
POLYLINE
  8
0
  6
CONTINUOUS
 66
     1
 40
0.000000
 41
0.000000
  0
VERTEX
  8
0
  6
CONTINUOUS
 10
3.741760
 20
7.209400
  0
VERTEX
  8
0
  6
CONTINUOUS
 10
4.391640
 20
7.584720
  0
VERTEX
  8
0
  6
CONTINUOUS
 10
4.439160
 20
7.555680
  0
VERTEX
  8
0
  6
CONTINUOUS
 10
3.789280
 20
7.180360
  0
VERTEX
  8
0
  6
CONTINUOUS
 10
3.741760
 20
7.209400
  0
SEQEND
  8
0
  0
SOLID
  8
0
 62
    15
 10
3.789280
 20
7.180360
 11
4.439160
 21
7.555680
 12
3.836360
 22
7.157480
 13
4.486240
 23
7.532800
  0
POLYLINE
  8
0
  6
CONTINUOUS
 66
     1
 40
0.000000
 41
0.000000
  0
VERTEX
  8
0
  6
CONTINUOUS
 10
3.789280
 20
7.180360
  0
VERTEX
  8
0
  6
CONTINUOUS
 10
4.439160
 20
7.555680
  0
VERTEX
  8
0
  6
CONTINUOUS
 10
4.486240
 20
7.532800
  0
VERTEX
  8
0
  6
CONTINUOUS
 10
3.836360
 20
7.157480
  0
VERTEX
  8
0
  6
CONTINUOUS
 10
3.789280
 20
7.180360
  0
SEQEND
  8
0
  0
SOLID
  8
0
 62
    15
 10
3.836360
 20
7.157480
 11
4.486240
 21
7.532800
 12
3.926120
 22
7.127120
 13
4.576000
 23
7.502440
  0
POLYLINE
  8
0
  6
CONTINUOUS
 66
     1
 40
0.000000
 41
0.000000
  0
VERTEX
  8
0
  6
CONTINUOUS
 10
3.836360
 20
7.157480
  0
VERTEX
  8
0
  6
CONTINUOUS
 10
4.486240
 20
7.532800
  0
VERTEX
  8
0
  6
CONTINUOUS
 10
4.576000
 20
7.502440
  0
VERTEX
  8
0
  6
CONTINUOUS
 10
3.926120
 20
7.127120
  0
VERTEX
  8
0
  6
CONTINUOUS
 10
3.836360
 20
7.157480
  0
SEQEND
  8
0
  0
SOLID
  8
0
 62
    15
 10
3.926120
 20
7.127120
 11
4.576000
 21
7.502440
 12
3.966160
 22
7.118320
 13
4.616480
 23
7.493200
  0
POLYLINE
  8
0
  6
CONTINUOUS
 66
     1
 40
0.000000
 41
0.000000
  0
VERTEX
  8
0
  6
CONTINUOUS
 10
3.926120
 20
7.127120
  0
VERTEX
  8
0
  6
CONTINUOUS
 10
4.576000
 20
7.502440
  0
VERTEX
  8
0
  6
CONTINUOUS
 10
4.616480
 20
7.493200
  0
VERTEX
  8
0
  6
CONTINUOUS
 10
3.966160
 20
7.118320
  0
VERTEX
  8
0
  6
CONTINUOUS
 10
3.926120
 20
7.127120
  0
SEQEND
  8
0
  0
SOLID
  8
0
 62
    15
 10
3.966160
 20
7.118320
 11
4.616480
 21
7.493200
 12
4.002680
 22
7.112600
 13
4.652560
 23
7.487920
  0
POLYLINE
  8
0
  6
CONTINUOUS
 66
     1
 40
0.000000
 41
0.000000
  0
VERTEX
  8
0
  6
CONTINUOUS
 10
3.966160
 20
7.118320
  0
VERTEX
  8
0
  6
CONTINUOUS
 10
4.616480
 20
7.493200
  0
VERTEX
  8
0
  6
CONTINUOUS
 10
4.652560
 20
7.487920
  0
VERTEX
  8
0
  6
CONTINUOUS
 10
4.002680
 20
7.112600
  0
VERTEX
  8
0
  6
CONTINUOUS
 10
3.966160
 20
7.118320
  0
SEQEND
  8
0
  0
SOLID
  8
0
 62
    15
 10
4.002680
 20
7.112600
 11
4.652560
 21
7.487920
 12
4.033480
 22
7.109960
 13
4.683360
 23
7.485280
  0
POLYLINE
  8
0
  6
CONTINUOUS
 66
     1
 40
0.000000
 41
0.000000
  0
VERTEX
  8
0
  6
CONTINUOUS
 10
4.002680
 20
7.112600
  0
VERTEX
  8
0
  6
CONTINUOUS
 10
4.652560
 20
7.487920
  0
VERTEX
  8
0
  6
CONTINUOUS
 10
4.683360
 20
7.485280
  0
VERTEX
  8
0
  6
CONTINUOUS
 10
4.033480
 20
7.109960
  0
VERTEX
  8
0
  6
CONTINUOUS
 10
4.002680
 20
7.112600
  0
SEQEND
  8
0
  0
SOLID
  8
0
 62
    15
 10
4.033480
 20
7.109960
 11
4.683360
 21
7.485280
 12
4.058120
 22
7.109520
 13
4.708000
 23
7.484840
  0
POLYLINE
  8
0
  6
CONTINUOUS
 66
     1
 40
0.000000
 41
0.000000
  0
VERTEX
  8
0
  6
CONTINUOUS
 10
4.033480
 20
7.109960
  0
VERTEX
  8
0
  6
CONTINUOUS
 10
4.683360
 20
7.485280
  0
VERTEX
  8
0
  6
CONTINUOUS
 10
4.708000
 20
7.484840
  0
VERTEX
  8
0
  6
CONTINUOUS
 10
4.058120
 20
7.109520
  0
VERTEX
  8
0
  6
CONTINUOUS
 10
4.033480
 20
7.109960
  0
SEQEND
  8
0
  0
SOLID
  8
0
 62
    15
 10
4.058120
 20
7.109520
 11
4.708000
 21
7.484840
 12
4.058120
 22
6.918120
 13
4.708000
 23
7.293440
  0
POLYLINE
  8
0
  6
CONTINUOUS
 66
     1
 40
0.000000
 41
0.000000
  0
VERTEX
  8
0
  6
CONTINUOUS
 10
4.058120
 20
7.109520
  0
VERTEX
  8
0
  6
CONTINUOUS
 10
4.708000
 20
7.484840
  0
VERTEX
  8
0
  6
CONTINUOUS
 10
4.708000
 20
7.293440
  0
VERTEX
  8
0
  6
CONTINUOUS
 10
4.058120
 20
6.918120
  0
VERTEX
  8
0
  6
CONTINUOUS
 10
4.058120
 20
7.109520
  0
SEQEND
  8
0
  0
SOLID
  8
0
 62
    15
 10
4.058120
 20
6.918120
 11
4.708000
 21
7.293440
 12
4.128520
 22
6.874120
 13
4.778840
 23
7.249440
  0
POLYLINE
  8
0
  6
CONTINUOUS
 66
     1
 40
0.000000
 41
0.000000
  0
VERTEX
  8
0
  6
CONTINUOUS
 10
4.058120
 20
6.918120
  0
VERTEX
  8
0
  6
CONTINUOUS
 10
4.708000
 20
7.293440
  0
VERTEX
  8
0
  6
CONTINUOUS
 10
4.778840
 20
7.249440
  0
VERTEX
  8
0
  6
CONTINUOUS
 10
4.128520
 20
6.874120
  0
VERTEX
  8
0
  6
CONTINUOUS
 10
4.058120
 20
6.918120
  0
SEQEND
  8
0
  0
SOLID
  8
0
 62
    15
 10
4.128520
 20
6.874120
 11
4.778840
 21
7.249440
 12
4.185280
 22
6.827480
 13
4.835160
 23
7.202800
  0
POLYLINE
  8
0
  6
CONTINUOUS
 66
     1
 40
0.000000
 41
0.000000
  0
VERTEX
  8
0
  6
CONTINUOUS
 10
4.128520
 20
6.874120
  0
VERTEX
  8
0
  6
CONTINUOUS
 10
4.778840
 20
7.249440
  0
VERTEX
  8
0
  6
CONTINUOUS
 10
4.835160
 20
7.202800
  0
VERTEX
  8
0
  6
CONTINUOUS
 10
4.185280
 20
6.827480
  0
VERTEX
  8
0
  6
CONTINUOUS
 10
4.128520
 20
6.874120
  0
SEQEND
  8
0
  0
SOLID
  8
0
 62
    15
 10
4.185280
 20
6.827480
 11
4.835160
 21
7.202800
 12
4.228840
 22
6.779960
 13
4.878720
 23
7.155280
  0
POLYLINE
  8
0
  6
CONTINUOUS
 66
     1
 40
0.000000
 41
0.000000
  0
VERTEX
  8
0
  6
CONTINUOUS
 10
4.185280
 20
6.827480
  0
VERTEX
  8
0
  6
CONTINUOUS
 10
4.835160
 20
7.202800
  0
VERTEX
  8
0
  6
CONTINUOUS
 10
4.878720
 20
7.155280
  0
VERTEX
  8
0
  6
CONTINUOUS
 10
4.228840
 20
6.779960
  0
VERTEX
  8
0
  6
CONTINUOUS
 10
4.185280
 20
6.827480
  0
SEQEND
  8
0
  0
SOLID
  8
0
 62
    15
 10
4.228840
 20
6.779960
 11
4.878720
 21
7.155280
 12
4.260520
 22
6.732000
 13
4.910400
 23
7.107320
  0
POLYLINE
  8
0
  6
CONTINUOUS
 66
     1
 40
0.000000
 41
0.000000
  0
VERTEX
  8
0
  6
CONTINUOUS
 10
4.228840
 20
6.779960
  0
VERTEX
  8
0
  6
CONTINUOUS
 10
4.878720
 20
7.155280
  0
VERTEX
  8
0
  6
CONTINUOUS
 10
4.910400
 20
7.107320
  0
VERTEX
  8
0
  6
CONTINUOUS
 10
4.260520
 20
6.732000
  0
VERTEX
  8
0
  6
CONTINUOUS
 10
4.228840
 20
6.779960
  0
SEQEND
  8
0
  0
SOLID
  8
0
 62
    15
 10
4.260520
 20
6.732000
 11
4.910400
 21
7.107320
 12
4.280760
 22
6.683600
 13
4.931080
 23
7.058480
  0
POLYLINE
  8
0
  6
CONTINUOUS
 66
     1
 40
0.000000
 41
0.000000
  0
VERTEX
  8
0
  6
CONTINUOUS
 10
4.260520
 20
6.732000
  0
VERTEX
  8
0
  6
CONTINUOUS
 10
4.910400
 20
7.107320
  0
VERTEX
  8
0
  6
CONTINUOUS
 10
4.931080
 20
7.058480
  0
VERTEX
  8
0
  6
CONTINUOUS
 10
4.280760
 20
6.683600
  0
VERTEX
  8
0
  6
CONTINUOUS
 10
4.260520
 20
6.732000
  0
SEQEND
  8
0
  0
SOLID
  8
0
 62
    15
 10
4.280760
 20
6.683600
 11
4.931080
 21
7.058480
 12
4.291320
 22
6.635640
 13
4.941640
 23
7.010960
  0
POLYLINE
  8
0
  6
CONTINUOUS
 66
     1
 40
0.000000
 41
0.000000
  0
VERTEX
  8
0
  6
CONTINUOUS
 10
4.280760
 20
6.683600
  0
VERTEX
  8
0
  6
CONTINUOUS
 10
4.931080
 20
7.058480
  0
VERTEX
  8
0
  6
CONTINUOUS
 10
4.941640
 20
7.010960
  0
VERTEX
  8
0
  6
CONTINUOUS
 10
4.291320
 20
6.635640
  0
VERTEX
  8
0
  6
CONTINUOUS
 10
4.280760
 20
6.683600
  0
SEQEND
  8
0
  0
SOLID
  8
0
 62
    15
 10
4.291320
 20
6.635640
 11
4.941640
 21
7.010960
 12
4.293080
 22
6.588560
 13
4.942960
 23
6.963880
  0
POLYLINE
  8
0
  6
CONTINUOUS
 66
     1
 40
0.000000
 41
0.000000
  0
VERTEX
  8
0
  6
CONTINUOUS
 10
4.291320
 20
6.635640
  0
VERTEX
  8
0
  6
CONTINUOUS
 10
4.941640
 20
7.010960
  0
VERTEX
  8
0
  6
CONTINUOUS
 10
4.942960
 20
6.963880
  0
VERTEX
  8
0
  6
CONTINUOUS
 10
4.293080
 20
6.588560
  0
VERTEX
  8
0
  6
CONTINUOUS
 10
4.291320
 20
6.635640
  0
SEQEND
  8
0
  0
SOLID
  8
0
 62
    15
 10
3.399440
 20
7.325120
 11
4.049320
 21
7.700000
 12
3.482600
 22
7.318960
 13
4.132920
 23
7.694280
  0
POLYLINE
  8
0
  6
CONTINUOUS
 66
     1
 40
0.000000
 41
0.000000
  0
VERTEX
  8
0
  6
CONTINUOUS
 10
3.399440
 20
7.325120
  0
VERTEX
  8
0
  6
CONTINUOUS
 10
4.049320
 20
7.700000
  0
VERTEX
  8
0
  6
CONTINUOUS
 10
4.132920
 20
7.694280
  0
VERTEX
  8
0
  6
CONTINUOUS
 10
3.482600
 20
7.318960
  0
VERTEX
  8
0
  6
CONTINUOUS
 10
3.399440
 20
7.325120
  0
SEQEND
  8
0
  0
SOLID
  8
0
 62
    15
 10
4.286480
 20
6.543240
 11
4.936800
 21
6.918560
 12
4.273280
 22
6.500560
 13
4.923160
 23
6.875880
  0
POLYLINE
  8
0
  6
CONTINUOUS
 66
     1
 40
0.000000
 41
0.000000
  0
VERTEX
  8
0
  6
CONTINUOUS
 10
4.286480
 20
6.543240
  0
VERTEX
  8
0
  6
CONTINUOUS
 10
4.936800
 20
6.918560
  0
VERTEX
  8
0
  6
CONTINUOUS
 10
4.923160
 20
6.875880
  0
VERTEX
  8
0
  6
CONTINUOUS
 10
4.273280
 20
6.500560
  0
VERTEX
  8
0
  6
CONTINUOUS
 10
4.286480
 20
6.543240
  0
SEQEND
  8
0
  0
SOLID
  8
0
 62
    15
 10
4.273280
 20
6.500560
 11
4.923160
 21
6.875880
 12
4.253480
 22
6.460520
 13
4.903800
 23
6.835840
  0
POLYLINE
  8
0
  6
CONTINUOUS
 66
     1
 40
0.000000
 41
0.000000
  0
VERTEX
  8
0
  6
CONTINUOUS
 10
4.273280
 20
6.500560
  0
VERTEX
  8
0
  6
CONTINUOUS
 10
4.923160
 20
6.875880
  0
VERTEX
  8
0
  6
CONTINUOUS
 10
4.903800
 20
6.835840
  0
VERTEX
  8
0
  6
CONTINUOUS
 10
4.253480
 20
6.460520
  0
VERTEX
  8
0
  6
CONTINUOUS
 10
4.273280
 20
6.500560
  0
SEQEND
  8
0
  0
SOLID
  8
0
 62
    15
 10
4.253480
 20
6.460520
 11
4.903800
 21
6.835840
 12
4.228840
 22
6.424000
 13
4.879160
 23
6.799320
  0
POLYLINE
  8
0
  6
CONTINUOUS
 66
     1
 40
0.000000
 41
0.000000
  0
VERTEX
  8
0
  6
CONTINUOUS
 10
4.253480
 20
6.460520
  0
VERTEX
  8
0
  6
CONTINUOUS
 10
4.903800
 20
6.835840
  0
VERTEX
  8
0
  6
CONTINUOUS
 10
4.879160
 20
6.799320
  0
VERTEX
  8
0
  6
CONTINUOUS
 10
4.228840
 20
6.424000
  0
VERTEX
  8
0
  6
CONTINUOUS
 10
4.253480
 20
6.460520
  0
SEQEND
  8
0
  0
SOLID
  8
0
 62
    15
 10
4.065600
 20
6.313560
 11
4.715480
 21
6.688880
 12
4.065600
 22
6.176720
 13
4.715480
 23
6.552040
  0
POLYLINE
  8
0
  6
CONTINUOUS
 66
     1
 40
0.000000
 41
0.000000
  0
VERTEX
  8
0
  6
CONTINUOUS
 10
4.065600
 20
6.313560
  0
VERTEX
  8
0
  6
CONTINUOUS
 10
4.715480
 20
6.688880
  0
VERTEX
  8
0
  6
CONTINUOUS
 10
4.715480
 20
6.552040
  0
VERTEX
  8
0
  6
CONTINUOUS
 10
4.065600
 20
6.176720
  0
VERTEX
  8
0
  6
CONTINUOUS
 10
4.065600
 20
6.313560
  0
SEQEND
  8
0
  0
SOLID
  8
0
 62
    15
 10
4.200240
 20
6.391440
 11
4.850560
 21
6.766760
 12
4.168560
 22
6.363280
 13
4.818880
 23
6.738600
  0
POLYLINE
  8
0
  6
CONTINUOUS
 66
     1
 40
0.000000
 41
0.000000
  0
VERTEX
  8
0
  6
CONTINUOUS
 10
4.200240
 20
6.391440
  0
VERTEX
  8
0
  6
CONTINUOUS
 10
4.850560
 20
6.766760
  0
VERTEX
  8
0
  6
CONTINUOUS
 10
4.818880
 20
6.738600
  0
VERTEX
  8
0
  6
CONTINUOUS
 10
4.168560
 20
6.363280
  0
VERTEX
  8
0
  6
CONTINUOUS
 10
4.200240
 20
6.391440
  0
SEQEND
  8
0
  0
SOLID
  8
0
 62
    15
 10
4.168560
 20
6.363280
 11
4.818880
 21
6.738600
 12
4.135120
 22
6.340840
 13
4.785000
 23
6.716160
  0
POLYLINE
  8
0
  6
CONTINUOUS
 66
     1
 40
0.000000
 41
0.000000
  0
VERTEX
  8
0
  6
CONTINUOUS
 10
4.168560
 20
6.363280
  0
VERTEX
  8
0
  6
CONTINUOUS
 10
4.818880
 20
6.738600
  0
VERTEX
  8
0
  6
CONTINUOUS
 10
4.785000
 20
6.716160
  0
VERTEX
  8
0
  6
CONTINUOUS
 10
4.135120
 20
6.340840
  0
VERTEX
  8
0
  6
CONTINUOUS
 10
4.168560
 20
6.363280
  0
SEQEND
  8
0
  0
SOLID
  8
0
 62
    15
 10
4.228840
 20
6.424000
 11
4.879160
 21
6.799320
 12
4.200240
 22
6.391440
 13
4.850560
 23
6.766760
  0
POLYLINE
  8
0
  6
CONTINUOUS
 66
     1
 40
0.000000
 41
0.000000
  0
VERTEX
  8
0
  6
CONTINUOUS
 10
4.228840
 20
6.424000
  0
VERTEX
  8
0
  6
CONTINUOUS
 10
4.879160
 20
6.799320
  0
VERTEX
  8
0
  6
CONTINUOUS
 10
4.850560
 20
6.766760
  0
VERTEX
  8
0
  6
CONTINUOUS
 10
4.200240
 20
6.391440
  0
VERTEX
  8
0
  6
CONTINUOUS
 10
4.228840
 20
6.424000
  0
SEQEND
  8
0
  0
SOLID
  8
0
 62
    15
 10
3.023240
 20
6.454360
 11
3.673120
 21
6.829240
 12
3.023240
 22
6.176720
 13
3.673120
 23
6.552040
  0
POLYLINE
  8
0
  6
CONTINUOUS
 66
     1
 40
0.000000
 41
0.000000
  0
VERTEX
  8
0
  6
CONTINUOUS
 10
3.023240
 20
6.454360
  0
VERTEX
  8
0
  6
CONTINUOUS
 10
3.673120
 20
6.829240
  0
VERTEX
  8
0
  6
CONTINUOUS
 10
3.673120
 20
6.552040
  0
VERTEX
  8
0
  6
CONTINUOUS
 10
3.023240
 20
6.176720
  0
VERTEX
  8
0
  6
CONTINUOUS
 10
3.023240
 20
6.454360
  0
SEQEND
  8
0
  0
SOLID
  8
0
 62
    15
 10
2.738120
 20
7.109520
 11
3.388440
 21
7.484840
 12
2.762760
 22
7.109960
 13
3.413080
 23
7.485280
  0
POLYLINE
  8
0
  6
CONTINUOUS
 66
     1
 40
0.000000
 41
0.000000
  0
VERTEX
  8
0
  6
CONTINUOUS
 10
2.738120
 20
7.109520
  0
VERTEX
  8
0
  6
CONTINUOUS
 10
3.388440
 20
7.484840
  0
VERTEX
  8
0
  6
CONTINUOUS
 10
3.413080
 20
7.485280
  0
VERTEX
  8
0
  6
CONTINUOUS
 10
2.762760
 20
7.109960
  0
VERTEX
  8
0
  6
CONTINUOUS
 10
2.738120
 20
7.109520
  0
SEQEND
  8
0
  0
SOLID
  8
0
 62
    15
 10
2.762760
 20
7.109960
 11
3.413080
 21
7.485280
 12
2.793560
 22
7.112600
 13
3.443880
 23
7.487920
  0
POLYLINE
  8
0
  6
CONTINUOUS
 66
     1
 40
0.000000
 41
0.000000
  0
VERTEX
  8
0
  6
CONTINUOUS
 10
2.762760
 20
7.109960
  0
VERTEX
  8
0
  6
CONTINUOUS
 10
3.413080
 20
7.485280
  0
VERTEX
  8
0
  6
CONTINUOUS
 10
3.443880
 20
7.487920
  0
VERTEX
  8
0
  6
CONTINUOUS
 10
2.793560
 20
7.112600
  0
VERTEX
  8
0
  6
CONTINUOUS
 10
2.762760
 20
7.109960
  0
SEQEND
  8
0
  0
SOLID
  8
0
 62
    15
 10
2.793560
 20
7.112600
 11
3.443880
 21
7.487920
 12
2.830080
 22
7.118320
 13
3.479960
 23
7.493200
  0
POLYLINE
  8
0
  6
CONTINUOUS
 66
     1
 40
0.000000
 41
0.000000
  0
VERTEX
  8
0
  6
CONTINUOUS
 10
2.793560
 20
7.112600
  0
VERTEX
  8
0
  6
CONTINUOUS
 10
3.443880
 20
7.487920
  0
VERTEX
  8
0
  6
CONTINUOUS
 10
3.479960
 20
7.493200
  0
VERTEX
  8
0
  6
CONTINUOUS
 10
2.830080
 20
7.118320
  0
VERTEX
  8
0
  6
CONTINUOUS
 10
2.793560
 20
7.112600
  0
SEQEND
  8
0
  0
SOLID
  8
0
 62
    15
 10
2.830080
 20
7.118320
 11
3.479960
 21
7.493200
 12
2.870560
 22
7.127120
 13
3.520440
 23
7.502440
  0
POLYLINE
  8
0
  6
CONTINUOUS
 66
     1
 40
0.000000
 41
0.000000
  0
VERTEX
  8
0
  6
CONTINUOUS
 10
2.830080
 20
7.118320
  0
VERTEX
  8
0
  6
CONTINUOUS
 10
3.479960
 20
7.493200
  0
VERTEX
  8
0
  6
CONTINUOUS
 10
3.520440
 20
7.502440
  0
VERTEX
  8
0
  6
CONTINUOUS
 10
2.870560
 20
7.127120
  0
VERTEX
  8
0
  6
CONTINUOUS
 10
2.830080
 20
7.118320
  0
SEQEND
  8
0
  0
SOLID
  8
0
 62
    15
 10
2.870560
 20
7.127120
 11
3.520440
 21
7.502440
 12
2.959880
 22
7.157480
 13
3.610200
 23
7.532800
  0
POLYLINE
  8
0
  6
CONTINUOUS
 66
     1
 40
0.000000
 41
0.000000
  0
VERTEX
  8
0
  6
CONTINUOUS
 10
2.870560
 20
7.127120
  0
VERTEX
  8
0
  6
CONTINUOUS
 10
3.520440
 20
7.502440
  0
VERTEX
  8
0
  6
CONTINUOUS
 10
3.610200
 20
7.532800
  0
VERTEX
  8
0
  6
CONTINUOUS
 10
2.959880
 20
7.157480
  0
VERTEX
  8
0
  6
CONTINUOUS
 10
2.870560
 20
7.127120
  0
SEQEND
  8
0
  0
SOLID
  8
0
 62
    15
 10
2.959880
 20
7.157480
 11
3.610200
 21
7.532800
 12
3.007400
 22
7.180360
 13
3.657280
 23
7.555680
  0
POLYLINE
  8
0
  6
CONTINUOUS
 66
     1
 40
0.000000
 41
0.000000
  0
VERTEX
  8
0
  6
CONTINUOUS
 10
2.959880
 20
7.157480
  0
VERTEX
  8
0
  6
CONTINUOUS
 10
3.610200
 20
7.532800
  0
VERTEX
  8
0
  6
CONTINUOUS
 10
3.657280
 20
7.555680
  0
VERTEX
  8
0
  6
CONTINUOUS
 10
3.007400
 20
7.180360
  0
VERTEX
  8
0
  6
CONTINUOUS
 10
2.959880
 20
7.157480
  0
SEQEND
  8
0
  0
SOLID
  8
0
 62
    15
 10
3.145120
 20
7.263520
 11
3.795440
 21
7.638840
 12
3.230480
 22
7.299160
 13
3.880800
 23
7.674480
  0
POLYLINE
  8
0
  6
CONTINUOUS
 66
     1
 40
0.000000
 41
0.000000
  0
VERTEX
  8
0
  6
CONTINUOUS
 10
3.145120
 20
7.263520
  0
VERTEX
  8
0
  6
CONTINUOUS
 10
3.795440
 20
7.638840
  0
VERTEX
  8
0
  6
CONTINUOUS
 10
3.880800
 20
7.674480
  0
VERTEX
  8
0
  6
CONTINUOUS
 10
3.230480
 20
7.299160
  0
VERTEX
  8
0
  6
CONTINUOUS
 10
3.145120
 20
7.263520
  0
SEQEND
  8
0
  0
SOLID
  8
0
 62
    15
 10
3.230480
 20
7.299160
 11
3.880800
 21
7.674480
 12
3.313640
 22
7.318960
 13
3.963520
 23
7.694280
  0
POLYLINE
  8
0
  6
CONTINUOUS
 66
     1
 40
0.000000
 41
0.000000
  0
VERTEX
  8
0
  6
CONTINUOUS
 10
3.230480
 20
7.299160
  0
VERTEX
  8
0
  6
CONTINUOUS
 10
3.880800
 20
7.674480
  0
VERTEX
  8
0
  6
CONTINUOUS
 10
3.963520
 20
7.694280
  0
VERTEX
  8
0
  6
CONTINUOUS
 10
3.313640
 20
7.318960
  0
VERTEX
  8
0
  6
CONTINUOUS
 10
3.230480
 20
7.299160
  0
SEQEND
  8
0
  0
SOLID
  8
0
 62
    15
 10
3.313640
 20
7.318960
 11
3.963520
 21
7.694280
 12
3.396800
 22
7.325120
 13
4.047120
 23
7.700000
  0
POLYLINE
  8
0
  6
CONTINUOUS
 66
     1
 40
0.000000
 41
0.000000
  0
VERTEX
  8
0
  6
CONTINUOUS
 10
3.313640
 20
7.318960
  0
VERTEX
  8
0
  6
CONTINUOUS
 10
3.963520
 20
7.694280
  0
VERTEX
  8
0
  6
CONTINUOUS
 10
4.047120
 20
7.700000
  0
VERTEX
  8
0
  6
CONTINUOUS
 10
3.396800
 20
7.325120
  0
VERTEX
  8
0
  6
CONTINUOUS
 10
3.313640
 20
7.318960
  0
SEQEND
  8
0
  0
SOLID
  8
0
 62
    15
 10
3.396800
 20
7.325120
 11
4.047120
 21
7.700000
 12
3.399440
 22
7.325120
 13
4.049320
 23
7.700000
  0
POLYLINE
  8
0
  6
CONTINUOUS
 66
     1
 40
0.000000
 41
0.000000
  0
VERTEX
  8
0
  6
CONTINUOUS
 10
3.396800
 20
7.325120
  0
VERTEX
  8
0
  6
CONTINUOUS
 10
4.047120
 20
7.700000
  0
VERTEX
  8
0
  6
CONTINUOUS
 10
4.049320
 20
7.700000
  0
VERTEX
  8
0
  6
CONTINUOUS
 10
3.399440
 20
7.325120
  0
VERTEX
  8
0
  6
CONTINUOUS
 10
3.396800
 20
7.325120
  0
SEQEND
  8
0
  0
POLYLINE
  8
0
  6
CONTINUOUS
 66
     1
 40
0.000000
 41
0.000000
  0
VERTEX
  8
0
  6
CONTINUOUS
 10
3.399440
 20
7.325120
  0
VERTEX
  8
0
  6
CONTINUOUS
 10
3.482600
 20
7.318960
  0
VERTEX
  8
0
  6
CONTINUOUS
 10
3.565760
 20
7.299160
  0
VERTEX
  8
0
  6
CONTINUOUS
 10
3.651120
 20
7.263520
  0
VERTEX
  8
0
  6
CONTINUOUS
 10
3.789280
 20
7.180360
  0
VERTEX
  8
0
  6
CONTINUOUS
 10
3.836360
 20
7.157480
  0
VERTEX
  8
0
  6
CONTINUOUS
 10
3.926120
 20
7.127120
  0
VERTEX
  8
0
  6
CONTINUOUS
 10
3.966160
 20
7.118320
  0
VERTEX
  8
0
  6
CONTINUOUS
 10
4.002680
 20
7.112600
  0
VERTEX
  8
0
  6
CONTINUOUS
 10
4.033480
 20
7.109960
  0
VERTEX
  8
0
  6
CONTINUOUS
 10
4.058120
 20
7.109520
  0
VERTEX
  8
0
  6
CONTINUOUS
 10
4.058120
 20
6.918120
  0
VERTEX
  8
0
  6
CONTINUOUS
 10
4.128520
 20
6.874120
  0
VERTEX
  8
0
  6
CONTINUOUS
 10
4.185280
 20
6.827480
  0
VERTEX
  8
0
  6
CONTINUOUS
 10
4.228840
 20
6.779960
  0
VERTEX
  8
0
  6
CONTINUOUS
 10
4.260520
 20
6.732000
  0
VERTEX
  8
0
  6
CONTINUOUS
 10
4.280760
 20
6.683600
  0
VERTEX
  8
0
  6
CONTINUOUS
 10
4.291320
 20
6.635640
  0
VERTEX
  8
0
  6
CONTINUOUS
 10
4.293080
 20
6.588560
  0
VERTEX
  8
0
  6
CONTINUOUS
 10
4.286480
 20
6.543240
  0
VERTEX
  8
0
  6
CONTINUOUS
 10
4.273280
 20
6.500560
  0
VERTEX
  8
0
  6
CONTINUOUS
 10
4.253480
 20
6.460520
  0
VERTEX
  8
0
  6
CONTINUOUS
 10
4.228840
 20
6.424000
  0
VERTEX
  8
0
  6
CONTINUOUS
 10
4.200240
 20
6.391440
  0
VERTEX
  8
0
  6
CONTINUOUS
 10
4.168560
 20
6.363280
  0
VERTEX
  8
0
  6
CONTINUOUS
 10
4.135120
 20
6.340840
  0
VERTEX
  8
0
  6
CONTINUOUS
 10
4.100360
 20
6.324120
  0
VERTEX
  8
0
  6
CONTINUOUS
 10
4.065600
 20
6.313560
  0
VERTEX
  8
0
  6
CONTINUOUS
 10
4.065600
 20
6.176720
  0
VERTEX
  8
0
  6
CONTINUOUS
 10
3.773000
 20
6.176720
  0
VERTEX
  8
0
  6
CONTINUOUS
 10
3.773000
 20
6.454360
  0
VERTEX
  8
0
  6
CONTINUOUS
 10
3.023240
 20
6.454360
  0
VERTEX
  8
0
  6
CONTINUOUS
 10
3.023240
 20
6.176720
  0
VERTEX
  8
0
  6
CONTINUOUS
 10
2.731080
 20
6.176720
  0
VERTEX
  8
0
  6
CONTINUOUS
 10
2.731080
 20
6.313560
  0
VERTEX
  8
0
  6
CONTINUOUS
 10
2.695880
 20
6.324120
  0
VERTEX
  8
0
  6
CONTINUOUS
 10
2.661120
 20
6.340840
  0
VERTEX
  8
0
  6
CONTINUOUS
 10
2.627680
 20
6.363280
  0
VERTEX
  8
0
  6
CONTINUOUS
 10
2.596000
 20
6.391440
  0
VERTEX
  8
0
  6
CONTINUOUS
 10
2.567400
 20
6.424000
  0
VERTEX
  8
0
  6
CONTINUOUS
 10
2.542760
 20
6.460520
  0
VERTEX
  8
0
  6
CONTINUOUS
 10
2.523400
 20
6.500560
  0
VERTEX
  8
0
  6
CONTINUOUS
 10
2.509760
 20
6.543240
  0
VERTEX
  8
0
  6
CONTINUOUS
 10
2.503160
 20
6.588560
  0
VERTEX
  8
0
  6
CONTINUOUS
 10
2.504920
 20
6.635640
  0
VERTEX
  8
0
  6
CONTINUOUS
 10
2.515480
 20
6.683600
  0
VERTEX
  8
0
  6
CONTINUOUS
 10
2.536160
 20
6.732000
  0
VERTEX
  8
0
  6
CONTINUOUS
 10
2.567400
 20
6.779960
  0
VERTEX
  8
0
  6
CONTINUOUS
 10
2.610960
 20
6.827480
  0
VERTEX
  8
0
  6
CONTINUOUS
 10
2.667720
 20
6.874120
  0
VERTEX
  8
0
  6
CONTINUOUS
 10
2.738120
 20
6.918120
  0
VERTEX
  8
0
  6
CONTINUOUS
 10
2.738120
 20
7.109520
  0
VERTEX
  8
0
  6
CONTINUOUS
 10
2.762760
 20
7.109960
  0
VERTEX
  8
0
  6
CONTINUOUS
 10
2.793560
 20
7.112600
  0
VERTEX
  8
0
  6
CONTINUOUS
 10
2.830080
 20
7.118320
  0
VERTEX
  8
0
  6
CONTINUOUS
 10
2.870560
 20
7.127120
  0
VERTEX
  8
0
  6
CONTINUOUS
 10
2.959880
 20
7.157480
  0
VERTEX
  8
0
  6
CONTINUOUS
 10
3.007400
 20
7.180360
  0
VERTEX
  8
0
  6
CONTINUOUS
 10
3.145120
 20
7.263520
  0
VERTEX
  8
0
  6
CONTINUOUS
 10
3.230480
 20
7.299160
  0
VERTEX
  8
0
  6
CONTINUOUS
 10
3.313640
 20
7.318960
  0
VERTEX
  8
0
  6
CONTINUOUS
 10
3.399440
 20
7.325120
  0
SEQEND
  8
0
  0
TEXT
  8
0
 10
3.168440
 20
5.960240
 40
0.138195
  1
BA  1153A & B
 41
1.000000
  7
SN0
 71
     0
 72
     5
 11
4.276072
 21
5.960240
  0
TEXT
  8
0
 10
3.036000
 20
5.768840
 40
0.138195
  1
1-13/16" x 1- 3/16"
 41
1.000000
  7
SN0
 71
     0
 72
     5
 11
4.408943
 21
5.768840
  0
TEXT
  8
0
 10
3.159200
 20
5.577000
 40
0.138195
  1
BA  1154 Dado
 41
1.000000
  7
SN0
 71
     0
 72
     5
 11
4.285808
 21
5.577000
  0
POLYLINE
  8
0
  6
CONTINUOUS
 66
     1
 40
0.014080
 41
0.014080
  0
VERTEX
  8
0
  6
CONTINUOUS
 10
6.420040
 20
7.524000
  0
VERTEX
  8
0
  6
CONTINUOUS
 10
6.461840
 20
7.522680
  0
VERTEX
  8
0
  6
CONTINUOUS
 10
6.523880
 20
7.514320
  0
VERTEX
  8
0
  6
CONTINUOUS
 10
6.565680
 20
7.504640
  0
VERTEX
  8
0
  6
CONTINUOUS
 10
6.607480
 20
7.491000
  0
VERTEX
  8
0
  6
CONTINUOUS
 10
6.650160
 20
7.472960
  0
VERTEX
  8
0
  6
CONTINUOUS
 10
6.716160
 20
7.438200
  0
VERTEX
  8
0
  6
CONTINUOUS
 10
6.786120
 20
7.393320
  0
VERTEX
  8
0
  6
CONTINUOUS
 10
6.833640
 20
7.367800
  0
VERTEX
  8
0
  6
CONTINUOUS
 10
6.880280
 20
7.347560
  0
VERTEX
  8
0
  6
CONTINUOUS
 10
6.925160
 20
7.332160
  0
VERTEX
  8
0
  6
CONTINUOUS
 10
6.987200
 20
7.317200
  0
VERTEX
  8
0
  6
CONTINUOUS
 10
7.039560
 20
7.310160
  0
VERTEX
  8
0
  6
CONTINUOUS
 10
7.078720
 20
7.308840
  0
VERTEX
  8
0
  6
CONTINUOUS
 10
7.078720
 20
7.117440
  0
VERTEX
  8
0
  6
CONTINUOUS
 10
7.132840
 20
7.084440
  0
VERTEX
  8
0
  6
CONTINUOUS
 10
7.179040
 20
7.050120
  0
VERTEX
  8
0
  6
CONTINUOUS
 10
7.205880
 20
7.026800
  0
VERTEX
  8
0
  6
CONTINUOUS
 10
7.239760
 20
6.991160
  0
VERTEX
  8
0
  6
CONTINUOUS
 10
7.266600
 20
6.955080
  0
VERTEX
  8
0
  6
CONTINUOUS
 10
7.287280
 20
6.919000
  0
VERTEX
  8
0
  6
CONTINUOUS
 10
7.301800
 20
6.882480
  0
VERTEX
  8
0
  6
CONTINUOUS
 10
7.307960
 20
6.858280
  0
VERTEX
  8
0
  6
CONTINUOUS
 10
7.312360
 20
6.834520
  0
VERTEX
  8
0
  6
CONTINUOUS
 10
7.314120
 20
6.811200
  0
VERTEX
  8
0
  6
CONTINUOUS
 10
7.313680
 20
6.787880
  0
VERTEX
  8
0
  6
CONTINUOUS
 10
7.311480
 20
6.765000
  0
VERTEX
  8
0
  6
CONTINUOUS
 10
7.307520
 20
6.742560
  0
VERTEX
  8
0
  6
CONTINUOUS
 10
7.293880
 20
6.699440
  0
VERTEX
  8
0
  6
CONTINUOUS
 10
7.274520
 20
6.659400
  0
VERTEX
  8
0
  6
CONTINUOUS
 10
7.249880
 20
6.622880
  0
VERTEX
  8
0
  6
CONTINUOUS
 10
7.221280
 20
6.590320
  0
VERTEX
  8
0
  6
CONTINUOUS
 10
7.189600
 20
6.562600
  0
VERTEX
  8
0
  6
CONTINUOUS
 10
7.155720
 20
6.540160
  0
VERTEX
  8
0
  6
CONTINUOUS
 10
7.138560
 20
6.530920
  0
VERTEX
  8
0
  6
CONTINUOUS
 10
7.103360
 20
6.517280
  0
VERTEX
  8
0
  6
CONTINUOUS
 10
7.086200
 20
6.512880
  0
VERTEX
  8
0
  6
CONTINUOUS
 10
7.086200
 20
6.376040
  0
VERTEX
  8
0
  6
CONTINUOUS
 10
6.793600
 20
6.376040
  0
VERTEX
  8
0
  6
CONTINUOUS
 10
6.793600
 20
6.653240
  0
VERTEX
  8
0
  6
CONTINUOUS
 10
6.418720
 20
6.653240
  0
VERTEX
  8
0
  6
CONTINUOUS
 10
6.419160
 20
6.653240
  0
VERTEX
  8
0
  6
CONTINUOUS
 10
6.043840
 20
6.653240
  0
VERTEX
  8
0
  6
CONTINUOUS
 10
6.043840
 20
6.376040
  0
VERTEX
  8
0
  6
CONTINUOUS
 10
5.751680
 20
6.376040
  0
VERTEX
  8
0
  6
CONTINUOUS
 10
5.751680
 20
6.512880
  0
VERTEX
  8
0
  6
CONTINUOUS
 10
5.716920
 20
6.523440
  0
VERTEX
  8
0
  6
CONTINUOUS
 10
5.699320
 20
6.530920
  0
VERTEX
  8
0
  6
CONTINUOUS
 10
5.665000
 20
6.550720
  0
VERTEX
  8
0
  6
CONTINUOUS
 10
5.632000
 20
6.575800
  0
VERTEX
  8
0
  6
CONTINUOUS
 10
5.602080
 20
6.606160
  0
VERTEX
  8
0
  6
CONTINUOUS
 10
5.588000
 20
6.622880
  0
VERTEX
  8
0
  6
CONTINUOUS
 10
5.563360
 20
6.659400
  0
VERTEX
  8
0
  6
CONTINUOUS
 10
5.544000
 20
6.699440
  0
VERTEX
  8
0
  6
CONTINUOUS
 10
5.530360
 20
6.742560
  0
VERTEX
  8
0
  6
CONTINUOUS
 10
5.526400
 20
6.765000
  0
VERTEX
  8
0
  6
CONTINUOUS
 10
5.524200
 20
6.787880
  0
VERTEX
  8
0
  6
CONTINUOUS
 10
5.523760
 20
6.811200
  0
VERTEX
  8
0
  6
CONTINUOUS
 10
5.525520
 20
6.834520
  0
VERTEX
  8
0
  6
CONTINUOUS
 10
5.529920
 20
6.858280
  0
VERTEX
  8
0
  6
CONTINUOUS
 10
5.536080
 20
6.882480
  0
VERTEX
  8
0
  6
CONTINUOUS
 10
5.550600
 20
6.919000
  0
VERTEX
  8
0
  6
CONTINUOUS
 10
5.571280
 20
6.955080
  0
VERTEX
  8
0
  6
CONTINUOUS
 10
5.598120
 20
6.991160
  0
VERTEX
  8
0
  6
CONTINUOUS
 10
5.632000
 20
7.026800
  0
VERTEX
  8
0
  6
CONTINUOUS
 10
5.673360
 20
7.061560
  0
VERTEX
  8
0
  6
CONTINUOUS
 10
5.722200
 20
7.095440
  0
VERTEX
  8
0
  6
CONTINUOUS
 10
5.759160
 20
7.117440
  0
VERTEX
  8
0
  6
CONTINUOUS
 10
5.759160
 20
7.308840
  0
VERTEX
  8
0
  6
CONTINUOUS
 10
5.798320
 20
7.310160
  0
VERTEX
  8
0
  6
CONTINUOUS
 10
5.850680
 20
7.317200
  0
VERTEX
  8
0
  6
CONTINUOUS
 10
5.912720
 20
7.332160
  0
VERTEX
  8
0
  6
CONTINUOUS
 10
5.957600
 20
7.347560
  0
VERTEX
  8
0
  6
CONTINUOUS
 10
6.004240
 20
7.367800
  0
VERTEX
  8
0
  6
CONTINUOUS
 10
6.051760
 20
7.393320
  0
VERTEX
  8
0
  6
CONTINUOUS
 10
6.121720
 20
7.438200
  0
VERTEX
  8
0
  6
CONTINUOUS
 10
6.187720
 20
7.472960
  0
VERTEX
  8
0
  6
CONTINUOUS
 10
6.230400
 20
7.491000
  0
VERTEX
  8
0
  6
CONTINUOUS
 10
6.272200
 20
7.504640
  0
VERTEX
  8
0
  6
CONTINUOUS
 10
6.313560
 20
7.514320
  0
VERTEX
  8
0
  6
CONTINUOUS
 10
6.375600
 20
7.522680
  0
VERTEX
  8
0
  6
CONTINUOUS
 10
6.420040
 20
7.524000
  0
SEQEND
  8
0
  0
TEXT
  8
0
 10
5.864320
 20
6.141960
 40
0.138195
  1
BA  1153A & B
 41
1.000000
  7
SN0
 71
     0
 72
     5
 11
6.971952
 21
6.141960
  0
TEXT
  8
0
 10
5.731880
 20
5.950120
 40
0.138195
  1
1-13/16" x 1- 3/16"
 41
1.000000
  7
SN0
 71
     0
 72
     5
 11
7.104823
 21
5.950120
  0
TEXT
  8
0
 10
5.855080
 20
5.758720
 40
0.138195
  1
BA  1154 Dado
 41
1.000000
  7
SN0
 71
     0
 72
     5
 11
6.981688
 21
5.758720
  0
ENDSEC
  0
EOF
