  0
SECTION
  2
HEADER
  9
$ACADVER
  1
AC1006
  9
$EXTMIN
 10
2.534400
 20
0.473000
  9
$EXTMAX
 10
7.021520
 20
6.772040
  9
$LTSCALE
 40
0.044000
  9
$PDMODE
 70
    35
  9
$PDSIZE
 40
0.035200
  0
ENDSEC
  0
SECTION
  2
TABLES
  0
TABLE
  2
LTYPE
 70
     9
  0
LTYPE
  2
CONTINUOUS
 70
    64
  3
Solid line
 72
    65
 73
     0
 40
0.000000
  0
LTYPE
  2
DASHED
 70
    64
  3
__ __ __ __ __ __ __ __ __ __ __ __ __ __ __
 72
    65
 73
     2
 40
0.000330
 49
0.000220
 49
-0.000110
  0
LTYPE
  2
HIDDEN
 70
    64
  3
 _ _ _ _ _ _ _ _ _ _ _ _ _ _ _ _ _ _ _ _ _ _
 72
    65
 73
     2
 40
0.000165
 49
0.000110
 49
-0.000055
  0
LTYPE
  2
CENTER
 70
    64
  3
____ _ ____ _ ____ _ ____ _ ____ _ ____ _ ____
 72
    65
 73
     4
 40
0.000880
 49
0.000550
 49
-0.000110
 49
0.000110
 49
-0.000110
  0
LTYPE
  2
PHANTOM
 70
    64
  3
_____ _ _ _____ _ _ _____ _ _ _____ _ _ ____
 72
    65
 73
     6
 40
0.001100
 49
0.000550
 49
-0.000110
 49
0.000110
 49
-0.000110
 49
0.000110
 49
-0.000110
  0
LTYPE
  2
DOT
 70
    64
  3
...............................................
 72
    65
 73
     2
 40
0.000110
 49
0.000000
 49
-0.000110
  0
LTYPE
  2
DASHDOT
 70
    64
  3
__ . __ . __ . __ . __ . __ . __ . __ . __ . __
 72
    65
 73
     4
 40
0.000440
 49
0.000220
 49
-0.000110
 49
0.000000
 49
-0.000110
  0
LTYPE
  2
BORDER
 70
    64
  3
__ __ . __ __ . __ __ . __ __ . __ __ . __ __
 72
    65
 73
     6
 40
0.000770
 49
0.000220
 49
-0.000110
 49
0.000220
 49
-0.000110
 49
0.000000
 49
-0.000110
  0
LTYPE
  2
DIVIDE
 70
    64
  3
__ . . __ . . __ . . __ . . __ . . __ . . __
 72
    65
 73
     6
 40
0.000550
 49
0.000220
 49
-0.000110
 49
0.000000
 49
-0.000110
 49
0.000000
 49
-0.000110
  0
LTYPE
  2
DOTDOT
 70
    64
  3
 . .  . .  . .  . .  . .  . . 
 72
    65
 73
     5
 40
0.000242
 49
-0.000110
 49
0.000000
 49
-0.000110
 49
0.000000
 49
-0.000110
  0
ENDTAB
  0
TABLE
  2
STYLE
 70
     2
  0
STYLE
 70
     0
  2
SN0
 40
0.000000
 41
0.000440
 50
0.000000
 71
     0
 42
0.000000
  3
ROMAND
  0
STYLE
 70
    68
  2
SV0
 40
0.000000
 41
0.000440
 50
0.000000
 71
     0
 42
0.000000
  3
ROMAND
  0
ENDTAB
  0
TABLE
  2
LAYER
 70
     3
  0
LAYER
  2
FOREGROUND
 70
    64
 62
     7
  6
CONTINUOUS
  0
LAYER
  2
BACKGROUND
 70
    65
 62
    -7
  6
CONTINUOUS
  0
LAYER
  2
0
 70
    64
 62
     7
  6
CONTINUOUS
  0
ENDTAB
  0
ENDSEC
  0
SECTION
  2
ENTITIES
  0
POLYLINE
  8
FOREGROUND
  6
CONTINUOUS
 66
     1
 40
0.000000
 41
0.000000
  0
VERTEX
  8
FOREGROUND
  6
CONTINUOUS
 10
0.000000
 20
7.245040
  0
VERTEX
  8
FOREGROUND
  6
CONTINUOUS
 10
8.499920
 20
7.245040
  0
VERTEX
  8
FOREGROUND
  6
CONTINUOUS
 10
8.499920
 20
-3.754960
  0
VERTEX
  8
FOREGROUND
  6
CONTINUOUS
 10
0.000000
 20
-3.754960
  0
VERTEX
  8
FOREGROUND
  6
CONTINUOUS
 10
0.000000
 20
7.245040
  0
SEQEND
  8
0
  0
POLYLINE
  8
FOREGROUND
  6
CONTINUOUS
 66
     1
 40
0.000000
 41
0.000000
  0
VERTEX
  8
FOREGROUND
  6
CONTINUOUS
 10
0.000000
 20
7.245040
  0
VERTEX
  8
FOREGROUND
  6
CONTINUOUS
 10
8.499920
 20
7.245040
  0
VERTEX
  8
FOREGROUND
  6
CONTINUOUS
 10
8.499920
 20
-3.754960
  0
VERTEX
  8
FOREGROUND
  6
CONTINUOUS
 10
0.000000
 20
-3.754960
  0
VERTEX
  8
FOREGROUND
  6
CONTINUOUS
 10
0.000000
 20
7.245040
  0
SEQEND
  8
0
  0
POLYLINE
  8
0
  6
CONTINUOUS
 66
     1
 40
0.000000
 41
0.000000
  0
VERTEX
  8
0
  6
CONTINUOUS
 10
4.876080
 20
1.174800
  0
VERTEX
  8
0
  6
CONTINUOUS
 10
4.972000
 20
1.169520
  0
VERTEX
  8
0
  6
CONTINUOUS
 10
5.027440
 20
1.162480
  0
VERTEX
  8
0
  6
CONTINUOUS
 10
5.077600
 20
1.151480
  0
VERTEX
  8
0
  6
CONTINUOUS
 10
5.124680
 20
1.135640
  0
VERTEX
  8
0
  6
CONTINUOUS
 10
5.170440
 20
1.113200
  0
VERTEX
  8
0
  6
CONTINUOUS
 10
5.216200
 20
1.084160
  0
VERTEX
  8
0
  6
CONTINUOUS
 10
5.263280
 20
1.046760
  0
VERTEX
  8
0
  6
CONTINUOUS
 10
5.288360
 20
1.024760
  0
VERTEX
  8
0
  6
CONTINUOUS
 10
5.401880
 20
1.114080
  0
VERTEX
  8
0
  6
CONTINUOUS
 10
5.428280
 20
1.093840
  0
VERTEX
  8
0
  6
CONTINUOUS
 10
5.455560
 20
1.078000
  0
VERTEX
  8
0
  6
CONTINUOUS
 10
5.484160
 20
1.065680
  0
VERTEX
  8
0
  6
CONTINUOUS
 10
5.513200
 20
1.056880
  0
VERTEX
  8
0
  6
CONTINUOUS
 10
5.558080
 20
1.049840
  0
VERTEX
  8
0
  6
CONTINUOUS
 10
5.603400
 20
1.049840
  0
VERTEX
  8
0
  6
CONTINUOUS
 10
5.633760
 20
1.053360
  0
VERTEX
  8
0
  6
CONTINUOUS
 10
5.663680
 20
1.059080
  0
VERTEX
  8
0
  6
CONTINUOUS
 10
5.693160
 20
1.067000
  0
VERTEX
  8
0
  6
CONTINUOUS
 10
5.722200
 20
1.076680
  0
VERTEX
  8
0
  6
CONTINUOUS
 10
5.777200
 20
1.101760
  0
VERTEX
  8
0
  6
CONTINUOUS
 10
5.803160
 20
1.116280
  0
VERTEX
  8
0
  6
CONTINUOUS
 10
5.871800
 20
1.164240
  0
VERTEX
  8
0
  6
CONTINUOUS
 10
5.894240
 20
1.177440
  0
VERTEX
  8
0
  6
CONTINUOUS
 10
5.917120
 20
1.188000
  0
VERTEX
  8
0
  6
CONTINUOUS
 10
5.940440
 20
1.196800
  0
VERTEX
  8
0
  6
CONTINUOUS
 10
5.964200
 20
1.202960
  0
VERTEX
  8
0
  6
CONTINUOUS
 10
5.987520
 20
1.207360
  0
VERTEX
  8
0
  6
CONTINUOUS
 10
6.011280
 20
1.209120
  0
VERTEX
  8
0
  6
CONTINUOUS
 10
6.035040
 20
1.208680
  0
VERTEX
  8
0
  6
CONTINUOUS
 10
6.058800
 20
1.206480
  0
VERTEX
  8
0
  6
CONTINUOUS
 10
6.082560
 20
1.201640
  0
VERTEX
  8
0
  6
CONTINUOUS
 10
6.105880
 20
1.195040
  0
VERTEX
  8
0
  6
CONTINUOUS
 10
6.128760
 20
1.186680
  0
VERTEX
  8
0
  6
CONTINUOUS
 10
6.151640
 20
1.176120
  0
VERTEX
  8
0
  6
CONTINUOUS
 10
6.195200
 20
1.148840
  0
VERTEX
  8
0
  6
CONTINUOUS
 10
6.216320
 20
1.132560
  0
VERTEX
  8
0
  6
CONTINUOUS
 10
6.279680
 20
1.227600
  0
VERTEX
  8
0
  6
CONTINUOUS
 10
6.995120
 20
1.227600
  0
VERTEX
  8
0
  6
CONTINUOUS
 10
6.995120
 20
0.473000
  0
VERTEX
  8
0
  6
CONTINUOUS
 10
2.535280
 20
0.473000
  0
VERTEX
  8
0
  6
CONTINUOUS
 10
2.535280
 20
1.227160
  0
VERTEX
  8
0
  6
CONTINUOUS
 10
3.250720
 20
1.227160
  0
VERTEX
  8
0
  6
CONTINUOUS
 10
3.314080
 20
1.132120
  0
VERTEX
  8
0
  6
CONTINUOUS
 10
3.356760
 20
1.162920
  0
VERTEX
  8
0
  6
CONTINUOUS
 10
3.378760
 20
1.175680
  0
VERTEX
  8
0
  6
CONTINUOUS
 10
3.401640
 20
1.186240
  0
VERTEX
  8
0
  6
CONTINUOUS
 10
3.424520
 20
1.194600
  0
VERTEX
  8
0
  6
CONTINUOUS
 10
3.447840
 20
1.201200
  0
VERTEX
  8
0
  6
CONTINUOUS
 10
3.471600
 20
1.206040
  0
VERTEX
  8
0
  6
CONTINUOUS
 10
3.495360
 20
1.208240
  0
VERTEX
  8
0
  6
CONTINUOUS
 10
3.518680
 20
1.208680
  0
VERTEX
  8
0
  6
CONTINUOUS
 10
3.542440
 20
1.206920
  0
VERTEX
  8
0
  6
CONTINUOUS
 10
3.566200
 20
1.202520
  0
VERTEX
  8
0
  6
CONTINUOUS
 10
3.589520
 20
1.196360
  0
VERTEX
  8
0
  6
CONTINUOUS
 10
3.612840
 20
1.187560
  0
VERTEX
  8
0
  6
CONTINUOUS
 10
3.635720
 20
1.177000
  0
VERTEX
  8
0
  6
CONTINUOUS
 10
3.658160
 20
1.163800
  0
VERTEX
  8
0
  6
CONTINUOUS
 10
3.727240
 20
1.115840
  0
VERTEX
  8
0
  6
CONTINUOUS
 10
3.752760
 20
1.101320
  0
VERTEX
  8
0
  6
CONTINUOUS
 10
3.780040
 20
1.088120
  0
VERTEX
  8
0
  6
CONTINUOUS
 10
3.836800
 20
1.066560
  0
VERTEX
  8
0
  6
CONTINUOUS
 10
3.866280
 20
1.058640
  0
VERTEX
  8
0
  6
CONTINUOUS
 10
3.896640
 20
1.052920
  0
VERTEX
  8
0
  6
CONTINUOUS
 10
3.926560
 20
1.049400
  0
VERTEX
  8
0
  6
CONTINUOUS
 10
3.956920
 20
1.048960
  0
VERTEX
  8
0
  6
CONTINUOUS
 10
3.987280
 20
1.051160
  0
VERTEX
  8
0
  6
CONTINUOUS
 10
4.016760
 20
1.056440
  0
VERTEX
  8
0
  6
CONTINUOUS
 10
4.046240
 20
1.065240
  0
VERTEX
  8
0
  6
CONTINUOUS
 10
4.088480
 20
1.085040
  0
VERTEX
  8
0
  6
CONTINUOUS
 10
4.115320
 20
1.103080
  0
VERTEX
  8
0
  6
CONTINUOUS
 10
4.128520
 20
1.113640
  0
VERTEX
  8
0
  6
CONTINUOUS
 10
4.242040
 20
1.024320
  0
VERTEX
  8
0
  6
CONTINUOUS
 10
4.290880
 20
1.066120
  0
VERTEX
  8
0
  6
CONTINUOUS
 10
4.337520
 20
1.099120
  0
VERTEX
  8
0
  6
CONTINUOUS
 10
4.382840
 20
1.124640
  0
VERTEX
  8
0
  6
CONTINUOUS
 10
4.405720
 20
1.135200
  0
VERTEX
  8
0
  6
CONTINUOUS
 10
4.452800
 20
1.151040
  0
VERTEX
  8
0
  6
CONTINUOUS
 10
4.502960
 20
1.162040
  0
VERTEX
  8
0
  6
CONTINUOUS
 10
4.558400
 20
1.169080
  0
VERTEX
  8
0
  6
CONTINUOUS
 10
4.654320
 20
1.174360
  0
VERTEX
  8
0
  6
CONTINUOUS
 10
4.876080
 20
1.174800
  0
SEQEND
  8
0
  0
POLYLINE
  8
0
  6
CONTINUOUS
 66
     1
 40
0.000000
 41
0.000000
  0
VERTEX
  8
0
  6
CONTINUOUS
 10
4.876080
 20
2.273040
  0
VERTEX
  8
0
  6
CONTINUOUS
 10
4.972000
 20
2.267760
  0
VERTEX
  8
0
  6
CONTINUOUS
 10
5.027440
 20
2.260720
  0
VERTEX
  8
0
  6
CONTINUOUS
 10
5.077600
 20
2.249720
  0
VERTEX
  8
0
  6
CONTINUOUS
 10
5.124680
 20
2.233440
  0
VERTEX
  8
0
  6
CONTINUOUS
 10
5.170440
 20
2.211440
  0
VERTEX
  8
0
  6
CONTINUOUS
 10
5.216200
 20
2.181960
  0
VERTEX
  8
0
  6
CONTINUOUS
 10
5.263280
 20
2.144560
  0
VERTEX
  8
0
  6
CONTINUOUS
 10
5.288360
 20
2.122560
  0
VERTEX
  8
0
  6
CONTINUOUS
 10
5.401880
 20
2.212320
  0
VERTEX
  8
0
  6
CONTINUOUS
 10
5.428280
 20
2.192080
  0
VERTEX
  8
0
  6
CONTINUOUS
 10
5.455560
 20
2.175800
  0
VERTEX
  8
0
  6
CONTINUOUS
 10
5.484160
 20
2.163480
  0
VERTEX
  8
0
  6
CONTINUOUS
 10
5.528160
 20
2.152040
  0
VERTEX
  8
0
  6
CONTINUOUS
 10
5.558080
 20
2.148080
  0
VERTEX
  8
0
  6
CONTINUOUS
 10
5.588440
 20
2.147200
  0
VERTEX
  8
0
  6
CONTINUOUS
 10
5.633760
 20
2.151160
  0
VERTEX
  8
0
  6
CONTINUOUS
 10
5.663680
 20
2.156880
  0
VERTEX
  8
0
  6
CONTINUOUS
 10
5.693160
 20
2.164800
  0
VERTEX
  8
0
  6
CONTINUOUS
 10
5.722200
 20
2.174920
  0
VERTEX
  8
0
  6
CONTINUOUS
 10
5.777200
 20
2.200000
  0
VERTEX
  8
0
  6
CONTINUOUS
 10
5.803160
 20
2.214520
  0
VERTEX
  8
0
  6
CONTINUOUS
 10
5.871800
 20
2.262480
  0
VERTEX
  8
0
  6
CONTINUOUS
 10
5.894240
 20
2.275680
  0
VERTEX
  8
0
  6
CONTINUOUS
 10
5.917120
 20
2.286240
  0
VERTEX
  8
0
  6
CONTINUOUS
 10
5.940440
 20
2.295040
  0
VERTEX
  8
0
  6
CONTINUOUS
 10
5.964200
 20
2.301200
  0
VERTEX
  8
0
  6
CONTINUOUS
 10
5.987520
 20
2.305600
  0
VERTEX
  8
0
  6
CONTINUOUS
 10
6.011280
 20
2.307360
  0
VERTEX
  8
0
  6
CONTINUOUS
 10
6.035040
 20
2.306920
  0
VERTEX
  8
0
  6
CONTINUOUS
 10
6.058800
 20
2.304720
  0
VERTEX
  8
0
  6
CONTINUOUS
 10
6.082560
 20
2.299880
  0
VERTEX
  8
0
  6
CONTINUOUS
 10
6.105880
 20
2.293280
  0
VERTEX
  8
0
  6
CONTINUOUS
 10
6.128760
 20
2.284920
  0
VERTEX
  8
0
  6
CONTINUOUS
 10
6.151640
 20
2.274360
  0
VERTEX
  8
0
  6
CONTINUOUS
 10
6.195200
 20
2.247080
  0
VERTEX
  8
0
  6
CONTINUOUS
 10
6.216320
 20
2.230800
  0
VERTEX
  8
0
  6
CONTINUOUS
 10
6.279680
 20
2.325840
  0
VERTEX
  8
0
  6
CONTINUOUS
 10
6.995120
 20
2.325840
  0
VERTEX
  8
0
  6
CONTINUOUS
 10
6.995120
 20
1.571240
  0
VERTEX
  8
0
  6
CONTINUOUS
 10
2.535280
 20
1.571240
  0
VERTEX
  8
0
  6
CONTINUOUS
 10
2.535280
 20
2.325400
  0
VERTEX
  8
0
  6
CONTINUOUS
 10
3.250720
 20
2.325400
  0
VERTEX
  8
0
  6
CONTINUOUS
 10
3.314080
 20
2.230360
  0
VERTEX
  8
0
  6
CONTINUOUS
 10
3.356760
 20
2.261160
  0
VERTEX
  8
0
  6
CONTINUOUS
 10
3.378760
 20
2.273920
  0
VERTEX
  8
0
  6
CONTINUOUS
 10
3.401640
 20
2.284480
  0
VERTEX
  8
0
  6
CONTINUOUS
 10
3.424520
 20
2.292840
  0
VERTEX
  8
0
  6
CONTINUOUS
 10
3.447840
 20
2.299440
  0
VERTEX
  8
0
  6
CONTINUOUS
 10
3.471600
 20
2.304280
  0
VERTEX
  8
0
  6
CONTINUOUS
 10
3.495360
 20
2.306480
  0
VERTEX
  8
0
  6
CONTINUOUS
 10
3.518680
 20
2.306920
  0
VERTEX
  8
0
  6
CONTINUOUS
 10
3.542440
 20
2.305160
  0
VERTEX
  8
0
  6
CONTINUOUS
 10
3.566200
 20
2.300760
  0
VERTEX
  8
0
  6
CONTINUOUS
 10
3.589520
 20
2.294600
  0
VERTEX
  8
0
  6
CONTINUOUS
 10
3.612840
 20
2.285800
  0
VERTEX
  8
0
  6
CONTINUOUS
 10
3.635720
 20
2.275240
  0
VERTEX
  8
0
  6
CONTINUOUS
 10
3.658160
 20
2.262040
  0
VERTEX
  8
0
  6
CONTINUOUS
 10
3.727240
 20
2.214080
  0
VERTEX
  8
0
  6
CONTINUOUS
 10
3.752760
 20
2.199560
  0
VERTEX
  8
0
  6
CONTINUOUS
 10
3.807760
 20
2.174480
  0
VERTEX
  8
0
  6
CONTINUOUS
 10
3.836800
 20
2.164360
  0
VERTEX
  8
0
  6
CONTINUOUS
 10
3.866280
 20
2.156440
  0
VERTEX
  8
0
  6
CONTINUOUS
 10
3.896640
 20
2.150720
  0
VERTEX
  8
0
  6
CONTINUOUS
 10
3.941960
 20
2.146760
  0
VERTEX
  8
0
  6
CONTINUOUS
 10
3.971880
 20
2.147640
  0
VERTEX
  8
0
  6
CONTINUOUS
 10
4.002240
 20
2.151600
  0
VERTEX
  8
0
  6
CONTINUOUS
 10
4.046240
 20
2.163040
  0
VERTEX
  8
0
  6
CONTINUOUS
 10
4.074400
 20
2.175360
  0
VERTEX
  8
0
  6
CONTINUOUS
 10
4.102120
 20
2.191640
  0
VERTEX
  8
0
  6
CONTINUOUS
 10
4.128520
 20
2.211880
  0
VERTEX
  8
0
  6
CONTINUOUS
 10
4.242040
 20
2.122120
  0
VERTEX
  8
0
  6
CONTINUOUS
 10
4.290880
 20
2.163920
  0
VERTEX
  8
0
  6
CONTINUOUS
 10
4.337520
 20
2.197360
  0
VERTEX
  8
0
  6
CONTINUOUS
 10
4.382840
 20
2.222880
  0
VERTEX
  8
0
  6
CONTINUOUS
 10
4.429040
 20
2.241800
  0
VERTEX
  8
0
  6
CONTINUOUS
 10
4.477440
 20
2.255440
  0
VERTEX
  8
0
  6
CONTINUOUS
 10
4.530240
 20
2.264240
  0
VERTEX
  8
0
  6
CONTINUOUS
 10
4.588320
 20
2.269520
  0
VERTEX
  8
0
  6
CONTINUOUS
 10
4.654320
 20
2.272600
  0
VERTEX
  8
0
  6
CONTINUOUS
 10
4.876080
 20
2.273040
  0
SEQEND
  8
0
  0
POLYLINE
  8
0
  6
CONTINUOUS
 66
     1
 40
0.000000
 41
0.000000
  0
VERTEX
  8
0
  6
CONTINUOUS
 10
4.876080
 20
3.370840
  0
VERTEX
  8
0
  6
CONTINUOUS
 10
4.972000
 20
3.365560
  0
VERTEX
  8
0
  6
CONTINUOUS
 10
5.027440
 20
3.358520
  0
VERTEX
  8
0
  6
CONTINUOUS
 10
5.077600
 20
3.347520
  0
VERTEX
  8
0
  6
CONTINUOUS
 10
5.124680
 20
3.331680
  0
VERTEX
  8
0
  6
CONTINUOUS
 10
5.170440
 20
3.309240
  0
VERTEX
  8
0
  6
CONTINUOUS
 10
5.216200
 20
3.280200
  0
VERTEX
  8
0
  6
CONTINUOUS
 10
5.263280
 20
3.242800
  0
VERTEX
  8
0
  6
CONTINUOUS
 10
5.288360
 20
3.220800
  0
VERTEX
  8
0
  6
CONTINUOUS
 10
5.401880
 20
3.310560
  0
VERTEX
  8
0
  6
CONTINUOUS
 10
5.428280
 20
3.290320
  0
VERTEX
  8
0
  6
CONTINUOUS
 10
5.455560
 20
3.274040
  0
VERTEX
  8
0
  6
CONTINUOUS
 10
5.484160
 20
3.261720
  0
VERTEX
  8
0
  6
CONTINUOUS
 10
5.528160
 20
3.250280
  0
VERTEX
  8
0
  6
CONTINUOUS
 10
5.558080
 20
3.246320
  0
VERTEX
  8
0
  6
CONTINUOUS
 10
5.588440
 20
3.245440
  0
VERTEX
  8
0
  6
CONTINUOUS
 10
5.633760
 20
3.249400
  0
VERTEX
  8
0
  6
CONTINUOUS
 10
5.663680
 20
3.255120
  0
VERTEX
  8
0
  6
CONTINUOUS
 10
5.693160
 20
3.263040
  0
VERTEX
  8
0
  6
CONTINUOUS
 10
5.750360
 20
3.284600
  0
VERTEX
  8
0
  6
CONTINUOUS
 10
5.803160
 20
3.312320
  0
VERTEX
  8
0
  6
CONTINUOUS
 10
5.871800
 20
3.360280
  0
VERTEX
  8
0
  6
CONTINUOUS
 10
5.894240
 20
3.373480
  0
VERTEX
  8
0
  6
CONTINUOUS
 10
5.917120
 20
3.384040
  0
VERTEX
  8
0
  6
CONTINUOUS
 10
5.940440
 20
3.392840
  0
VERTEX
  8
0
  6
CONTINUOUS
 10
5.964200
 20
3.399000
  0
VERTEX
  8
0
  6
CONTINUOUS
 10
5.987520
 20
3.403400
  0
VERTEX
  8
0
  6
CONTINUOUS
 10
6.011280
 20
3.405160
  0
VERTEX
  8
0
  6
CONTINUOUS
 10
6.035040
 20
3.404720
  0
VERTEX
  8
0
  6
CONTINUOUS
 10
6.058800
 20
3.402520
  0
VERTEX
  8
0
  6
CONTINUOUS
 10
6.082560
 20
3.397680
  0
VERTEX
  8
0
  6
CONTINUOUS
 10
6.105880
 20
3.391080
  0
VERTEX
  8
0
  6
CONTINUOUS
 10
6.128760
 20
3.382720
  0
VERTEX
  8
0
  6
CONTINUOUS
 10
6.151640
 20
3.372160
  0
VERTEX
  8
0
  6
CONTINUOUS
 10
6.195200
 20
3.344880
  0
VERTEX
  8
0
  6
CONTINUOUS
 10
6.216320
 20
3.328600
  0
VERTEX
  8
0
  6
CONTINUOUS
 10
6.279680
 20
3.423640
  0
VERTEX
  8
0
  6
CONTINUOUS
 10
6.995120
 20
3.423640
  0
VERTEX
  8
0
  6
CONTINUOUS
 10
6.995120
 20
2.669040
  0
VERTEX
  8
0
  6
CONTINUOUS
 10
2.535280
 20
2.669040
  0
VERTEX
  8
0
  6
CONTINUOUS
 10
2.535280
 20
3.423200
  0
VERTEX
  8
0
  6
CONTINUOUS
 10
3.250720
 20
3.423200
  0
VERTEX
  8
0
  6
CONTINUOUS
 10
3.314080
 20
3.328600
  0
VERTEX
  8
0
  6
CONTINUOUS
 10
3.356760
 20
3.359400
  0
VERTEX
  8
0
  6
CONTINUOUS
 10
3.378760
 20
3.371720
  0
VERTEX
  8
0
  6
CONTINUOUS
 10
3.424520
 20
3.391080
  0
VERTEX
  8
0
  6
CONTINUOUS
 10
3.447840
 20
3.397680
  0
VERTEX
  8
0
  6
CONTINUOUS
 10
3.471600
 20
3.402080
  0
VERTEX
  8
0
  6
CONTINUOUS
 10
3.495360
 20
3.404280
  0
VERTEX
  8
0
  6
CONTINUOUS
 10
3.518680
 20
3.404720
  0
VERTEX
  8
0
  6
CONTINUOUS
 10
3.542440
 20
3.402960
  0
VERTEX
  8
0
  6
CONTINUOUS
 10
3.566200
 20
3.398560
  0
VERTEX
  8
0
  6
CONTINUOUS
 10
3.589520
 20
3.392400
  0
VERTEX
  8
0
  6
CONTINUOUS
 10
3.612840
 20
3.383600
  0
VERTEX
  8
0
  6
CONTINUOUS
 10
3.635720
 20
3.373040
  0
VERTEX
  8
0
  6
CONTINUOUS
 10
3.658160
 20
3.359840
  0
VERTEX
  8
0
  6
CONTINUOUS
 10
3.727240
 20
3.311880
  0
VERTEX
  8
0
  6
CONTINUOUS
 10
3.752760
 20
3.297360
  0
VERTEX
  8
0
  6
CONTINUOUS
 10
3.780040
 20
3.284160
  0
VERTEX
  8
0
  6
CONTINUOUS
 10
3.836800
 20
3.262600
  0
VERTEX
  8
0
  6
CONTINUOUS
 10
3.866280
 20
3.254680
  0
VERTEX
  8
0
  6
CONTINUOUS
 10
3.896640
 20
3.248960
  0
VERTEX
  8
0
  6
CONTINUOUS
 10
3.941960
 20
3.245000
  0
VERTEX
  8
0
  6
CONTINUOUS
 10
3.971880
 20
3.245880
  0
VERTEX
  8
0
  6
CONTINUOUS
 10
4.002240
 20
3.249840
  0
VERTEX
  8
0
  6
CONTINUOUS
 10
4.046240
 20
3.261280
  0
VERTEX
  8
0
  6
CONTINUOUS
 10
4.074400
 20
3.273600
  0
VERTEX
  8
0
  6
CONTINUOUS
 10
4.102120
 20
3.289880
  0
VERTEX
  8
0
  6
CONTINUOUS
 10
4.128520
 20
3.310120
  0
VERTEX
  8
0
  6
CONTINUOUS
 10
4.242040
 20
3.220360
  0
VERTEX
  8
0
  6
CONTINUOUS
 10
4.290880
 20
3.262160
  0
VERTEX
  8
0
  6
CONTINUOUS
 10
4.337520
 20
3.295160
  0
VERTEX
  8
0
  6
CONTINUOUS
 10
4.382840
 20
3.320680
  0
VERTEX
  8
0
  6
CONTINUOUS
 10
4.405720
 20
3.331240
  0
VERTEX
  8
0
  6
CONTINUOUS
 10
4.452800
 20
3.347080
  0
VERTEX
  8
0
  6
CONTINUOUS
 10
4.502960
 20
3.358080
  0
VERTEX
  8
0
  6
CONTINUOUS
 10
4.558400
 20
3.365120
  0
VERTEX
  8
0
  6
CONTINUOUS
 10
4.654320
 20
3.370400
  0
VERTEX
  8
0
  6
CONTINUOUS
 10
4.876080
 20
3.370840
  0
SEQEND
  8
0
  0
SOLID
  8
0
 62
    15
 10
2.548040
 20
4.279000
 11
2.542760
 21
5.023920
 12
2.548040
 22
5.033160
 13
2.542760
 23
5.778080
  0
POLYLINE
  8
0
  6
CONTINUOUS
 66
     1
 40
0.000000
 41
0.000000
  0
VERTEX
  8
0
  6
CONTINUOUS
 10
2.548040
 20
4.279000
  0
VERTEX
  8
0
  6
CONTINUOUS
 10
2.542760
 20
5.023920
  0
VERTEX
  8
0
  6
CONTINUOUS
 10
2.542760
 20
5.778080
  0
VERTEX
  8
0
  6
CONTINUOUS
 10
2.548040
 20
5.033160
  0
VERTEX
  8
0
  6
CONTINUOUS
 10
2.548040
 20
4.279000
  0
SEQEND
  8
0
  0
SOLID
  8
0
 62
    15
 10
4.954400
 20
4.977720
 11
4.949120
 21
5.722640
 12
5.012920
 22
4.972440
 13
5.007640
 23
5.717360
  0
POLYLINE
  8
0
  6
CONTINUOUS
 66
     1
 40
0.000000
 41
0.000000
  0
VERTEX
  8
0
  6
CONTINUOUS
 10
4.954400
 20
4.977720
  0
VERTEX
  8
0
  6
CONTINUOUS
 10
4.949120
 20
5.722640
  0
VERTEX
  8
0
  6
CONTINUOUS
 10
5.007640
 20
5.717360
  0
VERTEX
  8
0
  6
CONTINUOUS
 10
5.012920
 20
4.972440
  0
VERTEX
  8
0
  6
CONTINUOUS
 10
4.954400
 20
4.977720
  0
SEQEND
  8
0
  0
SOLID
  8
0
 62
    15
 10
5.012920
 20
4.972440
 11
5.007640
 21
5.717360
 12
5.065720
 22
4.963640
 13
5.060440
 23
5.708560
  0
POLYLINE
  8
0
  6
CONTINUOUS
 66
     1
 40
0.000000
 41
0.000000
  0
VERTEX
  8
0
  6
CONTINUOUS
 10
5.012920
 20
4.972440
  0
VERTEX
  8
0
  6
CONTINUOUS
 10
5.007640
 20
5.717360
  0
VERTEX
  8
0
  6
CONTINUOUS
 10
5.060440
 20
5.708560
  0
VERTEX
  8
0
  6
CONTINUOUS
 10
5.065720
 20
4.963640
  0
VERTEX
  8
0
  6
CONTINUOUS
 10
5.012920
 20
4.972440
  0
SEQEND
  8
0
  0
SOLID
  8
0
 62
    15
 10
5.065720
 20
4.963640
 11
5.060440
 21
5.708560
 12
5.114120
 22
4.950000
 13
5.108840
 23
5.694920
  0
POLYLINE
  8
0
  6
CONTINUOUS
 66
     1
 40
0.000000
 41
0.000000
  0
VERTEX
  8
0
  6
CONTINUOUS
 10
5.065720
 20
4.963640
  0
VERTEX
  8
0
  6
CONTINUOUS
 10
5.060440
 20
5.708560
  0
VERTEX
  8
0
  6
CONTINUOUS
 10
5.108840
 20
5.694920
  0
VERTEX
  8
0
  6
CONTINUOUS
 10
5.114120
 20
4.950000
  0
VERTEX
  8
0
  6
CONTINUOUS
 10
5.065720
 20
4.963640
  0
SEQEND
  8
0
  0
SOLID
  8
0
 62
    15
 10
5.114120
 20
4.950000
 11
5.108840
 21
5.694920
 12
5.160320
 22
4.931080
 13
5.155040
 23
5.676000
  0
POLYLINE
  8
0
  6
CONTINUOUS
 66
     1
 40
0.000000
 41
0.000000
  0
VERTEX
  8
0
  6
CONTINUOUS
 10
5.114120
 20
4.950000
  0
VERTEX
  8
0
  6
CONTINUOUS
 10
5.108840
 20
5.694920
  0
VERTEX
  8
0
  6
CONTINUOUS
 10
5.155040
 20
5.676000
  0
VERTEX
  8
0
  6
CONTINUOUS
 10
5.160320
 20
4.931080
  0
VERTEX
  8
0
  6
CONTINUOUS
 10
5.114120
 20
4.950000
  0
SEQEND
  8
0
  0
SOLID
  8
0
 62
    15
 10
5.160320
 20
4.931080
 11
5.155040
 21
5.676000
 12
5.205640
 22
4.905560
 13
5.200360
 23
5.650480
  0
POLYLINE
  8
0
  6
CONTINUOUS
 66
     1
 40
0.000000
 41
0.000000
  0
VERTEX
  8
0
  6
CONTINUOUS
 10
5.160320
 20
4.931080
  0
VERTEX
  8
0
  6
CONTINUOUS
 10
5.155040
 20
5.676000
  0
VERTEX
  8
0
  6
CONTINUOUS
 10
5.200360
 20
5.650480
  0
VERTEX
  8
0
  6
CONTINUOUS
 10
5.205640
 20
4.905560
  0
VERTEX
  8
0
  6
CONTINUOUS
 10
5.160320
 20
4.931080
  0
SEQEND
  8
0
  0
SOLID
  8
0
 62
    15
 10
5.205640
 20
4.905560
 11
5.200360
 21
5.650480
 12
5.252280
 22
4.872120
 13
5.247000
 23
5.617040
  0
POLYLINE
  8
0
  6
CONTINUOUS
 66
     1
 40
0.000000
 41
0.000000
  0
VERTEX
  8
0
  6
CONTINUOUS
 10
5.205640
 20
4.905560
  0
VERTEX
  8
0
  6
CONTINUOUS
 10
5.200360
 20
5.650480
  0
VERTEX
  8
0
  6
CONTINUOUS
 10
5.247000
 20
5.617040
  0
VERTEX
  8
0
  6
CONTINUOUS
 10
5.252280
 20
4.872120
  0
VERTEX
  8
0
  6
CONTINUOUS
 10
5.205640
 20
4.905560
  0
SEQEND
  8
0
  0
SOLID
  8
0
 62
    15
 10
5.252280
 20
4.872120
 11
5.247000
 21
5.617040
 12
5.301120
 22
4.830320
 13
5.295840
 23
5.575240
  0
POLYLINE
  8
0
  6
CONTINUOUS
 66
     1
 40
0.000000
 41
0.000000
  0
VERTEX
  8
0
  6
CONTINUOUS
 10
5.252280
 20
4.872120
  0
VERTEX
  8
0
  6
CONTINUOUS
 10
5.247000
 20
5.617040
  0
VERTEX
  8
0
  6
CONTINUOUS
 10
5.295840
 20
5.575240
  0
VERTEX
  8
0
  6
CONTINUOUS
 10
5.301120
 20
4.830320
  0
VERTEX
  8
0
  6
CONTINUOUS
 10
5.252280
 20
4.872120
  0
SEQEND
  8
0
  0
SOLID
  8
0
 62
    15
 10
5.301120
 20
4.830320
 11
5.295840
 21
5.575240
 12
5.414640
 22
4.920080
 13
5.409360
 23
5.665000
  0
POLYLINE
  8
0
  6
CONTINUOUS
 66
     1
 40
0.000000
 41
0.000000
  0
VERTEX
  8
0
  6
CONTINUOUS
 10
5.301120
 20
4.830320
  0
VERTEX
  8
0
  6
CONTINUOUS
 10
5.295840
 20
5.575240
  0
VERTEX
  8
0
  6
CONTINUOUS
 10
5.409360
 20
5.665000
  0
VERTEX
  8
0
  6
CONTINUOUS
 10
5.414640
 20
4.920080
  0
VERTEX
  8
0
  6
CONTINUOUS
 10
5.301120
 20
4.830320
  0
SEQEND
  8
0
  0
SOLID
  8
0
 62
    15
 10
5.414640
 20
4.920080
 11
5.409360
 21
5.665000
 12
5.441040
 22
4.899840
 13
5.435760
 23
5.644760
  0
POLYLINE
  8
0
  6
CONTINUOUS
 66
     1
 40
0.000000
 41
0.000000
  0
VERTEX
  8
0
  6
CONTINUOUS
 10
5.414640
 20
4.920080
  0
VERTEX
  8
0
  6
CONTINUOUS
 10
5.409360
 20
5.665000
  0
VERTEX
  8
0
  6
CONTINUOUS
 10
5.435760
 20
5.644760
  0
VERTEX
  8
0
  6
CONTINUOUS
 10
5.441040
 20
4.899840
  0
VERTEX
  8
0
  6
CONTINUOUS
 10
5.414640
 20
4.920080
  0
SEQEND
  8
0
  0
SOLID
  8
0
 62
    15
 10
5.441040
 20
4.899840
 11
5.435760
 21
5.644760
 12
5.468320
 22
4.884000
 13
5.463040
 23
5.628920
  0
POLYLINE
  8
0
  6
CONTINUOUS
 66
     1
 40
0.000000
 41
0.000000
  0
VERTEX
  8
0
  6
CONTINUOUS
 10
5.441040
 20
4.899840
  0
VERTEX
  8
0
  6
CONTINUOUS
 10
5.435760
 20
5.644760
  0
VERTEX
  8
0
  6
CONTINUOUS
 10
5.463040
 20
5.628920
  0
VERTEX
  8
0
  6
CONTINUOUS
 10
5.468320
 20
4.884000
  0
VERTEX
  8
0
  6
CONTINUOUS
 10
5.441040
 20
4.899840
  0
SEQEND
  8
0
  0
SOLID
  8
0
 62
    15
 10
5.468320
 20
4.884000
 11
5.463040
 21
5.628920
 12
5.496920
 22
4.871680
 13
5.491640
 23
5.616600
  0
POLYLINE
  8
0
  6
CONTINUOUS
 66
     1
 40
0.000000
 41
0.000000
  0
VERTEX
  8
0
  6
CONTINUOUS
 10
5.468320
 20
4.884000
  0
VERTEX
  8
0
  6
CONTINUOUS
 10
5.463040
 20
5.628920
  0
VERTEX
  8
0
  6
CONTINUOUS
 10
5.491640
 20
5.616600
  0
VERTEX
  8
0
  6
CONTINUOUS
 10
5.496920
 20
4.871680
  0
VERTEX
  8
0
  6
CONTINUOUS
 10
5.468320
 20
4.884000
  0
SEQEND
  8
0
  0
SOLID
  8
0
 62
    15
 10
5.496920
 20
4.871680
 11
5.491640
 21
5.616600
 12
5.525960
 22
4.862880
 13
5.520680
 23
5.607800
  0
POLYLINE
  8
0
  6
CONTINUOUS
 66
     1
 40
0.000000
 41
0.000000
  0
VERTEX
  8
0
  6
CONTINUOUS
 10
5.496920
 20
4.871680
  0
VERTEX
  8
0
  6
CONTINUOUS
 10
5.491640
 20
5.616600
  0
VERTEX
  8
0
  6
CONTINUOUS
 10
5.520680
 20
5.607800
  0
VERTEX
  8
0
  6
CONTINUOUS
 10
5.525960
 20
4.862880
  0
VERTEX
  8
0
  6
CONTINUOUS
 10
5.496920
 20
4.871680
  0
SEQEND
  8
0
  0
SOLID
  8
0
 62
    15
 10
5.525960
 20
4.862880
 11
5.520680
 21
5.607800
 12
5.585800
 22
4.855400
 13
5.580520
 23
5.599880
  0
POLYLINE
  8
0
  6
CONTINUOUS
 66
     1
 40
0.000000
 41
0.000000
  0
VERTEX
  8
0
  6
CONTINUOUS
 10
5.525960
 20
4.862880
  0
VERTEX
  8
0
  6
CONTINUOUS
 10
5.520680
 20
5.607800
  0
VERTEX
  8
0
  6
CONTINUOUS
 10
5.580520
 20
5.599880
  0
VERTEX
  8
0
  6
CONTINUOUS
 10
5.585800
 20
4.855400
  0
VERTEX
  8
0
  6
CONTINUOUS
 10
5.525960
 20
4.862880
  0
SEQEND
  8
0
  0
SOLID
  8
0
 62
    15
 10
5.585800
 20
4.855400
 11
5.580520
 21
5.599880
 12
5.646520
 22
4.859360
 13
5.641240
 23
5.603840
  0
POLYLINE
  8
0
  6
CONTINUOUS
 66
     1
 40
0.000000
 41
0.000000
  0
VERTEX
  8
0
  6
CONTINUOUS
 10
5.585800
 20
4.855400
  0
VERTEX
  8
0
  6
CONTINUOUS
 10
5.580520
 20
5.599880
  0
VERTEX
  8
0
  6
CONTINUOUS
 10
5.641240
 20
5.603840
  0
VERTEX
  8
0
  6
CONTINUOUS
 10
5.646520
 20
4.859360
  0
VERTEX
  8
0
  6
CONTINUOUS
 10
5.585800
 20
4.855400
  0
SEQEND
  8
0
  0
SOLID
  8
0
 62
    15
 10
5.646520
 20
4.859360
 11
5.641240
 21
5.603840
 12
5.705920
 22
4.873000
 13
5.700640
 23
5.617920
  0
POLYLINE
  8
0
  6
CONTINUOUS
 66
     1
 40
0.000000
 41
0.000000
  0
VERTEX
  8
0
  6
CONTINUOUS
 10
5.646520
 20
4.859360
  0
VERTEX
  8
0
  6
CONTINUOUS
 10
5.641240
 20
5.603840
  0
VERTEX
  8
0
  6
CONTINUOUS
 10
5.700640
 20
5.617920
  0
VERTEX
  8
0
  6
CONTINUOUS
 10
5.705920
 20
4.873000
  0
VERTEX
  8
0
  6
CONTINUOUS
 10
5.646520
 20
4.859360
  0
SEQEND
  8
0
  0
SOLID
  8
0
 62
    15
 10
5.705920
 20
4.873000
 11
5.700640
 21
5.617920
 12
5.763120
 22
4.894560
 13
5.757840
 23
5.639480
  0
POLYLINE
  8
0
  6
CONTINUOUS
 66
     1
 40
0.000000
 41
0.000000
  0
VERTEX
  8
0
  6
CONTINUOUS
 10
5.705920
 20
4.873000
  0
VERTEX
  8
0
  6
CONTINUOUS
 10
5.700640
 20
5.617920
  0
VERTEX
  8
0
  6
CONTINUOUS
 10
5.757840
 20
5.639480
  0
VERTEX
  8
0
  6
CONTINUOUS
 10
5.763120
 20
4.894560
  0
VERTEX
  8
0
  6
CONTINUOUS
 10
5.705920
 20
4.873000
  0
SEQEND
  8
0
  0
SOLID
  8
0
 62
    15
 10
5.763120
 20
4.894560
 11
5.757840
 21
5.639480
 12
5.815920
 22
4.922280
 13
5.810640
 23
5.667200
  0
POLYLINE
  8
0
  6
CONTINUOUS
 66
     1
 40
0.000000
 41
0.000000
  0
VERTEX
  8
0
  6
CONTINUOUS
 10
5.763120
 20
4.894560
  0
VERTEX
  8
0
  6
CONTINUOUS
 10
5.757840
 20
5.639480
  0
VERTEX
  8
0
  6
CONTINUOUS
 10
5.810640
 20
5.667200
  0
VERTEX
  8
0
  6
CONTINUOUS
 10
5.815920
 20
4.922280
  0
VERTEX
  8
0
  6
CONTINUOUS
 10
5.763120
 20
4.894560
  0
SEQEND
  8
0
  0
SOLID
  8
0
 62
    15
 10
5.815920
 20
4.922280
 11
5.810640
 21
5.667200
 12
5.862560
 22
4.954400
 13
5.857280
 23
5.699320
  0
POLYLINE
  8
0
  6
CONTINUOUS
 66
     1
 40
0.000000
 41
0.000000
  0
VERTEX
  8
0
  6
CONTINUOUS
 10
5.815920
 20
4.922280
  0
VERTEX
  8
0
  6
CONTINUOUS
 10
5.810640
 20
5.667200
  0
VERTEX
  8
0
  6
CONTINUOUS
 10
5.857280
 20
5.699320
  0
VERTEX
  8
0
  6
CONTINUOUS
 10
5.862560
 20
4.954400
  0
VERTEX
  8
0
  6
CONTINUOUS
 10
5.815920
 20
4.922280
  0
SEQEND
  8
0
  0
SOLID
  8
0
 62
    15
 10
5.862560
 20
4.954400
 11
5.857280
 21
5.699320
 12
5.907000
 22
4.983440
 13
5.901720
 23
5.728360
  0
POLYLINE
  8
0
  6
CONTINUOUS
 66
     1
 40
0.000000
 41
0.000000
  0
VERTEX
  8
0
  6
CONTINUOUS
 10
5.862560
 20
4.954400
  0
VERTEX
  8
0
  6
CONTINUOUS
 10
5.857280
 20
5.699320
  0
VERTEX
  8
0
  6
CONTINUOUS
 10
5.901720
 20
5.728360
  0
VERTEX
  8
0
  6
CONTINUOUS
 10
5.907000
 20
4.983440
  0
VERTEX
  8
0
  6
CONTINUOUS
 10
5.862560
 20
4.954400
  0
SEQEND
  8
0
  0
SOLID
  8
0
 62
    15
 10
5.907000
 20
4.983440
 11
5.901720
 21
5.728360
 12
5.953200
 22
5.002800
 13
5.947920
 23
5.747720
  0
POLYLINE
  8
0
  6
CONTINUOUS
 66
     1
 40
0.000000
 41
0.000000
  0
VERTEX
  8
0
  6
CONTINUOUS
 10
5.907000
 20
4.983440
  0
VERTEX
  8
0
  6
CONTINUOUS
 10
5.901720
 20
5.728360
  0
VERTEX
  8
0
  6
CONTINUOUS
 10
5.947920
 20
5.747720
  0
VERTEX
  8
0
  6
CONTINUOUS
 10
5.953200
 20
5.002800
  0
VERTEX
  8
0
  6
CONTINUOUS
 10
5.907000
 20
4.983440
  0
SEQEND
  8
0
  0
SOLID
  8
0
 62
    15
 10
5.953200
 20
5.002800
 11
5.947920
 21
5.747720
 12
6.000280
 22
5.013360
 13
5.995000
 23
5.757840
  0
POLYLINE
  8
0
  6
CONTINUOUS
 66
     1
 40
0.000000
 41
0.000000
  0
VERTEX
  8
0
  6
CONTINUOUS
 10
5.953200
 20
5.002800
  0
VERTEX
  8
0
  6
CONTINUOUS
 10
5.947920
 20
5.747720
  0
VERTEX
  8
0
  6
CONTINUOUS
 10
5.995000
 20
5.757840
  0
VERTEX
  8
0
  6
CONTINUOUS
 10
6.000280
 20
5.013360
  0
VERTEX
  8
0
  6
CONTINUOUS
 10
5.953200
 20
5.002800
  0
SEQEND
  8
0
  0
SOLID
  8
0
 62
    15
 10
6.000280
 20
5.013360
 11
5.995000
 21
5.757840
 12
6.047800
 22
5.014680
 13
6.042520
 23
5.759600
  0
POLYLINE
  8
0
  6
CONTINUOUS
 66
     1
 40
0.000000
 41
0.000000
  0
VERTEX
  8
0
  6
CONTINUOUS
 10
6.000280
 20
5.013360
  0
VERTEX
  8
0
  6
CONTINUOUS
 10
5.995000
 20
5.757840
  0
VERTEX
  8
0
  6
CONTINUOUS
 10
6.042520
 20
5.759600
  0
VERTEX
  8
0
  6
CONTINUOUS
 10
6.047800
 20
5.014680
  0
VERTEX
  8
0
  6
CONTINUOUS
 10
6.000280
 20
5.013360
  0
SEQEND
  8
0
  0
SOLID
  8
0
 62
    15
 10
6.047800
 20
5.014680
 11
6.042520
 21
5.759600
 12
6.094880
 22
5.007640
 13
6.089600
 23
5.752560
  0
POLYLINE
  8
0
  6
CONTINUOUS
 66
     1
 40
0.000000
 41
0.000000
  0
VERTEX
  8
0
  6
CONTINUOUS
 10
6.047800
 20
5.014680
  0
VERTEX
  8
0
  6
CONTINUOUS
 10
6.042520
 20
5.759600
  0
VERTEX
  8
0
  6
CONTINUOUS
 10
6.089600
 20
5.752560
  0
VERTEX
  8
0
  6
CONTINUOUS
 10
6.094880
 20
5.007640
  0
VERTEX
  8
0
  6
CONTINUOUS
 10
6.047800
 20
5.014680
  0
SEQEND
  8
0
  0
SOLID
  8
0
 62
    15
 10
6.094880
 20
5.007640
 11
6.089600
 21
5.752560
 12
6.141520
 22
4.992680
 13
6.136240
 23
5.737600
  0
POLYLINE
  8
0
  6
CONTINUOUS
 66
     1
 40
0.000000
 41
0.000000
  0
VERTEX
  8
0
  6
CONTINUOUS
 10
6.094880
 20
5.007640
  0
VERTEX
  8
0
  6
CONTINUOUS
 10
6.089600
 20
5.752560
  0
VERTEX
  8
0
  6
CONTINUOUS
 10
6.136240
 20
5.737600
  0
VERTEX
  8
0
  6
CONTINUOUS
 10
6.141520
 20
4.992680
  0
VERTEX
  8
0
  6
CONTINUOUS
 10
6.094880
 20
5.007640
  0
SEQEND
  8
0
  0
SOLID
  8
0
 62
    15
 10
6.141520
 20
4.992680
 11
6.136240
 21
5.737600
 12
6.186400
 22
4.969360
 13
6.181120
 23
5.714280
  0
POLYLINE
  8
0
  6
CONTINUOUS
 66
     1
 40
0.000000
 41
0.000000
  0
VERTEX
  8
0
  6
CONTINUOUS
 10
6.141520
 20
4.992680
  0
VERTEX
  8
0
  6
CONTINUOUS
 10
6.136240
 20
5.737600
  0
VERTEX
  8
0
  6
CONTINUOUS
 10
6.181120
 20
5.714280
  0
VERTEX
  8
0
  6
CONTINUOUS
 10
6.186400
 20
4.969360
  0
VERTEX
  8
0
  6
CONTINUOUS
 10
6.141520
 20
4.992680
  0
SEQEND
  8
0
  0
SOLID
  8
0
 62
    15
 10
6.186400
 20
4.969360
 11
6.181120
 21
5.714280
 12
6.229080
 22
4.938560
 13
6.223800
 23
5.683480
  0
POLYLINE
  8
0
  6
CONTINUOUS
 66
     1
 40
0.000000
 41
0.000000
  0
VERTEX
  8
0
  6
CONTINUOUS
 10
6.186400
 20
4.969360
  0
VERTEX
  8
0
  6
CONTINUOUS
 10
6.181120
 20
5.714280
  0
VERTEX
  8
0
  6
CONTINUOUS
 10
6.223800
 20
5.683480
  0
VERTEX
  8
0
  6
CONTINUOUS
 10
6.229080
 20
4.938560
  0
VERTEX
  8
0
  6
CONTINUOUS
 10
6.186400
 20
4.969360
  0
SEQEND
  8
0
  0
SOLID
  8
0
 62
    15
 10
6.229080
 20
4.938560
 11
6.223800
 21
5.683480
 12
6.292440
 22
5.033600
 13
6.287160
 23
5.778520
  0
POLYLINE
  8
0
  6
CONTINUOUS
 66
     1
 40
0.000000
 41
0.000000
  0
VERTEX
  8
0
  6
CONTINUOUS
 10
6.229080
 20
4.938560
  0
VERTEX
  8
0
  6
CONTINUOUS
 10
6.223800
 20
5.683480
  0
VERTEX
  8
0
  6
CONTINUOUS
 10
6.287160
 20
5.778520
  0
VERTEX
  8
0
  6
CONTINUOUS
 10
6.292440
 20
5.033600
  0
VERTEX
  8
0
  6
CONTINUOUS
 10
6.229080
 20
4.938560
  0
SEQEND
  8
0
  0
SOLID
  8
0
 62
    15
 10
6.292440
 20
5.033600
 11
6.287160
 21
5.778520
 12
7.007880
 22
5.033600
 13
7.002600
 23
5.778520
  0
POLYLINE
  8
0
  6
CONTINUOUS
 66
     1
 40
0.000000
 41
0.000000
  0
VERTEX
  8
0
  6
CONTINUOUS
 10
6.292440
 20
5.033600
  0
VERTEX
  8
0
  6
CONTINUOUS
 10
6.287160
 20
5.778520
  0
VERTEX
  8
0
  6
CONTINUOUS
 10
7.002600
 20
5.778520
  0
VERTEX
  8
0
  6
CONTINUOUS
 10
7.007880
 20
5.033600
  0
VERTEX
  8
0
  6
CONTINUOUS
 10
6.292440
 20
5.033600
  0
SEQEND
  8
0
  0
SOLID
  8
0
 62
    15
 10
2.548040
 20
5.033160
 11
2.542760
 21
5.778080
 12
3.263480
 22
5.033160
 13
3.258200
 23
5.778080
  0
POLYLINE
  8
0
  6
CONTINUOUS
 66
     1
 40
0.000000
 41
0.000000
  0
VERTEX
  8
0
  6
CONTINUOUS
 10
2.548040
 20
5.033160
  0
VERTEX
  8
0
  6
CONTINUOUS
 10
2.542760
 20
5.778080
  0
VERTEX
  8
0
  6
CONTINUOUS
 10
3.258200
 20
5.778080
  0
VERTEX
  8
0
  6
CONTINUOUS
 10
3.263480
 20
5.033160
  0
VERTEX
  8
0
  6
CONTINUOUS
 10
2.548040
 20
5.033160
  0
SEQEND
  8
0
  0
SOLID
  8
0
 62
    15
 10
4.888840
 20
4.980800
 11
4.883560
 21
5.725720
 12
4.954400
 22
4.977720
 13
4.949120
 23
5.722640
  0
POLYLINE
  8
0
  6
CONTINUOUS
 66
     1
 40
0.000000
 41
0.000000
  0
VERTEX
  8
0
  6
CONTINUOUS
 10
4.888840
 20
4.980800
  0
VERTEX
  8
0
  6
CONTINUOUS
 10
4.883560
 20
5.725720
  0
VERTEX
  8
0
  6
CONTINUOUS
 10
4.949120
 20
5.722640
  0
VERTEX
  8
0
  6
CONTINUOUS
 10
4.954400
 20
4.977720
  0
VERTEX
  8
0
  6
CONTINUOUS
 10
4.888840
 20
4.980800
  0
SEQEND
  8
0
  0
SOLID
  8
0
 62
    15
 10
3.263480
 20
5.033160
 11
3.258200
 21
5.778080
 12
3.326400
 22
4.938120
 13
3.321120
 23
5.683040
  0
POLYLINE
  8
0
  6
CONTINUOUS
 66
     1
 40
0.000000
 41
0.000000
  0
VERTEX
  8
0
  6
CONTINUOUS
 10
3.263480
 20
5.033160
  0
VERTEX
  8
0
  6
CONTINUOUS
 10
3.258200
 20
5.778080
  0
VERTEX
  8
0
  6
CONTINUOUS
 10
3.321120
 20
5.683040
  0
VERTEX
  8
0
  6
CONTINUOUS
 10
3.326400
 20
4.938120
  0
VERTEX
  8
0
  6
CONTINUOUS
 10
3.263480
 20
5.033160
  0
SEQEND
  8
0
  0
SOLID
  8
0
 62
    15
 10
3.326400
 20
4.938120
 11
3.321120
 21
5.683040
 12
3.369520
 22
4.968920
 13
3.364240
 23
5.713840
  0
POLYLINE
  8
0
  6
CONTINUOUS
 66
     1
 40
0.000000
 41
0.000000
  0
VERTEX
  8
0
  6
CONTINUOUS
 10
3.326400
 20
4.938120
  0
VERTEX
  8
0
  6
CONTINUOUS
 10
3.321120
 20
5.683040
  0
VERTEX
  8
0
  6
CONTINUOUS
 10
3.364240
 20
5.713840
  0
VERTEX
  8
0
  6
CONTINUOUS
 10
3.369520
 20
4.968920
  0
VERTEX
  8
0
  6
CONTINUOUS
 10
3.326400
 20
4.938120
  0
SEQEND
  8
0
  0
SOLID
  8
0
 62
    15
 10
3.369520
 20
4.968920
 11
3.364240
 21
5.713840
 12
3.414400
 22
4.992240
 13
3.409120
 23
5.737160
  0
POLYLINE
  8
0
  6
CONTINUOUS
 66
     1
 40
0.000000
 41
0.000000
  0
VERTEX
  8
0
  6
CONTINUOUS
 10
3.369520
 20
4.968920
  0
VERTEX
  8
0
  6
CONTINUOUS
 10
3.364240
 20
5.713840
  0
VERTEX
  8
0
  6
CONTINUOUS
 10
3.409120
 20
5.737160
  0
VERTEX
  8
0
  6
CONTINUOUS
 10
3.414400
 20
4.992240
  0
VERTEX
  8
0
  6
CONTINUOUS
 10
3.369520
 20
4.968920
  0
SEQEND
  8
0
  0
SOLID
  8
0
 62
    15
 10
3.414400
 20
4.992240
 11
3.409120
 21
5.737160
 12
3.460600
 22
5.007200
 13
3.455320
 23
5.752120
  0
POLYLINE
  8
0
  6
CONTINUOUS
 66
     1
 40
0.000000
 41
0.000000
  0
VERTEX
  8
0
  6
CONTINUOUS
 10
3.414400
 20
4.992240
  0
VERTEX
  8
0
  6
CONTINUOUS
 10
3.409120
 20
5.737160
  0
VERTEX
  8
0
  6
CONTINUOUS
 10
3.455320
 20
5.752120
  0
VERTEX
  8
0
  6
CONTINUOUS
 10
3.460600
 20
5.007200
  0
VERTEX
  8
0
  6
CONTINUOUS
 10
3.414400
 20
4.992240
  0
SEQEND
  8
0
  0
SOLID
  8
0
 62
    15
 10
3.460600
 20
5.007200
 11
3.455320
 21
5.752120
 12
3.507680
 22
5.014240
 13
3.502400
 23
5.759160
  0
POLYLINE
  8
0
  6
CONTINUOUS
 66
     1
 40
0.000000
 41
0.000000
  0
VERTEX
  8
0
  6
CONTINUOUS
 10
3.460600
 20
5.007200
  0
VERTEX
  8
0
  6
CONTINUOUS
 10
3.455320
 20
5.752120
  0
VERTEX
  8
0
  6
CONTINUOUS
 10
3.502400
 20
5.759160
  0
VERTEX
  8
0
  6
CONTINUOUS
 10
3.507680
 20
5.014240
  0
VERTEX
  8
0
  6
CONTINUOUS
 10
3.460600
 20
5.007200
  0
SEQEND
  8
0
  0
SOLID
  8
0
 62
    15
 10
3.507680
 20
5.014240
 11
3.502400
 21
5.759160
 12
3.555200
 22
5.012920
 13
3.549920
 23
5.757400
  0
POLYLINE
  8
0
  6
CONTINUOUS
 66
     1
 40
0.000000
 41
0.000000
  0
VERTEX
  8
0
  6
CONTINUOUS
 10
3.507680
 20
5.014240
  0
VERTEX
  8
0
  6
CONTINUOUS
 10
3.502400
 20
5.759160
  0
VERTEX
  8
0
  6
CONTINUOUS
 10
3.549920
 20
5.757400
  0
VERTEX
  8
0
  6
CONTINUOUS
 10
3.555200
 20
5.012920
  0
VERTEX
  8
0
  6
CONTINUOUS
 10
3.507680
 20
5.014240
  0
SEQEND
  8
0
  0
SOLID
  8
0
 62
    15
 10
3.555200
 20
5.012920
 11
3.549920
 21
5.757400
 12
3.602280
 22
5.002360
 13
3.597000
 23
5.747280
  0
POLYLINE
  8
0
  6
CONTINUOUS
 66
     1
 40
0.000000
 41
0.000000
  0
VERTEX
  8
0
  6
CONTINUOUS
 10
3.555200
 20
5.012920
  0
VERTEX
  8
0
  6
CONTINUOUS
 10
3.549920
 20
5.757400
  0
VERTEX
  8
0
  6
CONTINUOUS
 10
3.597000
 20
5.747280
  0
VERTEX
  8
0
  6
CONTINUOUS
 10
3.602280
 20
5.002360
  0
VERTEX
  8
0
  6
CONTINUOUS
 10
3.555200
 20
5.012920
  0
SEQEND
  8
0
  0
SOLID
  8
0
 62
    15
 10
3.602280
 20
5.002360
 11
3.597000
 21
5.747280
 12
3.648480
 22
4.983000
 13
3.643200
 23
5.727920
  0
POLYLINE
  8
0
  6
CONTINUOUS
 66
     1
 40
0.000000
 41
0.000000
  0
VERTEX
  8
0
  6
CONTINUOUS
 10
3.602280
 20
5.002360
  0
VERTEX
  8
0
  6
CONTINUOUS
 10
3.597000
 20
5.747280
  0
VERTEX
  8
0
  6
CONTINUOUS
 10
3.643200
 20
5.727920
  0
VERTEX
  8
0
  6
CONTINUOUS
 10
3.648480
 20
4.983000
  0
VERTEX
  8
0
  6
CONTINUOUS
 10
3.602280
 20
5.002360
  0
SEQEND
  8
0
  0
SOLID
  8
0
 62
    15
 10
3.648480
 20
4.983000
 11
3.643200
 21
5.727920
 12
3.692920
 22
4.953960
 13
3.687640
 23
5.698880
  0
POLYLINE
  8
0
  6
CONTINUOUS
 66
     1
 40
0.000000
 41
0.000000
  0
VERTEX
  8
0
  6
CONTINUOUS
 10
3.648480
 20
4.983000
  0
VERTEX
  8
0
  6
CONTINUOUS
 10
3.643200
 20
5.727920
  0
VERTEX
  8
0
  6
CONTINUOUS
 10
3.687640
 20
5.698880
  0
VERTEX
  8
0
  6
CONTINUOUS
 10
3.692920
 20
4.953960
  0
VERTEX
  8
0
  6
CONTINUOUS
 10
3.648480
 20
4.983000
  0
SEQEND
  8
0
  0
SOLID
  8
0
 62
    15
 10
3.692920
 20
4.953960
 11
3.687640
 21
5.698880
 12
3.740000
 22
4.921840
 13
3.734720
 23
5.666760
  0
POLYLINE
  8
0
  6
CONTINUOUS
 66
     1
 40
0.000000
 41
0.000000
  0
VERTEX
  8
0
  6
CONTINUOUS
 10
3.692920
 20
4.953960
  0
VERTEX
  8
0
  6
CONTINUOUS
 10
3.687640
 20
5.698880
  0
VERTEX
  8
0
  6
CONTINUOUS
 10
3.734720
 20
5.666760
  0
VERTEX
  8
0
  6
CONTINUOUS
 10
3.740000
 20
4.921840
  0
VERTEX
  8
0
  6
CONTINUOUS
 10
3.692920
 20
4.953960
  0
SEQEND
  8
0
  0
SOLID
  8
0
 62
    15
 10
3.740000
 20
4.921840
 11
3.734720
 21
5.666760
 12
3.792800
 22
4.894120
 13
3.787520
 23
5.639040
  0
POLYLINE
  8
0
  6
CONTINUOUS
 66
     1
 40
0.000000
 41
0.000000
  0
VERTEX
  8
0
  6
CONTINUOUS
 10
3.740000
 20
4.921840
  0
VERTEX
  8
0
  6
CONTINUOUS
 10
3.734720
 20
5.666760
  0
VERTEX
  8
0
  6
CONTINUOUS
 10
3.787520
 20
5.639040
  0
VERTEX
  8
0
  6
CONTINUOUS
 10
3.792800
 20
4.894120
  0
VERTEX
  8
0
  6
CONTINUOUS
 10
3.740000
 20
4.921840
  0
SEQEND
  8
0
  0
SOLID
  8
0
 62
    15
 10
3.792800
 20
4.894120
 11
3.787520
 21
5.639040
 12
3.849560
 22
4.872560
 13
3.844280
 23
5.617480
  0
POLYLINE
  8
0
  6
CONTINUOUS
 66
     1
 40
0.000000
 41
0.000000
  0
VERTEX
  8
0
  6
CONTINUOUS
 10
3.792800
 20
4.894120
  0
VERTEX
  8
0
  6
CONTINUOUS
 10
3.787520
 20
5.639040
  0
VERTEX
  8
0
  6
CONTINUOUS
 10
3.844280
 20
5.617480
  0
VERTEX
  8
0
  6
CONTINUOUS
 10
3.849560
 20
4.872560
  0
VERTEX
  8
0
  6
CONTINUOUS
 10
3.792800
 20
4.894120
  0
SEQEND
  8
0
  0
SOLID
  8
0
 62
    15
 10
3.849560
 20
4.872560
 11
3.844280
 21
5.617480
 12
3.909400
 22
4.858920
 13
3.904120
 23
5.603400
  0
POLYLINE
  8
0
  6
CONTINUOUS
 66
     1
 40
0.000000
 41
0.000000
  0
VERTEX
  8
0
  6
CONTINUOUS
 10
3.849560
 20
4.872560
  0
VERTEX
  8
0
  6
CONTINUOUS
 10
3.844280
 20
5.617480
  0
VERTEX
  8
0
  6
CONTINUOUS
 10
3.904120
 20
5.603400
  0
VERTEX
  8
0
  6
CONTINUOUS
 10
3.909400
 20
4.858920
  0
VERTEX
  8
0
  6
CONTINUOUS
 10
3.849560
 20
4.872560
  0
SEQEND
  8
0
  0
SOLID
  8
0
 62
    15
 10
3.909400
 20
4.858920
 11
3.904120
 21
5.603400
 12
3.969680
 22
4.854960
 13
3.964400
 23
5.599440
  0
POLYLINE
  8
0
  6
CONTINUOUS
 66
     1
 40
0.000000
 41
0.000000
  0
VERTEX
  8
0
  6
CONTINUOUS
 10
3.909400
 20
4.858920
  0
VERTEX
  8
0
  6
CONTINUOUS
 10
3.904120
 20
5.603400
  0
VERTEX
  8
0
  6
CONTINUOUS
 10
3.964400
 20
5.599440
  0
VERTEX
  8
0
  6
CONTINUOUS
 10
3.969680
 20
4.854960
  0
VERTEX
  8
0
  6
CONTINUOUS
 10
3.909400
 20
4.858920
  0
SEQEND
  8
0
  0
SOLID
  8
0
 62
    15
 10
3.969680
 20
4.854960
 11
3.964400
 21
5.599440
 12
4.029520
 22
4.862440
 13
4.024240
 23
5.607360
  0
POLYLINE
  8
0
  6
CONTINUOUS
 66
     1
 40
0.000000
 41
0.000000
  0
VERTEX
  8
0
  6
CONTINUOUS
 10
3.969680
 20
4.854960
  0
VERTEX
  8
0
  6
CONTINUOUS
 10
3.964400
 20
5.599440
  0
VERTEX
  8
0
  6
CONTINUOUS
 10
4.024240
 20
5.607360
  0
VERTEX
  8
0
  6
CONTINUOUS
 10
4.029520
 20
4.862440
  0
VERTEX
  8
0
  6
CONTINUOUS
 10
3.969680
 20
4.854960
  0
SEQEND
  8
0
  0
SOLID
  8
0
 62
    15
 10
4.029520
 20
4.862440
 11
4.024240
 21
5.607360
 12
4.059000
 22
4.871240
 13
4.053720
 23
5.616160
  0
POLYLINE
  8
0
  6
CONTINUOUS
 66
     1
 40
0.000000
 41
0.000000
  0
VERTEX
  8
0
  6
CONTINUOUS
 10
4.029520
 20
4.862440
  0
VERTEX
  8
0
  6
CONTINUOUS
 10
4.024240
 20
5.607360
  0
VERTEX
  8
0
  6
CONTINUOUS
 10
4.053720
 20
5.616160
  0
VERTEX
  8
0
  6
CONTINUOUS
 10
4.059000
 20
4.871240
  0
VERTEX
  8
0
  6
CONTINUOUS
 10
4.029520
 20
4.862440
  0
SEQEND
  8
0
  0
SOLID
  8
0
 62
    15
 10
4.059000
 20
4.871240
 11
4.053720
 21
5.616160
 12
4.087160
 22
4.883560
 13
4.081880
 23
5.628480
  0
POLYLINE
  8
0
  6
CONTINUOUS
 66
     1
 40
0.000000
 41
0.000000
  0
VERTEX
  8
0
  6
CONTINUOUS
 10
4.059000
 20
4.871240
  0
VERTEX
  8
0
  6
CONTINUOUS
 10
4.053720
 20
5.616160
  0
VERTEX
  8
0
  6
CONTINUOUS
 10
4.081880
 20
5.628480
  0
VERTEX
  8
0
  6
CONTINUOUS
 10
4.087160
 20
4.883560
  0
VERTEX
  8
0
  6
CONTINUOUS
 10
4.059000
 20
4.871240
  0
SEQEND
  8
0
  0
SOLID
  8
0
 62
    15
 10
4.087160
 20
4.883560
 11
4.081880
 21
5.628480
 12
4.114880
 22
4.899400
 13
4.109600
 23
5.644320
  0
POLYLINE
  8
0
  6
CONTINUOUS
 66
     1
 40
0.000000
 41
0.000000
  0
VERTEX
  8
0
  6
CONTINUOUS
 10
4.087160
 20
4.883560
  0
VERTEX
  8
0
  6
CONTINUOUS
 10
4.081880
 20
5.628480
  0
VERTEX
  8
0
  6
CONTINUOUS
 10
4.109600
 20
5.644320
  0
VERTEX
  8
0
  6
CONTINUOUS
 10
4.114880
 20
4.899400
  0
VERTEX
  8
0
  6
CONTINUOUS
 10
4.087160
 20
4.883560
  0
SEQEND
  8
0
  0
SOLID
  8
0
 62
    15
 10
4.114880
 20
4.899400
 11
4.109600
 21
5.644320
 12
4.141280
 22
4.919640
 13
4.136000
 23
5.664560
  0
POLYLINE
  8
0
  6
CONTINUOUS
 66
     1
 40
0.000000
 41
0.000000
  0
VERTEX
  8
0
  6
CONTINUOUS
 10
4.114880
 20
4.899400
  0
VERTEX
  8
0
  6
CONTINUOUS
 10
4.109600
 20
5.644320
  0
VERTEX
  8
0
  6
CONTINUOUS
 10
4.136000
 20
5.664560
  0
VERTEX
  8
0
  6
CONTINUOUS
 10
4.141280
 20
4.919640
  0
VERTEX
  8
0
  6
CONTINUOUS
 10
4.114880
 20
4.899400
  0
SEQEND
  8
0
  0
SOLID
  8
0
 62
    15
 10
4.141280
 20
4.919640
 11
4.136000
 21
5.664560
 12
4.254360
 22
4.829880
 13
4.249080
 23
5.574800
  0
POLYLINE
  8
0
  6
CONTINUOUS
 66
     1
 40
0.000000
 41
0.000000
  0
VERTEX
  8
0
  6
CONTINUOUS
 10
4.141280
 20
4.919640
  0
VERTEX
  8
0
  6
CONTINUOUS
 10
4.136000
 20
5.664560
  0
VERTEX
  8
0
  6
CONTINUOUS
 10
4.249080
 20
5.574800
  0
VERTEX
  8
0
  6
CONTINUOUS
 10
4.254360
 20
4.829880
  0
VERTEX
  8
0
  6
CONTINUOUS
 10
4.141280
 20
4.919640
  0
SEQEND
  8
0
  0
SOLID
  8
0
 62
    15
 10
4.254360
 20
4.829880
 11
4.249080
 21
5.574800
 12
4.303640
 22
4.871680
 13
4.298360
 23
5.616600
  0
POLYLINE
  8
0
  6
CONTINUOUS
 66
     1
 40
0.000000
 41
0.000000
  0
VERTEX
  8
0
  6
CONTINUOUS
 10
4.254360
 20
4.829880
  0
VERTEX
  8
0
  6
CONTINUOUS
 10
4.249080
 20
5.574800
  0
VERTEX
  8
0
  6
CONTINUOUS
 10
4.298360
 20
5.616600
  0
VERTEX
  8
0
  6
CONTINUOUS
 10
4.303640
 20
4.871680
  0
VERTEX
  8
0
  6
CONTINUOUS
 10
4.254360
 20
4.829880
  0
SEQEND
  8
0
  0
SOLID
  8
0
 62
    15
 10
4.303640
 20
4.871680
 11
4.298360
 21
5.616600
 12
4.349840
 22
4.905120
 13
4.344560
 23
5.650040
  0
POLYLINE
  8
0
  6
CONTINUOUS
 66
     1
 40
0.000000
 41
0.000000
  0
VERTEX
  8
0
  6
CONTINUOUS
 10
4.303640
 20
4.871680
  0
VERTEX
  8
0
  6
CONTINUOUS
 10
4.298360
 20
5.616600
  0
VERTEX
  8
0
  6
CONTINUOUS
 10
4.344560
 20
5.650040
  0
VERTEX
  8
0
  6
CONTINUOUS
 10
4.349840
 20
4.905120
  0
VERTEX
  8
0
  6
CONTINUOUS
 10
4.303640
 20
4.871680
  0
SEQEND
  8
0
  0
SOLID
  8
0
 62
    15
 10
4.349840
 20
4.905120
 11
4.344560
 21
5.650040
 12
4.395600
 22
4.930640
 13
4.389880
 23
5.675560
  0
POLYLINE
  8
0
  6
CONTINUOUS
 66
     1
 40
0.000000
 41
0.000000
  0
VERTEX
  8
0
  6
CONTINUOUS
 10
4.349840
 20
4.905120
  0
VERTEX
  8
0
  6
CONTINUOUS
 10
4.344560
 20
5.650040
  0
VERTEX
  8
0
  6
CONTINUOUS
 10
4.389880
 20
5.675560
  0
VERTEX
  8
0
  6
CONTINUOUS
 10
4.395600
 20
4.930640
  0
VERTEX
  8
0
  6
CONTINUOUS
 10
4.349840
 20
4.905120
  0
SEQEND
  8
0
  0
SOLID
  8
0
 62
    15
 10
4.395600
 20
4.930640
 11
4.389880
 21
5.675560
 12
4.441360
 22
4.949560
 13
4.436080
 23
5.694480
  0
POLYLINE
  8
0
  6
CONTINUOUS
 66
     1
 40
0.000000
 41
0.000000
  0
VERTEX
  8
0
  6
CONTINUOUS
 10
4.395600
 20
4.930640
  0
VERTEX
  8
0
  6
CONTINUOUS
 10
4.389880
 20
5.675560
  0
VERTEX
  8
0
  6
CONTINUOUS
 10
4.436080
 20
5.694480
  0
VERTEX
  8
0
  6
CONTINUOUS
 10
4.441360
 20
4.949560
  0
VERTEX
  8
0
  6
CONTINUOUS
 10
4.395600
 20
4.930640
  0
SEQEND
  8
0
  0
SOLID
  8
0
 62
    15
 10
4.441360
 20
4.949560
 11
4.436080
 21
5.694480
 12
4.490200
 22
4.963200
 13
4.484920
 23
5.708120
  0
POLYLINE
  8
0
  6
CONTINUOUS
 66
     1
 40
0.000000
 41
0.000000
  0
VERTEX
  8
0
  6
CONTINUOUS
 10
4.441360
 20
4.949560
  0
VERTEX
  8
0
  6
CONTINUOUS
 10
4.436080
 20
5.694480
  0
VERTEX
  8
0
  6
CONTINUOUS
 10
4.484920
 20
5.708120
  0
VERTEX
  8
0
  6
CONTINUOUS
 10
4.490200
 20
4.963200
  0
VERTEX
  8
0
  6
CONTINUOUS
 10
4.441360
 20
4.949560
  0
SEQEND
  8
0
  0
SOLID
  8
0
 62
    15
 10
4.490200
 20
4.963200
 11
4.484920
 21
5.708120
 12
4.542560
 22
4.972000
 13
4.537280
 23
5.716920
  0
POLYLINE
  8
0
  6
CONTINUOUS
 66
     1
 40
0.000000
 41
0.000000
  0
VERTEX
  8
0
  6
CONTINUOUS
 10
4.490200
 20
4.963200
  0
VERTEX
  8
0
  6
CONTINUOUS
 10
4.484920
 20
5.708120
  0
VERTEX
  8
0
  6
CONTINUOUS
 10
4.537280
 20
5.716920
  0
VERTEX
  8
0
  6
CONTINUOUS
 10
4.542560
 20
4.972000
  0
VERTEX
  8
0
  6
CONTINUOUS
 10
4.490200
 20
4.963200
  0
SEQEND
  8
0
  0
SOLID
  8
0
 62
    15
 10
4.542560
 20
4.972000
 11
4.537280
 21
5.716920
 12
4.601080
 22
4.977280
 13
4.595800
 23
5.722200
  0
POLYLINE
  8
0
  6
CONTINUOUS
 66
     1
 40
0.000000
 41
0.000000
  0
VERTEX
  8
0
  6
CONTINUOUS
 10
4.542560
 20
4.972000
  0
VERTEX
  8
0
  6
CONTINUOUS
 10
4.537280
 20
5.716920
  0
VERTEX
  8
0
  6
CONTINUOUS
 10
4.595800
 20
5.722200
  0
VERTEX
  8
0
  6
CONTINUOUS
 10
4.601080
 20
4.977280
  0
VERTEX
  8
0
  6
CONTINUOUS
 10
4.542560
 20
4.972000
  0
SEQEND
  8
0
  0
SOLID
  8
0
 62
    15
 10
4.601080
 20
4.977280
 11
4.595800
 21
5.722200
 12
4.667080
 22
4.980360
 13
4.661800
 23
5.725280
  0
POLYLINE
  8
0
  6
CONTINUOUS
 66
     1
 40
0.000000
 41
0.000000
  0
VERTEX
  8
0
  6
CONTINUOUS
 10
4.601080
 20
4.977280
  0
VERTEX
  8
0
  6
CONTINUOUS
 10
4.595800
 20
5.722200
  0
VERTEX
  8
0
  6
CONTINUOUS
 10
4.661800
 20
5.725280
  0
VERTEX
  8
0
  6
CONTINUOUS
 10
4.667080
 20
4.980360
  0
VERTEX
  8
0
  6
CONTINUOUS
 10
4.601080
 20
4.977280
  0
SEQEND
  8
0
  0
SOLID
  8
0
 62
    15
 10
4.667080
 20
4.980360
 11
4.661800
 21
5.725280
 12
4.888840
 22
4.980800
 13
4.883560
 23
5.725720
  0
POLYLINE
  8
0
  6
CONTINUOUS
 66
     1
 40
0.000000
 41
0.000000
  0
VERTEX
  8
0
  6
CONTINUOUS
 10
4.667080
 20
4.980360
  0
VERTEX
  8
0
  6
CONTINUOUS
 10
4.661800
 20
5.725280
  0
VERTEX
  8
0
  6
CONTINUOUS
 10
4.883560
 20
5.725720
  0
VERTEX
  8
0
  6
CONTINUOUS
 10
4.888840
 20
4.980800
  0
VERTEX
  8
0
  6
CONTINUOUS
 10
4.667080
 20
4.980360
  0
SEQEND
  8
0
  0
POLYLINE
  8
0
  6
CONTINUOUS
 66
     1
 40
0.000000
 41
0.000000
  0
VERTEX
  8
0
  6
CONTINUOUS
 10
4.888840
 20
4.980800
  0
VERTEX
  8
0
  6
CONTINUOUS
 10
4.954400
 20
4.977720
  0
VERTEX
  8
0
  6
CONTINUOUS
 10
5.012920
 20
4.972440
  0
VERTEX
  8
0
  6
CONTINUOUS
 10
5.065720
 20
4.963640
  0
VERTEX
  8
0
  6
CONTINUOUS
 10
5.114120
 20
4.950000
  0
VERTEX
  8
0
  6
CONTINUOUS
 10
5.160320
 20
4.931080
  0
VERTEX
  8
0
  6
CONTINUOUS
 10
5.205640
 20
4.905560
  0
VERTEX
  8
0
  6
CONTINUOUS
 10
5.252280
 20
4.872120
  0
VERTEX
  8
0
  6
CONTINUOUS
 10
5.301120
 20
4.830320
  0
VERTEX
  8
0
  6
CONTINUOUS
 10
5.414640
 20
4.920080
  0
VERTEX
  8
0
  6
CONTINUOUS
 10
5.441040
 20
4.899840
  0
VERTEX
  8
0
  6
CONTINUOUS
 10
5.468320
 20
4.884000
  0
VERTEX
  8
0
  6
CONTINUOUS
 10
5.496920
 20
4.871680
  0
VERTEX
  8
0
  6
CONTINUOUS
 10
5.525960
 20
4.862880
  0
VERTEX
  8
0
  6
CONTINUOUS
 10
5.585800
 20
4.855400
  0
VERTEX
  8
0
  6
CONTINUOUS
 10
5.646520
 20
4.859360
  0
VERTEX
  8
0
  6
CONTINUOUS
 10
5.705920
 20
4.873000
  0
VERTEX
  8
0
  6
CONTINUOUS
 10
5.763120
 20
4.894560
  0
VERTEX
  8
0
  6
CONTINUOUS
 10
5.815920
 20
4.922280
  0
VERTEX
  8
0
  6
CONTINUOUS
 10
5.907000
 20
4.983440
  0
VERTEX
  8
0
  6
CONTINUOUS
 10
5.953200
 20
5.002800
  0
VERTEX
  8
0
  6
CONTINUOUS
 10
6.000280
 20
5.013360
  0
VERTEX
  8
0
  6
CONTINUOUS
 10
6.047800
 20
5.014680
  0
VERTEX
  8
0
  6
CONTINUOUS
 10
6.094880
 20
5.007640
  0
VERTEX
  8
0
  6
CONTINUOUS
 10
6.141520
 20
4.992680
  0
VERTEX
  8
0
  6
CONTINUOUS
 10
6.186400
 20
4.969360
  0
VERTEX
  8
0
  6
CONTINUOUS
 10
6.229080
 20
4.938560
  0
VERTEX
  8
0
  6
CONTINUOUS
 10
6.292440
 20
5.033600
  0
VERTEX
  8
0
  6
CONTINUOUS
 10
7.007880
 20
5.033600
  0
VERTEX
  8
0
  6
CONTINUOUS
 10
7.007880
 20
4.279000
  0
VERTEX
  8
0
  6
CONTINUOUS
 10
2.548040
 20
4.279000
  0
VERTEX
  8
0
  6
CONTINUOUS
 10
2.548040
 20
5.033160
  0
VERTEX
  8
0
  6
CONTINUOUS
 10
3.263480
 20
5.033160
  0
VERTEX
  8
0
  6
CONTINUOUS
 10
3.326400
 20
4.938120
  0
VERTEX
  8
0
  6
CONTINUOUS
 10
3.369520
 20
4.968920
  0
VERTEX
  8
0
  6
CONTINUOUS
 10
3.414400
 20
4.992240
  0
VERTEX
  8
0
  6
CONTINUOUS
 10
3.460600
 20
5.007200
  0
VERTEX
  8
0
  6
CONTINUOUS
 10
3.507680
 20
5.014240
  0
VERTEX
  8
0
  6
CONTINUOUS
 10
3.555200
 20
5.012920
  0
VERTEX
  8
0
  6
CONTINUOUS
 10
3.602280
 20
5.002360
  0
VERTEX
  8
0
  6
CONTINUOUS
 10
3.648480
 20
4.983000
  0
VERTEX
  8
0
  6
CONTINUOUS
 10
3.740000
 20
4.921840
  0
VERTEX
  8
0
  6
CONTINUOUS
 10
3.792800
 20
4.894120
  0
VERTEX
  8
0
  6
CONTINUOUS
 10
3.849560
 20
4.872560
  0
VERTEX
  8
0
  6
CONTINUOUS
 10
3.909400
 20
4.858920
  0
VERTEX
  8
0
  6
CONTINUOUS
 10
3.969680
 20
4.854960
  0
VERTEX
  8
0
  6
CONTINUOUS
 10
4.029520
 20
4.862440
  0
VERTEX
  8
0
  6
CONTINUOUS
 10
4.059000
 20
4.871240
  0
VERTEX
  8
0
  6
CONTINUOUS
 10
4.087160
 20
4.883560
  0
VERTEX
  8
0
  6
CONTINUOUS
 10
4.114880
 20
4.899400
  0
VERTEX
  8
0
  6
CONTINUOUS
 10
4.141280
 20
4.919640
  0
VERTEX
  8
0
  6
CONTINUOUS
 10
4.254360
 20
4.829880
  0
VERTEX
  8
0
  6
CONTINUOUS
 10
4.303640
 20
4.871680
  0
VERTEX
  8
0
  6
CONTINUOUS
 10
4.349840
 20
4.905120
  0
VERTEX
  8
0
  6
CONTINUOUS
 10
4.395600
 20
4.930640
  0
VERTEX
  8
0
  6
CONTINUOUS
 10
4.441360
 20
4.949560
  0
VERTEX
  8
0
  6
CONTINUOUS
 10
4.490200
 20
4.963200
  0
VERTEX
  8
0
  6
CONTINUOUS
 10
4.542560
 20
4.972000
  0
VERTEX
  8
0
  6
CONTINUOUS
 10
4.601080
 20
4.977280
  0
VERTEX
  8
0
  6
CONTINUOUS
 10
4.667080
 20
4.980360
  0
VERTEX
  8
0
  6
CONTINUOUS
 10
4.888840
 20
4.980800
  0
SEQEND
  8
0
  0
TEXT
  8
0
 10
4.433880
 20
4.007960
 40
0.138006
  1
BA  1152
 41
1.000000
  7
SN0
 71
     0
 72
     5
 11
5.116381
 21
4.007960
  0
TEXT
  8
0
 10
4.324320
 20
3.816560
 40
0.138006
  1
3/4" x 4-1/2"
 41
1.000000
  7
SN0
 71
     0
 72
     5
 11
5.225083
 21
3.816560
  0
POLYLINE
  8
0
  6
CONTINUOUS
 66
     1
 40
0.014080
 41
0.014080
  0
VERTEX
  8
0
  6
CONTINUOUS
 10
4.895440
 20
6.711320
  0
VERTEX
  8
0
  6
CONTINUOUS
 10
4.991360
 20
6.706480
  0
VERTEX
  8
0
  6
CONTINUOUS
 10
5.046800
 20
6.699440
  0
VERTEX
  8
0
  6
CONTINUOUS
 10
5.096960
 20
6.688440
  0
VERTEX
  8
0
  6
CONTINUOUS
 10
5.144040
 20
6.672160
  0
VERTEX
  8
0
  6
CONTINUOUS
 10
5.189800
 20
6.650160
  0
VERTEX
  8
0
  6
CONTINUOUS
 10
5.235560
 20
6.620680
  0
VERTEX
  8
0
  6
CONTINUOUS
 10
5.282640
 20
6.583280
  0
VERTEX
  8
0
  6
CONTINUOUS
 10
5.307720
 20
6.561280
  0
VERTEX
  8
0
  6
CONTINUOUS
 10
5.421240
 20
6.651040
  0
VERTEX
  8
0
  6
CONTINUOUS
 10
5.447640
 20
6.630800
  0
VERTEX
  8
0
  6
CONTINUOUS
 10
5.474920
 20
6.614520
  0
VERTEX
  8
0
  6
CONTINUOUS
 10
5.503520
 20
6.602200
  0
VERTEX
  8
0
  6
CONTINUOUS
 10
5.547520
 20
6.590760
  0
VERTEX
  8
0
  6
CONTINUOUS
 10
5.577440
 20
6.586800
  0
VERTEX
  8
0
  6
CONTINUOUS
 10
5.607800
 20
6.585920
  0
VERTEX
  8
0
  6
CONTINUOUS
 10
5.653120
 20
6.589880
  0
VERTEX
  8
0
  6
CONTINUOUS
 10
5.683040
 20
6.595600
  0
VERTEX
  8
0
  6
CONTINUOUS
 10
5.712520
 20
6.603520
  0
VERTEX
  8
0
  6
CONTINUOUS
 10
5.741560
 20
6.613640
  0
VERTEX
  8
0
  6
CONTINUOUS
 10
5.796560
 20
6.638720
  0
VERTEX
  8
0
  6
CONTINUOUS
 10
5.822520
 20
6.653240
  0
VERTEX
  8
0
  6
CONTINUOUS
 10
5.891160
 20
6.700760
  0
VERTEX
  8
0
  6
CONTINUOUS
 10
5.913600
 20
6.713960
  0
VERTEX
  8
0
  6
CONTINUOUS
 10
5.936480
 20
6.724960
  0
VERTEX
  8
0
  6
CONTINUOUS
 10
5.959800
 20
6.733320
  0
VERTEX
  8
0
  6
CONTINUOUS
 10
5.983120
 20
6.739920
  0
VERTEX
  8
0
  6
CONTINUOUS
 10
6.006880
 20
6.743880
  0
VERTEX
  8
0
  6
CONTINUOUS
 10
6.030640
 20
6.745640
  0
VERTEX
  8
0
  6
CONTINUOUS
 10
6.054400
 20
6.745200
  0
VERTEX
  8
0
  6
CONTINUOUS
 10
6.078160
 20
6.743000
  0
VERTEX
  8
0
  6
CONTINUOUS
 10
6.101480
 20
6.738600
  0
VERTEX
  8
0
  6
CONTINUOUS
 10
6.124800
 20
6.732000
  0
VERTEX
  8
0
  6
CONTINUOUS
 10
6.148120
 20
6.723200
  0
VERTEX
  8
0
  6
CONTINUOUS
 10
6.193000
 20
6.700320
  0
VERTEX
  8
0
  6
CONTINUOUS
 10
6.235680
 20
6.669520
  0
VERTEX
  8
0
  6
CONTINUOUS
 10
6.299040
 20
6.764120
  0
VERTEX
  8
0
  6
CONTINUOUS
 10
7.014480
 20
6.764120
  0
VERTEX
  8
0
  6
CONTINUOUS
 10
7.014480
 20
6.009520
  0
VERTEX
  8
0
  6
CONTINUOUS
 10
2.554640
 20
6.009520
  0
VERTEX
  8
0
  6
CONTINUOUS
 10
2.554640
 20
6.763680
  0
VERTEX
  8
0
  6
CONTINUOUS
 10
3.270080
 20
6.763680
  0
VERTEX
  8
0
  6
CONTINUOUS
 10
3.333000
 20
6.669080
  0
VERTEX
  8
0
  6
CONTINUOUS
 10
3.375680
 20
6.699880
  0
VERTEX
  8
0
  6
CONTINUOUS
 10
3.420560
 20
6.722760
  0
VERTEX
  8
0
  6
CONTINUOUS
 10
3.443880
 20
6.731560
  0
VERTEX
  8
0
  6
CONTINUOUS
 10
3.467200
 20
6.738160
  0
VERTEX
  8
0
  6
CONTINUOUS
 10
3.490960
 20
6.742560
  0
VERTEX
  8
0
  6
CONTINUOUS
 10
3.514280
 20
6.744760
  0
VERTEX
  8
0
  6
CONTINUOUS
 10
3.538040
 20
6.745200
  0
VERTEX
  8
0
  6
CONTINUOUS
 10
3.561800
 20
6.743440
  0
VERTEX
  8
0
  6
CONTINUOUS
 10
3.585560
 20
6.739480
  0
VERTEX
  8
0
  6
CONTINUOUS
 10
3.608880
 20
6.732880
  0
VERTEX
  8
0
  6
CONTINUOUS
 10
3.632200
 20
6.724520
  0
VERTEX
  8
0
  6
CONTINUOUS
 10
3.655080
 20
6.713520
  0
VERTEX
  8
0
  6
CONTINUOUS
 10
3.677520
 20
6.700320
  0
VERTEX
  8
0
  6
CONTINUOUS
 10
3.746600
 20
6.652800
  0
VERTEX
  8
0
  6
CONTINUOUS
 10
3.772120
 20
6.638280
  0
VERTEX
  8
0
  6
CONTINUOUS
 10
3.827120
 20
6.613200
  0
VERTEX
  8
0
  6
CONTINUOUS
 10
3.856160
 20
6.603080
  0
VERTEX
  8
0
  6
CONTINUOUS
 10
3.885640
 20
6.595160
  0
VERTEX
  8
0
  6
CONTINUOUS
 10
3.916000
 20
6.589440
  0
VERTEX
  8
0
  6
CONTINUOUS
 10
3.961320
 20
6.585480
  0
VERTEX
  8
0
  6
CONTINUOUS
 10
3.991240
 20
6.586360
  0
VERTEX
  8
0
  6
CONTINUOUS
 10
4.021600
 20
6.590320
  0
VERTEX
  8
0
  6
CONTINUOUS
 10
4.065600
 20
6.601760
  0
VERTEX
  8
0
  6
CONTINUOUS
 10
4.093760
 20
6.614080
  0
VERTEX
  8
0
  6
CONTINUOUS
 10
4.121480
 20
6.630360
  0
VERTEX
  8
0
  6
CONTINUOUS
 10
4.147880
 20
6.650600
  0
VERTEX
  8
0
  6
CONTINUOUS
 10
4.260960
 20
6.560840
  0
VERTEX
  8
0
  6
CONTINUOUS
 10
4.310240
 20
6.602640
  0
VERTEX
  8
0
  6
CONTINUOUS
 10
4.356440
 20
6.636080
  0
VERTEX
  8
0
  6
CONTINUOUS
 10
4.402200
 20
6.661600
  0
VERTEX
  8
0
  6
CONTINUOUS
 10
4.448400
 20
6.680520
  0
VERTEX
  8
0
  6
CONTINUOUS
 10
4.496800
 20
6.694160
  0
VERTEX
  8
0
  6
CONTINUOUS
 10
4.549600
 20
6.702960
  0
VERTEX
  8
0
  6
CONTINUOUS
 10
4.607680
 20
6.708240
  0
VERTEX
  8
0
  6
CONTINUOUS
 10
4.673680
 20
6.711320
  0
VERTEX
  8
0
  6
CONTINUOUS
 10
4.895440
 20
6.711320
  0
SEQEND
  8
0
  0
TEXT
  8
0
 10
3.068120
 20
6.314000
 40
0.138006
  1
BA  1152
 41
1.000000
  7
SN0
 71
     0
 72
     5
 11
3.750621
 21
6.314000
  0
TEXT
  8
0
 10
2.958560
 20
6.122600
 40
0.138006
  1
3/4" x 4-1/2"
 41
1.000000
  7
SN0
 71
     0
 72
     5
 11
3.859323
 21
6.122600
  0
ENDSEC
  0
EOF
