  0
SECTION
  2
HEADER
  9
$ACADVER
  1
AC1006
  9
$EXTMIN
 10
2.298560
 20
1.419880
  9
$EXTMAX
 10
5.824720
 20
5.358320
  9
$LTSCALE
 40
0.044000
  9
$PDMODE
 70
    35
  9
$PDSIZE
 40
0.035200
  0
ENDSEC
  0
SECTION
  2
TABLES
  0
TABLE
  2
LTYPE
 70
     9
  0
LTYPE
  2
CONTINUOUS
 70
    64
  3
Solid line
 72
    65
 73
     0
 40
0.000000
  0
LTYPE
  2
DASHED
 70
    64
  3
__ __ __ __ __ __ __ __ __ __ __ __ __ __ __
 72
    65
 73
     2
 40
0.000330
 49
0.000220
 49
-0.000110
  0
LTYPE
  2
HIDDEN
 70
    64
  3
 _ _ _ _ _ _ _ _ _ _ _ _ _ _ _ _ _ _ _ _ _ _
 72
    65
 73
     2
 40
0.000165
 49
0.000110
 49
-0.000055
  0
LTYPE
  2
CENTER
 70
    64
  3
____ _ ____ _ ____ _ ____ _ ____ _ ____ _ ____
 72
    65
 73
     4
 40
0.000880
 49
0.000550
 49
-0.000110
 49
0.000110
 49
-0.000110
  0
LTYPE
  2
PHANTOM
 70
    64
  3
_____ _ _ _____ _ _ _____ _ _ _____ _ _ ____
 72
    65
 73
     6
 40
0.001100
 49
0.000550
 49
-0.000110
 49
0.000110
 49
-0.000110
 49
0.000110
 49
-0.000110
  0
LTYPE
  2
DOT
 70
    64
  3
...............................................
 72
    65
 73
     2
 40
0.000110
 49
0.000000
 49
-0.000110
  0
LTYPE
  2
DASHDOT
 70
    64
  3
__ . __ . __ . __ . __ . __ . __ . __ . __ . __
 72
    65
 73
     4
 40
0.000440
 49
0.000220
 49
-0.000110
 49
0.000000
 49
-0.000110
  0
LTYPE
  2
BORDER
 70
    64
  3
__ __ . __ __ . __ __ . __ __ . __ __ . __ __
 72
    65
 73
     6
 40
0.000770
 49
0.000220
 49
-0.000110
 49
0.000220
 49
-0.000110
 49
0.000000
 49
-0.000110
  0
LTYPE
  2
DIVIDE
 70
    64
  3
__ . . __ . . __ . . __ . . __ . . __ . . __
 72
    65
 73
     6
 40
0.000550
 49
0.000220
 49
-0.000110
 49
0.000000
 49
-0.000110
 49
0.000000
 49
-0.000110
  0
LTYPE
  2
DOTDOT
 70
    64
  3
 . .  . .  . .  . .  . .  . . 
 72
    65
 73
     5
 40
0.000242
 49
-0.000110
 49
0.000000
 49
-0.000110
 49
0.000000
 49
-0.000110
  0
ENDTAB
  0
TABLE
  2
STYLE
 70
     2
  0
STYLE
 70
     0
  2
SN0
 40
0.000000
 41
0.000440
 50
0.000000
 71
     0
 42
0.000000
  3
ROMAND
  0
STYLE
 70
    68
  2
SV0
 40
0.000000
 41
0.000440
 50
0.000000
 71
     0
 42
0.000000
  3
ROMAND
  0
ENDTAB
  0
TABLE
  2
LAYER
 70
     3
  0
LAYER
  2
FOREGROUND
 70
    64
 62
     7
  6
CONTINUOUS
  0
LAYER
  2
BACKGROUND
 70
    65
 62
    -7
  6
CONTINUOUS
  0
LAYER
  2
0
 70
    64
 62
     7
  6
CONTINUOUS
  0
ENDTAB
  0
ENDSEC
  0
SECTION
  2
ENTITIES
  0
POLYLINE
  8
FOREGROUND
  6
CONTINUOUS
 66
     1
 40
0.000000
 41
0.000000
  0
VERTEX
  8
FOREGROUND
  6
CONTINUOUS
 10
0.000000
 20
6.778200
  0
VERTEX
  8
FOREGROUND
  6
CONTINUOUS
 10
8.499920
 20
6.778200
  0
VERTEX
  8
FOREGROUND
  6
CONTINUOUS
 10
8.499920
 20
-4.221800
  0
VERTEX
  8
FOREGROUND
  6
CONTINUOUS
 10
0.000000
 20
-4.221800
  0
VERTEX
  8
FOREGROUND
  6
CONTINUOUS
 10
0.000000
 20
6.778200
  0
SEQEND
  8
0
  0
POLYLINE
  8
FOREGROUND
  6
CONTINUOUS
 66
     1
 40
0.000000
 41
0.000000
  0
VERTEX
  8
FOREGROUND
  6
CONTINUOUS
 10
0.000000
 20
6.778200
  0
VERTEX
  8
FOREGROUND
  6
CONTINUOUS
 10
8.499920
 20
6.778200
  0
VERTEX
  8
FOREGROUND
  6
CONTINUOUS
 10
8.499920
 20
-4.221800
  0
VERTEX
  8
FOREGROUND
  6
CONTINUOUS
 10
0.000000
 20
-4.221800
  0
VERTEX
  8
FOREGROUND
  6
CONTINUOUS
 10
0.000000
 20
6.778200
  0
SEQEND
  8
0
  0
SOLID
  8
0
 62
    15
 10
5.484160
 20
2.530000
 11
5.483720
 21
3.284160
 12
5.542240
 22
2.486440
 13
5.541360
 23
3.241040
  0
POLYLINE
  8
0
  6
CONTINUOUS
 66
     1
 40
0.000000
 41
0.000000
  0
VERTEX
  8
0
  6
CONTINUOUS
 10
5.484160
 20
2.530000
  0
VERTEX
  8
0
  6
CONTINUOUS
 10
5.483720
 20
3.284160
  0
VERTEX
  8
0
  6
CONTINUOUS
 10
5.541360
 20
3.241040
  0
VERTEX
  8
0
  6
CONTINUOUS
 10
5.542240
 20
2.486440
  0
VERTEX
  8
0
  6
CONTINUOUS
 10
5.484160
 20
2.530000
  0
SEQEND
  8
0
  0
SOLID
  8
0
 62
    15
 10
4.440040
 20
2.658040
 11
4.439600
 21
3.412200
 12
4.563240
 22
2.658040
 13
4.562360
 23
3.412200
  0
POLYLINE
  8
0
  6
CONTINUOUS
 66
     1
 40
0.000000
 41
0.000000
  0
VERTEX
  8
0
  6
CONTINUOUS
 10
4.440040
 20
2.658040
  0
VERTEX
  8
0
  6
CONTINUOUS
 10
4.439600
 20
3.412200
  0
VERTEX
  8
0
  6
CONTINUOUS
 10
4.562360
 20
3.412200
  0
VERTEX
  8
0
  6
CONTINUOUS
 10
4.563240
 20
2.658040
  0
VERTEX
  8
0
  6
CONTINUOUS
 10
4.440040
 20
2.658040
  0
SEQEND
  8
0
  0
SOLID
  8
0
 62
    15
 10
3.306600
 20
2.781240
 11
3.305720
 21
3.535400
 12
4.440040
 22
2.781240
 13
4.439600
 23
3.535400
  0
POLYLINE
  8
0
  6
CONTINUOUS
 66
     1
 40
0.000000
 41
0.000000
  0
VERTEX
  8
0
  6
CONTINUOUS
 10
3.306600
 20
2.781240
  0
VERTEX
  8
0
  6
CONTINUOUS
 10
3.305720
 20
3.535400
  0
VERTEX
  8
0
  6
CONTINUOUS
 10
4.439600
 20
3.535400
  0
VERTEX
  8
0
  6
CONTINUOUS
 10
4.440040
 20
2.781240
  0
VERTEX
  8
0
  6
CONTINUOUS
 10
3.306600
 20
2.781240
  0
SEQEND
  8
0
  0
SOLID
  8
0
 62
    15
 10
2.304720
 20
1.906520
 11
2.303840
 21
2.660680
 12
2.304720
 22
1.921480
 13
2.303840
 23
2.675640
  0
POLYLINE
  8
0
  6
CONTINUOUS
 66
     1
 40
0.000000
 41
0.000000
  0
VERTEX
  8
0
  6
CONTINUOUS
 10
2.304720
 20
1.906520
  0
VERTEX
  8
0
  6
CONTINUOUS
 10
2.303840
 20
2.660680
  0
VERTEX
  8
0
  6
CONTINUOUS
 10
2.303840
 20
2.675640
  0
VERTEX
  8
0
  6
CONTINUOUS
 10
2.304720
 20
1.921480
  0
VERTEX
  8
0
  6
CONTINUOUS
 10
2.304720
 20
1.906520
  0
SEQEND
  8
0
  0
SOLID
  8
0
 62
    15
 10
4.563240
 20
2.658040
 11
4.562360
 21
3.412200
 12
4.563240
 22
2.781240
 13
4.562360
 23
3.535400
  0
POLYLINE
  8
0
  6
CONTINUOUS
 66
     1
 40
0.000000
 41
0.000000
  0
VERTEX
  8
0
  6
CONTINUOUS
 10
4.563240
 20
2.658040
  0
VERTEX
  8
0
  6
CONTINUOUS
 10
4.562360
 20
3.412200
  0
VERTEX
  8
0
  6
CONTINUOUS
 10
4.562360
 20
3.535400
  0
VERTEX
  8
0
  6
CONTINUOUS
 10
4.563240
 20
2.781240
  0
VERTEX
  8
0
  6
CONTINUOUS
 10
4.563240
 20
2.658040
  0
SEQEND
  8
0
  0
SOLID
  8
0
 62
    15
 10
5.063960
 20
2.658480
 11
5.063080
 21
3.412640
 12
5.140960
 22
2.654520
 13
5.140080
 23
3.408680
  0
POLYLINE
  8
0
  6
CONTINUOUS
 66
     1
 40
0.000000
 41
0.000000
  0
VERTEX
  8
0
  6
CONTINUOUS
 10
5.063960
 20
2.658480
  0
VERTEX
  8
0
  6
CONTINUOUS
 10
5.063080
 20
3.412640
  0
VERTEX
  8
0
  6
CONTINUOUS
 10
5.140080
 20
3.408680
  0
VERTEX
  8
0
  6
CONTINUOUS
 10
5.140960
 20
2.654520
  0
VERTEX
  8
0
  6
CONTINUOUS
 10
5.063960
 20
2.658480
  0
SEQEND
  8
0
  0
SOLID
  8
0
 62
    15
 10
4.563240
 20
2.781240
 11
4.562360
 21
3.535400
 12
5.064400
 22
2.781240
 13
5.063520
 23
3.535400
  0
POLYLINE
  8
0
  6
CONTINUOUS
 66
     1
 40
0.000000
 41
0.000000
  0
VERTEX
  8
0
  6
CONTINUOUS
 10
4.563240
 20
2.781240
  0
VERTEX
  8
0
  6
CONTINUOUS
 10
4.562360
 20
3.535400
  0
VERTEX
  8
0
  6
CONTINUOUS
 10
5.063520
 20
3.535400
  0
VERTEX
  8
0
  6
CONTINUOUS
 10
5.064400
 20
2.781240
  0
VERTEX
  8
0
  6
CONTINUOUS
 10
4.563240
 20
2.781240
  0
SEQEND
  8
0
  0
SOLID
  8
0
 62
    15
 10
5.140960
 20
2.654520
 11
5.140080
 21
3.408680
 12
5.215320
 22
2.643080
 13
5.214880
 23
3.397240
  0
POLYLINE
  8
0
  6
CONTINUOUS
 66
     1
 40
0.000000
 41
0.000000
  0
VERTEX
  8
0
  6
CONTINUOUS
 10
5.140960
 20
2.654520
  0
VERTEX
  8
0
  6
CONTINUOUS
 10
5.140080
 20
3.408680
  0
VERTEX
  8
0
  6
CONTINUOUS
 10
5.214880
 20
3.397240
  0
VERTEX
  8
0
  6
CONTINUOUS
 10
5.215320
 20
2.643080
  0
VERTEX
  8
0
  6
CONTINUOUS
 10
5.140960
 20
2.654520
  0
SEQEND
  8
0
  0
SOLID
  8
0
 62
    15
 10
5.215320
 20
2.643080
 11
5.214880
 21
3.397240
 12
5.287480
 22
2.624600
 13
5.286600
 23
3.378760
  0
POLYLINE
  8
0
  6
CONTINUOUS
 66
     1
 40
0.000000
 41
0.000000
  0
VERTEX
  8
0
  6
CONTINUOUS
 10
5.215320
 20
2.643080
  0
VERTEX
  8
0
  6
CONTINUOUS
 10
5.214880
 20
3.397240
  0
VERTEX
  8
0
  6
CONTINUOUS
 10
5.286600
 20
3.378760
  0
VERTEX
  8
0
  6
CONTINUOUS
 10
5.287480
 20
2.624600
  0
VERTEX
  8
0
  6
CONTINUOUS
 10
5.215320
 20
2.643080
  0
SEQEND
  8
0
  0
SOLID
  8
0
 62
    15
 10
5.287480
 20
2.624600
 11
5.286600
 21
3.378760
 12
5.356560
 22
2.599080
 13
5.355680
 23
3.353680
  0
POLYLINE
  8
0
  6
CONTINUOUS
 66
     1
 40
0.000000
 41
0.000000
  0
VERTEX
  8
0
  6
CONTINUOUS
 10
5.287480
 20
2.624600
  0
VERTEX
  8
0
  6
CONTINUOUS
 10
5.286600
 20
3.378760
  0
VERTEX
  8
0
  6
CONTINUOUS
 10
5.355680
 20
3.353680
  0
VERTEX
  8
0
  6
CONTINUOUS
 10
5.356560
 20
2.599080
  0
VERTEX
  8
0
  6
CONTINUOUS
 10
5.287480
 20
2.624600
  0
SEQEND
  8
0
  0
SOLID
  8
0
 62
    15
 10
5.356560
 20
2.599080
 11
5.355680
 21
3.353680
 12
5.422560
 22
2.567400
 13
5.421680
 23
3.322000
  0
POLYLINE
  8
0
  6
CONTINUOUS
 66
     1
 40
0.000000
 41
0.000000
  0
VERTEX
  8
0
  6
CONTINUOUS
 10
5.356560
 20
2.599080
  0
VERTEX
  8
0
  6
CONTINUOUS
 10
5.355680
 20
3.353680
  0
VERTEX
  8
0
  6
CONTINUOUS
 10
5.421680
 20
3.322000
  0
VERTEX
  8
0
  6
CONTINUOUS
 10
5.422560
 20
2.567400
  0
VERTEX
  8
0
  6
CONTINUOUS
 10
5.356560
 20
2.599080
  0
SEQEND
  8
0
  0
SOLID
  8
0
 62
    15
 10
5.422560
 20
2.567400
 11
5.421680
 21
3.322000
 12
5.484160
 22
2.530000
 13
5.483720
 23
3.284160
  0
POLYLINE
  8
0
  6
CONTINUOUS
 66
     1
 40
0.000000
 41
0.000000
  0
VERTEX
  8
0
  6
CONTINUOUS
 10
5.422560
 20
2.567400
  0
VERTEX
  8
0
  6
CONTINUOUS
 10
5.421680
 20
3.322000
  0
VERTEX
  8
0
  6
CONTINUOUS
 10
5.483720
 20
3.284160
  0
VERTEX
  8
0
  6
CONTINUOUS
 10
5.484160
 20
2.530000
  0
VERTEX
  8
0
  6
CONTINUOUS
 10
5.422560
 20
2.567400
  0
SEQEND
  8
0
  0
SOLID
  8
0
 62
    15
 10
2.304720
 20
1.921480
 11
2.303840
 21
2.675640
 12
2.304720
 22
1.919720
 13
2.303840
 23
2.674320
  0
POLYLINE
  8
0
  6
CONTINUOUS
 66
     1
 40
0.000000
 41
0.000000
  0
VERTEX
  8
0
  6
CONTINUOUS
 10
2.304720
 20
1.921480
  0
VERTEX
  8
0
  6
CONTINUOUS
 10
2.303840
 20
2.675640
  0
VERTEX
  8
0
  6
CONTINUOUS
 10
2.303840
 20
2.674320
  0
VERTEX
  8
0
  6
CONTINUOUS
 10
2.304720
 20
1.919720
  0
VERTEX
  8
0
  6
CONTINUOUS
 10
2.304720
 20
1.921480
  0
SEQEND
  8
0
  0
SOLID
  8
0
 62
    15
 10
5.542240
 20
2.486440
 11
5.541360
 21
3.241040
 12
5.595480
 22
2.438040
 13
5.595040
 23
3.192200
  0
POLYLINE
  8
0
  6
CONTINUOUS
 66
     1
 40
0.000000
 41
0.000000
  0
VERTEX
  8
0
  6
CONTINUOUS
 10
5.542240
 20
2.486440
  0
VERTEX
  8
0
  6
CONTINUOUS
 10
5.541360
 20
3.241040
  0
VERTEX
  8
0
  6
CONTINUOUS
 10
5.595040
 20
3.192200
  0
VERTEX
  8
0
  6
CONTINUOUS
 10
5.595480
 20
2.438040
  0
VERTEX
  8
0
  6
CONTINUOUS
 10
5.542240
 20
2.486440
  0
SEQEND
  8
0
  0
SOLID
  8
0
 62
    15
 10
5.595480
 20
2.438040
 11
5.595040
 21
3.192200
 12
5.644320
 22
2.384800
 13
5.643440
 23
3.138960
  0
POLYLINE
  8
0
  6
CONTINUOUS
 66
     1
 40
0.000000
 41
0.000000
  0
VERTEX
  8
0
  6
CONTINUOUS
 10
5.595480
 20
2.438040
  0
VERTEX
  8
0
  6
CONTINUOUS
 10
5.595040
 20
3.192200
  0
VERTEX
  8
0
  6
CONTINUOUS
 10
5.643440
 20
3.138960
  0
VERTEX
  8
0
  6
CONTINUOUS
 10
5.644320
 20
2.384800
  0
VERTEX
  8
0
  6
CONTINUOUS
 10
5.595480
 20
2.438040
  0
SEQEND
  8
0
  0
SOLID
  8
0
 62
    15
 10
5.644320
 20
2.384800
 11
5.643440
 21
3.138960
 12
5.687440
 22
2.326720
 13
5.686560
 23
3.080880
  0
POLYLINE
  8
0
  6
CONTINUOUS
 66
     1
 40
0.000000
 41
0.000000
  0
VERTEX
  8
0
  6
CONTINUOUS
 10
5.644320
 20
2.384800
  0
VERTEX
  8
0
  6
CONTINUOUS
 10
5.643440
 20
3.138960
  0
VERTEX
  8
0
  6
CONTINUOUS
 10
5.686560
 20
3.080880
  0
VERTEX
  8
0
  6
CONTINUOUS
 10
5.687440
 20
2.326720
  0
VERTEX
  8
0
  6
CONTINUOUS
 10
5.644320
 20
2.384800
  0
SEQEND
  8
0
  0
SOLID
  8
0
 62
    15
 10
5.687440
 20
2.326720
 11
5.686560
 21
3.080880
 12
5.725280
 22
2.264680
 13
5.724400
 23
3.019280
  0
POLYLINE
  8
0
  6
CONTINUOUS
 66
     1
 40
0.000000
 41
0.000000
  0
VERTEX
  8
0
  6
CONTINUOUS
 10
5.687440
 20
2.326720
  0
VERTEX
  8
0
  6
CONTINUOUS
 10
5.686560
 20
3.080880
  0
VERTEX
  8
0
  6
CONTINUOUS
 10
5.724400
 20
3.019280
  0
VERTEX
  8
0
  6
CONTINUOUS
 10
5.725280
 20
2.264680
  0
VERTEX
  8
0
  6
CONTINUOUS
 10
5.687440
 20
2.326720
  0
SEQEND
  8
0
  0
SOLID
  8
0
 62
    15
 10
5.725280
 20
2.264680
 11
5.724400
 21
3.019280
 12
5.756960
 22
2.199120
 13
5.756080
 23
2.953280
  0
POLYLINE
  8
0
  6
CONTINUOUS
 66
     1
 40
0.000000
 41
0.000000
  0
VERTEX
  8
0
  6
CONTINUOUS
 10
5.725280
 20
2.264680
  0
VERTEX
  8
0
  6
CONTINUOUS
 10
5.724400
 20
3.019280
  0
VERTEX
  8
0
  6
CONTINUOUS
 10
5.756080
 20
2.953280
  0
VERTEX
  8
0
  6
CONTINUOUS
 10
5.756960
 20
2.199120
  0
VERTEX
  8
0
  6
CONTINUOUS
 10
5.725280
 20
2.264680
  0
SEQEND
  8
0
  0
SOLID
  8
0
 62
    15
 10
5.756960
 20
2.199120
 11
5.756080
 21
2.953280
 12
5.782040
 22
2.130040
 13
5.781160
 23
2.884200
  0
POLYLINE
  8
0
  6
CONTINUOUS
 66
     1
 40
0.000000
 41
0.000000
  0
VERTEX
  8
0
  6
CONTINUOUS
 10
5.756960
 20
2.199120
  0
VERTEX
  8
0
  6
CONTINUOUS
 10
5.756080
 20
2.953280
  0
VERTEX
  8
0
  6
CONTINUOUS
 10
5.781160
 20
2.884200
  0
VERTEX
  8
0
  6
CONTINUOUS
 10
5.782040
 20
2.130040
  0
VERTEX
  8
0
  6
CONTINUOUS
 10
5.756960
 20
2.199120
  0
SEQEND
  8
0
  0
SOLID
  8
0
 62
    15
 10
5.800520
 20
2.057880
 11
5.799640
 21
2.812040
 12
5.811960
 22
1.983080
 13
5.811080
 23
2.737680
  0
POLYLINE
  8
0
  6
CONTINUOUS
 66
     1
 40
0.000000
 41
0.000000
  0
VERTEX
  8
0
  6
CONTINUOUS
 10
5.800520
 20
2.057880
  0
VERTEX
  8
0
  6
CONTINUOUS
 10
5.799640
 20
2.812040
  0
VERTEX
  8
0
  6
CONTINUOUS
 10
5.811080
 20
2.737680
  0
VERTEX
  8
0
  6
CONTINUOUS
 10
5.811960
 20
1.983080
  0
VERTEX
  8
0
  6
CONTINUOUS
 10
5.800520
 20
2.057880
  0
SEQEND
  8
0
  0
SOLID
  8
0
 62
    15
 10
5.782040
 20
2.130040
 11
5.781160
 21
2.884200
 12
5.800520
 22
2.057880
 13
5.799640
 23
2.812040
  0
POLYLINE
  8
0
  6
CONTINUOUS
 66
     1
 40
0.000000
 41
0.000000
  0
VERTEX
  8
0
  6
CONTINUOUS
 10
5.782040
 20
2.130040
  0
VERTEX
  8
0
  6
CONTINUOUS
 10
5.781160
 20
2.884200
  0
VERTEX
  8
0
  6
CONTINUOUS
 10
5.799640
 20
2.812040
  0
VERTEX
  8
0
  6
CONTINUOUS
 10
5.800520
 20
2.057880
  0
VERTEX
  8
0
  6
CONTINUOUS
 10
5.782040
 20
2.130040
  0
SEQEND
  8
0
  0
SOLID
  8
0
 62
    15
 10
5.811960
 20
1.983080
 11
5.811080
 21
2.737680
 12
5.815920
 22
1.906520
 13
5.815040
 23
2.660680
  0
POLYLINE
  8
0
  6
CONTINUOUS
 66
     1
 40
0.000000
 41
0.000000
  0
VERTEX
  8
0
  6
CONTINUOUS
 10
5.811960
 20
1.983080
  0
VERTEX
  8
0
  6
CONTINUOUS
 10
5.811080
 20
2.737680
  0
VERTEX
  8
0
  6
CONTINUOUS
 10
5.815040
 20
2.660680
  0
VERTEX
  8
0
  6
CONTINUOUS
 10
5.815920
 20
1.906520
  0
VERTEX
  8
0
  6
CONTINUOUS
 10
5.811960
 20
1.983080
  0
SEQEND
  8
0
  0
SOLID
  8
0
 62
    15
 10
2.304720
 20
1.919720
 11
2.303840
 21
2.674320
 12
2.304720
 22
3.036000
 13
2.303840
 23
3.790160
  0
POLYLINE
  8
0
  6
CONTINUOUS
 66
     1
 40
0.000000
 41
0.000000
  0
VERTEX
  8
0
  6
CONTINUOUS
 10
2.304720
 20
1.919720
  0
VERTEX
  8
0
  6
CONTINUOUS
 10
2.303840
 20
2.674320
  0
VERTEX
  8
0
  6
CONTINUOUS
 10
2.303840
 20
3.790160
  0
VERTEX
  8
0
  6
CONTINUOUS
 10
2.304720
 20
3.036000
  0
VERTEX
  8
0
  6
CONTINUOUS
 10
2.304720
 20
1.919720
  0
SEQEND
  8
0
  0
SOLID
  8
0
 62
    15
 10
2.304720
 20
3.036000
 11
2.303840
 21
3.790160
 12
3.306600
 22
3.036000
 13
3.305720
 23
3.790160
  0
POLYLINE
  8
0
  6
CONTINUOUS
 66
     1
 40
0.000000
 41
0.000000
  0
VERTEX
  8
0
  6
CONTINUOUS
 10
2.304720
 20
3.036000
  0
VERTEX
  8
0
  6
CONTINUOUS
 10
2.303840
 20
3.790160
  0
VERTEX
  8
0
  6
CONTINUOUS
 10
3.305720
 20
3.790160
  0
VERTEX
  8
0
  6
CONTINUOUS
 10
3.306600
 20
3.036000
  0
VERTEX
  8
0
  6
CONTINUOUS
 10
2.304720
 20
3.036000
  0
SEQEND
  8
0
  0
POLYLINE
  8
0
  6
CONTINUOUS
 66
     1
 40
0.000000
 41
0.000000
  0
VERTEX
  8
0
  6
CONTINUOUS
 10
2.304720
 20
1.919720
  0
VERTEX
  8
0
  6
CONTINUOUS
 10
2.304720
 20
3.036000
  0
VERTEX
  8
0
  6
CONTINUOUS
 10
3.306600
 20
3.036000
  0
VERTEX
  8
0
  6
CONTINUOUS
 10
3.306600
 20
2.781240
  0
VERTEX
  8
0
  6
CONTINUOUS
 10
4.440040
 20
2.781240
  0
VERTEX
  8
0
  6
CONTINUOUS
 10
4.440040
 20
2.658040
  0
VERTEX
  8
0
  6
CONTINUOUS
 10
4.563240
 20
2.658040
  0
VERTEX
  8
0
  6
CONTINUOUS
 10
4.563240
 20
2.781240
  0
VERTEX
  8
0
  6
CONTINUOUS
 10
5.064400
 20
2.781240
  0
VERTEX
  8
0
  6
CONTINUOUS
 10
5.064400
 20
2.658040
  0
VERTEX
  8
0
  6
CONTINUOUS
 10
5.063960
 20
2.658480
  0
VERTEX
  8
0
  6
CONTINUOUS
 10
5.140960
 20
2.654520
  0
VERTEX
  8
0
  6
CONTINUOUS
 10
5.215320
 20
2.643080
  0
VERTEX
  8
0
  6
CONTINUOUS
 10
5.287480
 20
2.624600
  0
VERTEX
  8
0
  6
CONTINUOUS
 10
5.356560
 20
2.599080
  0
VERTEX
  8
0
  6
CONTINUOUS
 10
5.422560
 20
2.567400
  0
VERTEX
  8
0
  6
CONTINUOUS
 10
5.484160
 20
2.530000
  0
VERTEX
  8
0
  6
CONTINUOUS
 10
5.542240
 20
2.486440
  0
VERTEX
  8
0
  6
CONTINUOUS
 10
5.595480
 20
2.438040
  0
VERTEX
  8
0
  6
CONTINUOUS
 10
5.644320
 20
2.384800
  0
VERTEX
  8
0
  6
CONTINUOUS
 10
5.687440
 20
2.326720
  0
VERTEX
  8
0
  6
CONTINUOUS
 10
5.725280
 20
2.264680
  0
VERTEX
  8
0
  6
CONTINUOUS
 10
5.756960
 20
2.199120
  0
VERTEX
  8
0
  6
CONTINUOUS
 10
5.782040
 20
2.130040
  0
VERTEX
  8
0
  6
CONTINUOUS
 10
5.800520
 20
2.057880
  0
VERTEX
  8
0
  6
CONTINUOUS
 10
5.811960
 20
1.983080
  0
VERTEX
  8
0
  6
CONTINUOUS
 10
5.815920
 20
1.906520
  0
VERTEX
  8
0
  6
CONTINUOUS
 10
2.304720
 20
1.906520
  0
VERTEX
  8
0
  6
CONTINUOUS
 10
2.304720
 20
1.921480
  0
VERTEX
  8
0
  6
CONTINUOUS
 10
2.304720
 20
1.919720
  0
SEQEND
  8
0
  0
TEXT
  8
0
 10
3.718440
 20
1.648240
 40
0.138097
  1
BA  1151
 41
1.000000
  7
SN0
 71
     0
 72
     5
 11
4.400578
 21
1.648240
  0
TEXT
  8
0
 10
3.534960
 20
1.456840
 40
0.138097
  1
1-1/8" x 3-1/2"
 41
1.000000
  7
SN0
 71
     0
 72
     5
 11
4.581994
 21
1.456840
  0
POLYLINE
  8
0
  6
CONTINUOUS
 66
     1
 40
0.014080
 41
0.014080
  0
VERTEX
  8
0
  6
CONTINUOUS
 10
2.306480
 20
4.234560
  0
VERTEX
  8
0
  6
CONTINUOUS
 10
2.306480
 20
5.350840
  0
VERTEX
  8
0
  6
CONTINUOUS
 10
3.308360
 20
5.350840
  0
VERTEX
  8
0
  6
CONTINUOUS
 10
3.308360
 20
5.096080
  0
VERTEX
  8
0
  6
CONTINUOUS
 10
4.441800
 20
5.096080
  0
VERTEX
  8
0
  6
CONTINUOUS
 10
4.441800
 20
4.972880
  0
VERTEX
  8
0
  6
CONTINUOUS
 10
4.565000
 20
4.972880
  0
VERTEX
  8
0
  6
CONTINUOUS
 10
4.565000
 20
5.096080
  0
VERTEX
  8
0
  6
CONTINUOUS
 10
5.066160
 20
5.096080
  0
VERTEX
  8
0
  6
CONTINUOUS
 10
5.066160
 20
4.972880
  0
VERTEX
  8
0
  6
CONTINUOUS
 10
5.065720
 20
4.973320
  0
VERTEX
  8
0
  6
CONTINUOUS
 10
5.104440
 20
4.972440
  0
VERTEX
  8
0
  6
CONTINUOUS
 10
5.142720
 20
4.969360
  0
VERTEX
  8
0
  6
CONTINUOUS
 10
5.180120
 20
4.964520
  0
VERTEX
  8
0
  6
CONTINUOUS
 10
5.217080
 20
4.957920
  0
VERTEX
  8
0
  6
CONTINUOUS
 10
5.253600
 20
4.949560
  0
VERTEX
  8
0
  6
CONTINUOUS
 10
5.289240
 20
4.939440
  0
VERTEX
  8
0
  6
CONTINUOUS
 10
5.324440
 20
4.927560
  0
VERTEX
  8
0
  6
CONTINUOUS
 10
5.358320
 20
4.914360
  0
VERTEX
  8
0
  6
CONTINUOUS
 10
5.391760
 20
4.898960
  0
VERTEX
  8
0
  6
CONTINUOUS
 10
5.424320
 20
4.882680
  0
VERTEX
  8
0
  6
CONTINUOUS
 10
5.455560
 20
4.864200
  0
VERTEX
  8
0
  6
CONTINUOUS
 10
5.486360
 20
4.844840
  0
VERTEX
  8
0
  6
CONTINUOUS
 10
5.515840
 20
4.823720
  0
VERTEX
  8
0
  6
CONTINUOUS
 10
5.544000
 20
4.801280
  0
VERTEX
  8
0
  6
CONTINUOUS
 10
5.571280
 20
4.777960
  0
VERTEX
  8
0
  6
CONTINUOUS
 10
5.597680
 20
4.752880
  0
VERTEX
  8
0
  6
CONTINUOUS
 10
5.622320
 20
4.726920
  0
VERTEX
  8
0
  6
CONTINUOUS
 10
5.646080
 20
4.699640
  0
VERTEX
  8
0
  6
CONTINUOUS
 10
5.668520
 20
4.671040
  0
VERTEX
  8
0
  6
CONTINUOUS
 10
5.689200
 20
4.641560
  0
VERTEX
  8
0
  6
CONTINUOUS
 10
5.709000
 20
4.611200
  0
VERTEX
  8
0
  6
CONTINUOUS
 10
5.727040
 20
4.579520
  0
VERTEX
  8
0
  6
CONTINUOUS
 10
5.743320
 20
4.547400
  0
VERTEX
  8
0
  6
CONTINUOUS
 10
5.758720
 20
4.513960
  0
VERTEX
  8
0
  6
CONTINUOUS
 10
5.771920
 20
4.479640
  0
VERTEX
  8
0
  6
CONTINUOUS
 10
5.783800
 20
4.444880
  0
VERTEX
  8
0
  6
CONTINUOUS
 10
5.793920
 20
4.409240
  0
VERTEX
  8
0
  6
CONTINUOUS
 10
5.802280
 20
4.372720
  0
VERTEX
  8
0
  6
CONTINUOUS
 10
5.808880
 20
4.335760
  0
VERTEX
  8
0
  6
CONTINUOUS
 10
5.813720
 20
4.298360
  0
VERTEX
  8
0
  6
CONTINUOUS
 10
5.816800
 20
4.260080
  0
VERTEX
  8
0
  6
CONTINUOUS
 10
5.817680
 20
4.221360
  0
VERTEX
  8
0
  6
CONTINUOUS
 10
2.398880
 20
4.221360
  0
VERTEX
  8
0
  6
CONTINUOUS
 10
2.306040
 20
4.221360
  0
VERTEX
  8
0
  6
CONTINUOUS
 10
2.306040
 20
4.236320
  0
VERTEX
  8
0
  6
CONTINUOUS
 10
2.306480
 20
4.234560
  0
SEQEND
  8
0
  0
TEXT
  8
0
 10
2.742960
 20
4.516160
 40
0.138097
  1
BA  1151
 41
1.000000
  7
SN0
 71
     0
 72
     5
 11
3.425098
 21
4.516160
  0
TEXT
  8
0
 10
2.559480
 20
4.324320
 40
0.138097
  1
1-1/8" x 3-1/2"
 41
1.000000
  7
SN0
 71
     0
 72
     5
 11
3.606514
 21
4.324320
  0
ENDSEC
  0
EOF
