  0
SECTION
  2
HEADER
  9
$ACADVER
  1
AC1006
  9
$EXTMIN
 10
2.182400
 20
1.826880
  9
$EXTMAX
 10
6.755320
 20
5.038880
  9
$LTSCALE
 40
0.044000
  9
$PDMODE
 70
    35
  9
$PDSIZE
 40
0.035200
  0
ENDSEC
  0
SECTION
  2
TABLES
  0
TABLE
  2
LTYPE
 70
     9
  0
LTYPE
  2
CONTINUOUS
 70
    64
  3
Solid line
 72
    65
 73
     0
 40
0.000000
  0
LTYPE
  2
DASHED
 70
    64
  3
__ __ __ __ __ __ __ __ __ __ __ __ __ __ __
 72
    65
 73
     2
 40
0.000330
 49
0.000220
 49
-0.000110
  0
LTYPE
  2
HIDDEN
 70
    64
  3
 _ _ _ _ _ _ _ _ _ _ _ _ _ _ _ _ _ _ _ _ _ _
 72
    65
 73
     2
 40
0.000165
 49
0.000110
 49
-0.000055
  0
LTYPE
  2
CENTER
 70
    64
  3
____ _ ____ _ ____ _ ____ _ ____ _ ____ _ ____
 72
    65
 73
     4
 40
0.000880
 49
0.000550
 49
-0.000110
 49
0.000110
 49
-0.000110
  0
LTYPE
  2
PHANTOM
 70
    64
  3
_____ _ _ _____ _ _ _____ _ _ _____ _ _ ____
 72
    65
 73
     6
 40
0.001100
 49
0.000550
 49
-0.000110
 49
0.000110
 49
-0.000110
 49
0.000110
 49
-0.000110
  0
LTYPE
  2
DOT
 70
    64
  3
...............................................
 72
    65
 73
     2
 40
0.000110
 49
0.000000
 49
-0.000110
  0
LTYPE
  2
DASHDOT
 70
    64
  3
__ . __ . __ . __ . __ . __ . __ . __ . __ . __
 72
    65
 73
     4
 40
0.000440
 49
0.000220
 49
-0.000110
 49
0.000000
 49
-0.000110
  0
LTYPE
  2
BORDER
 70
    64
  3
__ __ . __ __ . __ __ . __ __ . __ __ . __ __
 72
    65
 73
     6
 40
0.000770
 49
0.000220
 49
-0.000110
 49
0.000220
 49
-0.000110
 49
0.000000
 49
-0.000110
  0
LTYPE
  2
DIVIDE
 70
    64
  3
__ . . __ . . __ . . __ . . __ . . __ . . __
 72
    65
 73
     6
 40
0.000550
 49
0.000220
 49
-0.000110
 49
0.000000
 49
-0.000110
 49
0.000000
 49
-0.000110
  0
LTYPE
  2
DOTDOT
 70
    64
  3
 . .  . .  . .  . .  . .  . . 
 72
    65
 73
     5
 40
0.000242
 49
-0.000110
 49
0.000000
 49
-0.000110
 49
0.000000
 49
-0.000110
  0
ENDTAB
  0
TABLE
  2
STYLE
 70
     2
  0
STYLE
 70
     0
  2
SN0
 40
0.000000
 41
0.000440
 50
0.000000
 71
     0
 42
0.000000
  3
ROMAND
  0
STYLE
 70
    68
  2
SV0
 40
0.000000
 41
0.000440
 50
0.000000
 71
     0
 42
0.000000
  3
ROMAND
  0
ENDTAB
  0
TABLE
  2
LAYER
 70
     3
  0
LAYER
  2
FOREGROUND
 70
    64
 62
     7
  6
CONTINUOUS
  0
LAYER
  2
BACKGROUND
 70
    65
 62
    -7
  6
CONTINUOUS
  0
LAYER
  2
0
 70
    64
 62
     7
  6
CONTINUOUS
  0
ENDTAB
  0
ENDSEC
  0
SECTION
  2
ENTITIES
  0
POLYLINE
  8
FOREGROUND
  6
CONTINUOUS
 66
     1
 40
0.000000
 41
0.000000
  0
VERTEX
  8
FOREGROUND
  6
CONTINUOUS
 10
0.000000
 20
6.865760
  0
VERTEX
  8
FOREGROUND
  6
CONTINUOUS
 10
8.499920
 20
6.865760
  0
VERTEX
  8
FOREGROUND
  6
CONTINUOUS
 10
8.499920
 20
-4.134240
  0
VERTEX
  8
FOREGROUND
  6
CONTINUOUS
 10
0.000000
 20
-4.134240
  0
VERTEX
  8
FOREGROUND
  6
CONTINUOUS
 10
0.000000
 20
6.865760
  0
SEQEND
  8
0
  0
POLYLINE
  8
FOREGROUND
  6
CONTINUOUS
 66
     1
 40
0.000000
 41
0.000000
  0
VERTEX
  8
FOREGROUND
  6
CONTINUOUS
 10
0.000000
 20
6.865760
  0
VERTEX
  8
FOREGROUND
  6
CONTINUOUS
 10
8.499920
 20
6.865760
  0
VERTEX
  8
FOREGROUND
  6
CONTINUOUS
 10
8.499920
 20
-4.134240
  0
VERTEX
  8
FOREGROUND
  6
CONTINUOUS
 10
0.000000
 20
-4.134240
  0
VERTEX
  8
FOREGROUND
  6
CONTINUOUS
 10
0.000000
 20
6.865760
  0
SEQEND
  8
0
  0
POLYLINE
  8
0
  6
CONTINUOUS
 66
     1
 40
0.014080
 41
0.014080
  0
VERTEX
  8
0
  6
CONTINUOUS
 10
2.190320
 20
4.283400
  0
VERTEX
  8
0
  6
CONTINUOUS
 10
2.190320
 20
5.030960
  0
VERTEX
  8
0
  6
CONTINUOUS
 10
2.863080
 20
5.030960
  0
VERTEX
  8
0
  6
CONTINUOUS
 10
2.863080
 20
4.896760
  0
VERTEX
  8
0
  6
CONTINUOUS
 10
2.873200
 20
4.896760
  0
VERTEX
  8
0
  6
CONTINUOUS
 10
2.909280
 20
4.916120
  0
VERTEX
  8
0
  6
CONTINUOUS
 10
2.949760
 20
4.928440
  0
VERTEX
  8
0
  6
CONTINUOUS
 10
2.978360
 20
4.932840
  0
VERTEX
  8
0
  6
CONTINUOUS
 10
3.007840
 20
4.934160
  0
VERTEX
  8
0
  6
CONTINUOUS
 10
3.037760
 20
4.932400
  0
VERTEX
  8
0
  6
CONTINUOUS
 10
3.067680
 20
4.927120
  0
VERTEX
  8
0
  6
CONTINUOUS
 10
3.097160
 20
4.918760
  0
VERTEX
  8
0
  6
CONTINUOUS
 10
3.139840
 20
4.899400
  0
VERTEX
  8
0
  6
CONTINUOUS
 10
3.166680
 20
4.881800
  0
VERTEX
  8
0
  6
CONTINUOUS
 10
3.191320
 20
4.860680
  0
VERTEX
  8
0
  6
CONTINUOUS
 10
3.214200
 20
4.836040
  0
VERTEX
  8
0
  6
CONTINUOUS
 10
3.234000
 20
4.807000
  0
VERTEX
  8
0
  6
CONTINUOUS
 10
3.250720
 20
4.774440
  0
VERTEX
  8
0
  6
CONTINUOUS
 10
3.263920
 20
4.737920
  0
VERTEX
  8
0
  6
CONTINUOUS
 10
3.269200
 20
4.718120
  0
VERTEX
  8
0
  6
CONTINUOUS
 10
3.283720
 20
4.718120
  0
VERTEX
  8
0
  6
CONTINUOUS
 10
3.293400
 20
4.742760
  0
VERTEX
  8
0
  6
CONTINUOUS
 10
3.307480
 20
4.761680
  0
VERTEX
  8
0
  6
CONTINUOUS
 10
3.324640
 20
4.775320
  0
VERTEX
  8
0
  6
CONTINUOUS
 10
3.343560
 20
4.783240
  0
VERTEX
  8
0
  6
CONTINUOUS
 10
3.357200
 20
4.785440
  0
VERTEX
  8
0
  6
CONTINUOUS
 10
3.371280
 20
4.785440
  0
VERTEX
  8
0
  6
CONTINUOUS
 10
3.384920
 20
4.783240
  0
VERTEX
  8
0
  6
CONTINUOUS
 10
3.405160
 20
4.774880
  0
VERTEX
  8
0
  6
CONTINUOUS
 10
3.423200
 20
4.761680
  0
VERTEX
  8
0
  6
CONTINUOUS
 10
3.439040
 20
4.743200
  0
VERTEX
  8
0
  6
CONTINUOUS
 10
3.450920
 20
4.719880
  0
VERTEX
  8
0
  6
CONTINUOUS
 10
3.456640
 20
4.701400
  0
VERTEX
  8
0
  6
CONTINUOUS
 10
3.516480
 20
4.701400
  0
VERTEX
  8
0
  6
CONTINUOUS
 10
3.519560
 20
4.679840
  0
VERTEX
  8
0
  6
CONTINUOUS
 10
3.524840
 20
4.660040
  0
VERTEX
  8
0
  6
CONTINUOUS
 10
3.531880
 20
4.641120
  0
VERTEX
  8
0
  6
CONTINUOUS
 10
3.540240
 20
4.623960
  0
VERTEX
  8
0
  6
CONTINUOUS
 10
3.561800
 20
4.592720
  0
VERTEX
  8
0
  6
CONTINUOUS
 10
3.587760
 20
4.567200
  0
VERTEX
  8
0
  6
CONTINUOUS
 10
3.618120
 20
4.546960
  0
VERTEX
  8
0
  6
CONTINUOUS
 10
3.651120
 20
4.532440
  0
VERTEX
  8
0
  6
CONTINUOUS
 10
3.668280
 20
4.526720
  0
VERTEX
  8
0
  6
CONTINUOUS
 10
3.703920
 20
4.520120
  0
VERTEX
  8
0
  6
CONTINUOUS
 10
3.739560
 20
4.518800
  0
VERTEX
  8
0
  6
CONTINUOUS
 10
3.757600
 20
4.520120
  0
VERTEX
  8
0
  6
CONTINUOUS
 10
3.791920
 20
4.527160
  0
VERTEX
  8
0
  6
CONTINUOUS
 10
3.824040
 20
4.539920
  0
VERTEX
  8
0
  6
CONTINUOUS
 10
3.853520
 20
4.557960
  0
VERTEX
  8
0
  6
CONTINUOUS
 10
3.866280
 20
4.568960
  0
VERTEX
  8
0
  6
CONTINUOUS
 10
3.888720
 20
4.595360
  0
VERTEX
  8
0
  6
CONTINUOUS
 10
3.897960
 20
4.610760
  0
VERTEX
  8
0
  6
CONTINUOUS
 10
3.905440
 20
4.627480
  0
VERTEX
  8
0
  6
CONTINUOUS
 10
3.911600
 20
4.645960
  0
VERTEX
  8
0
  6
CONTINUOUS
 10
3.915560
 20
4.665320
  0
VERTEX
  8
0
  6
CONTINUOUS
 10
3.917760
 20
4.686440
  0
VERTEX
  8
0
  6
CONTINUOUS
 10
3.985960
 20
4.686440
  0
VERTEX
  8
0
  6
CONTINUOUS
 10
3.985960
 20
4.705360
  0
VERTEX
  8
0
  6
CONTINUOUS
 10
3.987280
 20
4.722960
  0
VERTEX
  8
0
  6
CONTINUOUS
 10
3.994320
 20
4.752440
  0
VERTEX
  8
0
  6
CONTINUOUS
 10
3.999600
 20
4.764760
  0
VERTEX
  8
0
  6
CONTINUOUS
 10
4.012800
 20
4.783680
  0
VERTEX
  8
0
  6
CONTINUOUS
 10
4.029960
 20
4.795560
  0
VERTEX
  8
0
  6
CONTINUOUS
 10
4.039640
 20
4.798640
  0
VERTEX
  8
0
  6
CONTINUOUS
 10
4.049760
 20
4.799960
  0
VERTEX
  8
0
  6
CONTINUOUS
 10
4.072200
 20
4.796880
  0
VERTEX
  8
0
  6
CONTINUOUS
 10
4.095960
 20
4.785880
  0
VERTEX
  8
0
  6
CONTINUOUS
 10
4.108280
 20
4.777520
  0
VERTEX
  8
0
  6
CONTINUOUS
 10
4.156240
 20
4.737920
  0
VERTEX
  8
0
  6
CONTINUOUS
 10
4.168120
 20
4.777960
  0
VERTEX
  8
0
  6
CONTINUOUS
 10
4.185720
 20
4.813600
  0
VERTEX
  8
0
  6
CONTINUOUS
 10
4.208160
 20
4.844840
  0
VERTEX
  8
0
  6
CONTINUOUS
 10
4.234560
 20
4.872560
  0
VERTEX
  8
0
  6
CONTINUOUS
 10
4.254360
 20
4.888400
  0
VERTEX
  8
0
  6
CONTINUOUS
 10
4.297480
 20
4.915240
  0
VERTEX
  8
0
  6
CONTINUOUS
 10
4.344560
 20
4.935040
  0
VERTEX
  8
0
  6
CONTINUOUS
 10
4.369200
 20
4.942520
  0
VERTEX
  8
0
  6
CONTINUOUS
 10
4.394280
 20
4.948240
  0
VERTEX
  8
0
  6
CONTINUOUS
 10
4.419360
 20
4.952200
  0
VERTEX
  8
0
  6
CONTINUOUS
 10
4.470400
 20
4.955280
  0
VERTEX
  8
0
  6
CONTINUOUS
 10
4.519680
 20
4.952200
  0
VERTEX
  8
0
  6
CONTINUOUS
 10
4.544760
 20
4.948240
  0
VERTEX
  8
0
  6
CONTINUOUS
 10
4.569400
 20
4.942520
  0
VERTEX
  8
0
  6
CONTINUOUS
 10
4.617360
 20
4.926240
  0
VERTEX
  8
0
  6
CONTINUOUS
 10
4.640680
 20
4.915240
  0
VERTEX
  8
0
  6
CONTINUOUS
 10
4.662680
 20
4.902920
  0
VERTEX
  8
0
  6
CONTINUOUS
 10
4.683800
 20
4.888840
  0
VERTEX
  8
0
  6
CONTINUOUS
 10
4.703160
 20
4.872560
  0
VERTEX
  8
0
  6
CONTINUOUS
 10
4.730000
 20
4.845280
  0
VERTEX
  8
0
  6
CONTINUOUS
 10
4.752000
 20
4.813600
  0
VERTEX
  8
0
  6
CONTINUOUS
 10
4.769600
 20
4.777960
  0
VERTEX
  8
0
  6
CONTINUOUS
 10
4.778400
 20
4.751560
  0
VERTEX
  8
0
  6
CONTINUOUS
 10
4.781920
 20
4.737920
  0
VERTEX
  8
0
  6
CONTINUOUS
 10
4.830320
 20
4.777960
  0
VERTEX
  8
0
  6
CONTINUOUS
 10
4.854520
 20
4.792480
  0
VERTEX
  8
0
  6
CONTINUOUS
 10
4.866400
 20
4.797320
  0
VERTEX
  8
0
  6
CONTINUOUS
 10
4.888840
 20
4.800400
  0
VERTEX
  8
0
  6
CONTINUOUS
 10
4.898960
 20
4.799080
  0
VERTEX
  8
0
  6
CONTINUOUS
 10
4.908640
 20
4.796000
  0
VERTEX
  8
0
  6
CONTINUOUS
 10
4.925800
 20
4.784120
  0
VERTEX
  8
0
  6
CONTINUOUS
 10
4.939000
 20
4.765200
  0
VERTEX
  8
0
  6
CONTINUOUS
 10
4.944280
 20
4.752880
  0
VERTEX
  8
0
  6
CONTINUOUS
 10
4.951320
 20
4.723400
  0
VERTEX
  8
0
  6
CONTINUOUS
 10
4.952640
 20
4.705800
  0
VERTEX
  8
0
  6
CONTINUOUS
 10
4.952640
 20
4.686880
  0
VERTEX
  8
0
  6
CONTINUOUS
 10
5.020400
 20
4.686880
  0
VERTEX
  8
0
  6
CONTINUOUS
 10
5.022600
 20
4.665760
  0
VERTEX
  8
0
  6
CONTINUOUS
 10
5.026560
 20
4.646400
  0
VERTEX
  8
0
  6
CONTINUOUS
 10
5.032720
 20
4.627920
  0
VERTEX
  8
0
  6
CONTINUOUS
 10
5.040200
 20
4.611200
  0
VERTEX
  8
0
  6
CONTINUOUS
 10
5.049440
 20
4.595800
  0
VERTEX
  8
0
  6
CONTINUOUS
 10
5.071880
 20
4.569400
  0
VERTEX
  8
0
  6
CONTINUOUS
 10
5.099160
 20
4.548720
  0
VERTEX
  8
0
  6
CONTINUOUS
 10
5.129960
 20
4.533320
  0
VERTEX
  8
0
  6
CONTINUOUS
 10
5.146240
 20
4.527600
  0
VERTEX
  8
0
  6
CONTINUOUS
 10
5.181000
 20
4.520560
  0
VERTEX
  8
0
  6
CONTINUOUS
 10
5.216640
 20
4.519240
  0
VERTEX
  8
0
  6
CONTINUOUS
 10
5.252280
 20
4.523200
  0
VERTEX
  8
0
  6
CONTINUOUS
 10
5.287480
 20
4.532440
  0
VERTEX
  8
0
  6
CONTINUOUS
 10
5.320480
 20
4.547400
  0
VERTEX
  8
0
  6
CONTINUOUS
 10
5.350840
 20
4.567640
  0
VERTEX
  8
0
  6
CONTINUOUS
 10
5.364480
 20
4.579520
  0
VERTEX
  8
0
  6
CONTINUOUS
 10
5.388240
 20
4.608120
  0
VERTEX
  8
0
  6
CONTINUOUS
 10
5.398360
 20
4.623960
  0
VERTEX
  8
0
  6
CONTINUOUS
 10
5.413760
 20
4.660480
  0
VERTEX
  8
0
  6
CONTINUOUS
 10
5.419040
 20
4.680280
  0
VERTEX
  8
0
  6
CONTINUOUS
 10
5.422120
 20
4.701840
  0
VERTEX
  8
0
  6
CONTINUOUS
 10
5.481960
 20
4.701840
  0
VERTEX
  8
0
  6
CONTINUOUS
 10
5.491200
 20
4.728680
  0
VERTEX
  8
0
  6
CONTINUOUS
 10
5.504400
 20
4.750240
  0
VERTEX
  8
0
  6
CONTINUOUS
 10
5.521120
 20
4.766960
  0
VERTEX
  8
0
  6
CONTINUOUS
 10
5.540040
 20
4.778400
  0
VERTEX
  8
0
  6
CONTINUOUS
 10
5.553680
 20
4.783240
  0
VERTEX
  8
0
  6
CONTINUOUS
 10
5.567320
 20
4.785880
  0
VERTEX
  8
0
  6
CONTINUOUS
 10
5.580960
 20
4.785880
  0
VERTEX
  8
0
  6
CONTINUOUS
 10
5.601200
 20
4.781480
  0
VERTEX
  8
0
  6
CONTINUOUS
 10
5.619680
 20
4.771360
  0
VERTEX
  8
0
  6
CONTINUOUS
 10
5.635960
 20
4.755960
  0
VERTEX
  8
0
  6
CONTINUOUS
 10
5.648280
 20
4.735280
  0
VERTEX
  8
0
  6
CONTINUOUS
 10
5.654440
 20
4.718120
  0
VERTEX
  8
0
  6
CONTINUOUS
 10
5.669400
 20
4.718120
  0
VERTEX
  8
0
  6
CONTINUOUS
 10
5.680840
 20
4.756840
  0
VERTEX
  8
0
  6
CONTINUOUS
 10
5.695800
 20
4.791160
  0
VERTEX
  8
0
  6
CONTINUOUS
 10
5.714280
 20
4.821960
  0
VERTEX
  8
0
  6
CONTINUOUS
 10
5.735400
 20
4.848800
  0
VERTEX
  8
0
  6
CONTINUOUS
 10
5.759160
 20
4.871680
  0
VERTEX
  8
0
  6
CONTINUOUS
 10
5.785120
 20
4.891040
  0
VERTEX
  8
0
  6
CONTINUOUS
 10
5.812400
 20
4.906880
  0
VERTEX
  8
0
  6
CONTINUOUS
 10
5.855960
 20
4.923600
  0
VERTEX
  8
0
  6
CONTINUOUS
 10
5.885880
 20
4.930640
  0
VERTEX
  8
0
  6
CONTINUOUS
 10
5.915800
 20
4.934160
  0
VERTEX
  8
0
  6
CONTINUOUS
 10
5.945720
 20
4.934600
  0
VERTEX
  8
0
  6
CONTINUOUS
 10
5.974760
 20
4.931520
  0
VERTEX
  8
0
  6
CONTINUOUS
 10
6.016120
 20
4.921400
  0
VERTEX
  8
0
  6
CONTINUOUS
 10
6.041640
 20
4.910840
  0
VERTEX
  8
0
  6
CONTINUOUS
 10
6.065400
 20
4.897200
  0
VERTEX
  8
0
  6
CONTINUOUS
 10
6.075080
 20
4.897200
  0
VERTEX
  8
0
  6
CONTINUOUS
 10
6.075080
 20
5.031400
  0
VERTEX
  8
0
  6
CONTINUOUS
 10
6.748280
 20
5.031400
  0
VERTEX
  8
0
  6
CONTINUOUS
 10
6.748280
 20
4.283400
  0
VERTEX
  8
0
  6
CONTINUOUS
 10
2.190320
 20
4.283400
  0
SEQEND
  8
0
  0
TEXT
  8
0
 10
2.542320
 20
4.579080
 40
0.138126
  1
BA  1149
 41
1.000000
  7
SN0
 71
     0
 72
     5
 11
3.225743
 21
4.579080
  0
TEXT
  8
0
 10
2.386560
 20
4.387680
 40
0.138126
  1
3/4" x 4-9/16"
 41
1.000000
  7
SN0
 71
     0
 72
     5
 11
3.380484
 21
4.387680
  0
SOLID
  8
0
 62
    15
 10
4.469080
 20
2.992000
 11
4.471280
 21
3.729000
 12
4.469080
 22
2.992000
 13
4.471280
 23
3.729440
  0
POLYLINE
  8
0
  6
CONTINUOUS
 66
     1
 40
0.000000
 41
0.000000
  0
VERTEX
  8
0
  6
CONTINUOUS
 10
4.469080
 20
2.992000
  0
VERTEX
  8
0
  6
CONTINUOUS
 10
4.471280
 20
3.729000
  0
VERTEX
  8
0
  6
CONTINUOUS
 10
4.471280
 20
3.729440
  0
VERTEX
  8
0
  6
CONTINUOUS
 10
4.469080
 20
2.992000
  0
SEQEND
  8
0
  0
SOLID
  8
0
 62
    15
 10
2.862200
 20
3.067680
 11
2.864400
 21
3.805120
 12
2.862200
 22
2.933480
 13
2.864400
 23
3.670920
  0
POLYLINE
  8
0
  6
CONTINUOUS
 66
     1
 40
0.000000
 41
0.000000
  0
VERTEX
  8
0
  6
CONTINUOUS
 10
2.862200
 20
3.067680
  0
VERTEX
  8
0
  6
CONTINUOUS
 10
2.864400
 20
3.805120
  0
VERTEX
  8
0
  6
CONTINUOUS
 10
2.864400
 20
3.670920
  0
VERTEX
  8
0
  6
CONTINUOUS
 10
2.862200
 20
2.933480
  0
VERTEX
  8
0
  6
CONTINUOUS
 10
2.862200
 20
3.067680
  0
SEQEND
  8
0
  0
SOLID
  8
0
 62
    15
 10
2.862200
 20
2.933480
 11
2.864400
 21
3.670920
 12
2.871880
 22
2.933480
 13
2.874080
 23
3.670920
  0
POLYLINE
  8
0
  6
CONTINUOUS
 66
     1
 40
0.000000
 41
0.000000
  0
VERTEX
  8
0
  6
CONTINUOUS
 10
2.862200
 20
2.933480
  0
VERTEX
  8
0
  6
CONTINUOUS
 10
2.864400
 20
3.670920
  0
VERTEX
  8
0
  6
CONTINUOUS
 10
2.874080
 20
3.670920
  0
VERTEX
  8
0
  6
CONTINUOUS
 10
2.871880
 20
2.933480
  0
VERTEX
  8
0
  6
CONTINUOUS
 10
2.862200
 20
2.933480
  0
SEQEND
  8
0
  0
SOLID
  8
0
 62
    15
 10
2.871880
 20
2.933480
 11
2.874080
 21
3.670920
 12
2.895640
 22
2.947120
 13
2.897840
 23
3.684560
  0
POLYLINE
  8
0
  6
CONTINUOUS
 66
     1
 40
0.000000
 41
0.000000
  0
VERTEX
  8
0
  6
CONTINUOUS
 10
2.871880
 20
2.933480
  0
VERTEX
  8
0
  6
CONTINUOUS
 10
2.874080
 20
3.670920
  0
VERTEX
  8
0
  6
CONTINUOUS
 10
2.897840
 20
3.684560
  0
VERTEX
  8
0
  6
CONTINUOUS
 10
2.895640
 20
2.947120
  0
VERTEX
  8
0
  6
CONTINUOUS
 10
2.871880
 20
2.933480
  0
SEQEND
  8
0
  0
SOLID
  8
0
 62
    15
 10
2.895640
 20
2.947120
 11
2.897840
 21
3.684560
 12
2.921160
 22
2.957680
 13
2.923360
 23
3.695120
  0
POLYLINE
  8
0
  6
CONTINUOUS
 66
     1
 40
0.000000
 41
0.000000
  0
VERTEX
  8
0
  6
CONTINUOUS
 10
2.895640
 20
2.947120
  0
VERTEX
  8
0
  6
CONTINUOUS
 10
2.897840
 20
3.684560
  0
VERTEX
  8
0
  6
CONTINUOUS
 10
2.923360
 20
3.695120
  0
VERTEX
  8
0
  6
CONTINUOUS
 10
2.921160
 20
2.957680
  0
VERTEX
  8
0
  6
CONTINUOUS
 10
2.895640
 20
2.947120
  0
SEQEND
  8
0
  0
SOLID
  8
0
 62
    15
 10
2.921160
 20
2.957680
 11
2.923360
 21
3.695120
 12
2.977040
 22
2.969560
 13
2.979240
 23
3.707000
  0
POLYLINE
  8
0
  6
CONTINUOUS
 66
     1
 40
0.000000
 41
0.000000
  0
VERTEX
  8
0
  6
CONTINUOUS
 10
2.921160
 20
2.957680
  0
VERTEX
  8
0
  6
CONTINUOUS
 10
2.923360
 20
3.695120
  0
VERTEX
  8
0
  6
CONTINUOUS
 10
2.979240
 20
3.707000
  0
VERTEX
  8
0
  6
CONTINUOUS
 10
2.977040
 20
2.969560
  0
VERTEX
  8
0
  6
CONTINUOUS
 10
2.921160
 20
2.957680
  0
SEQEND
  8
0
  0
SOLID
  8
0
 62
    15
 10
2.977040
 20
2.969560
 11
2.979240
 21
3.707000
 12
3.036440
 22
2.969120
 13
3.038640
 23
3.706560
  0
POLYLINE
  8
0
  6
CONTINUOUS
 66
     1
 40
0.000000
 41
0.000000
  0
VERTEX
  8
0
  6
CONTINUOUS
 10
2.977040
 20
2.969560
  0
VERTEX
  8
0
  6
CONTINUOUS
 10
2.979240
 20
3.707000
  0
VERTEX
  8
0
  6
CONTINUOUS
 10
3.038640
 20
3.706560
  0
VERTEX
  8
0
  6
CONTINUOUS
 10
3.036440
 20
2.969120
  0
VERTEX
  8
0
  6
CONTINUOUS
 10
2.977040
 20
2.969560
  0
SEQEND
  8
0
  0
SOLID
  8
0
 62
    15
 10
3.036440
 20
2.969120
 11
3.038640
 21
3.706560
 12
3.095840
 22
2.955040
 13
3.098040
 23
3.692480
  0
POLYLINE
  8
0
  6
CONTINUOUS
 66
     1
 40
0.000000
 41
0.000000
  0
VERTEX
  8
0
  6
CONTINUOUS
 10
3.036440
 20
2.969120
  0
VERTEX
  8
0
  6
CONTINUOUS
 10
3.038640
 20
3.706560
  0
VERTEX
  8
0
  6
CONTINUOUS
 10
3.098040
 20
3.692480
  0
VERTEX
  8
0
  6
CONTINUOUS
 10
3.095840
 20
2.955040
  0
VERTEX
  8
0
  6
CONTINUOUS
 10
3.036440
 20
2.969120
  0
SEQEND
  8
0
  0
SOLID
  8
0
 62
    15
 10
3.095840
 20
2.955040
 11
3.098040
 21
3.692480
 12
3.124440
 22
2.943160
 13
3.127080
 23
3.680600
  0
POLYLINE
  8
0
  6
CONTINUOUS
 66
     1
 40
0.000000
 41
0.000000
  0
VERTEX
  8
0
  6
CONTINUOUS
 10
3.095840
 20
2.955040
  0
VERTEX
  8
0
  6
CONTINUOUS
 10
3.098040
 20
3.692480
  0
VERTEX
  8
0
  6
CONTINUOUS
 10
3.127080
 20
3.680600
  0
VERTEX
  8
0
  6
CONTINUOUS
 10
3.124440
 20
2.943160
  0
VERTEX
  8
0
  6
CONTINUOUS
 10
3.095840
 20
2.955040
  0
SEQEND
  8
0
  0
SOLID
  8
0
 62
    15
 10
3.124440
 20
2.943160
 11
3.127080
 21
3.680600
 12
3.152160
 22
2.927760
 13
3.154360
 23
3.664760
  0
POLYLINE
  8
0
  6
CONTINUOUS
 66
     1
 40
0.000000
 41
0.000000
  0
VERTEX
  8
0
  6
CONTINUOUS
 10
3.124440
 20
2.943160
  0
VERTEX
  8
0
  6
CONTINUOUS
 10
3.127080
 20
3.680600
  0
VERTEX
  8
0
  6
CONTINUOUS
 10
3.154360
 20
3.664760
  0
VERTEX
  8
0
  6
CONTINUOUS
 10
3.152160
 20
2.927760
  0
VERTEX
  8
0
  6
CONTINUOUS
 10
3.124440
 20
2.943160
  0
SEQEND
  8
0
  0
SOLID
  8
0
 62
    15
 10
3.152160
 20
2.927760
 11
3.154360
 21
3.664760
 12
3.178120
 22
2.908400
 13
3.180320
 23
3.645840
  0
POLYLINE
  8
0
  6
CONTINUOUS
 66
     1
 40
0.000000
 41
0.000000
  0
VERTEX
  8
0
  6
CONTINUOUS
 10
3.152160
 20
2.927760
  0
VERTEX
  8
0
  6
CONTINUOUS
 10
3.154360
 20
3.664760
  0
VERTEX
  8
0
  6
CONTINUOUS
 10
3.180320
 20
3.645840
  0
VERTEX
  8
0
  6
CONTINUOUS
 10
3.178120
 20
2.908400
  0
VERTEX
  8
0
  6
CONTINUOUS
 10
3.152160
 20
2.927760
  0
SEQEND
  8
0
  0
SOLID
  8
0
 62
    15
 10
3.178120
 20
2.908400
 11
3.180320
 21
3.645840
 12
3.201880
 22
2.885080
 13
3.204080
 23
3.622520
  0
POLYLINE
  8
0
  6
CONTINUOUS
 66
     1
 40
0.000000
 41
0.000000
  0
VERTEX
  8
0
  6
CONTINUOUS
 10
3.178120
 20
2.908400
  0
VERTEX
  8
0
  6
CONTINUOUS
 10
3.180320
 20
3.645840
  0
VERTEX
  8
0
  6
CONTINUOUS
 10
3.204080
 20
3.622520
  0
VERTEX
  8
0
  6
CONTINUOUS
 10
3.201880
 20
2.885080
  0
VERTEX
  8
0
  6
CONTINUOUS
 10
3.178120
 20
2.908400
  0
SEQEND
  8
0
  0
SOLID
  8
0
 62
    15
 10
3.201880
 20
2.885080
 11
3.204080
 21
3.622520
 12
3.223000
 22
2.858680
 13
3.225200
 23
3.596120
  0
POLYLINE
  8
0
  6
CONTINUOUS
 66
     1
 40
0.000000
 41
0.000000
  0
VERTEX
  8
0
  6
CONTINUOUS
 10
3.201880
 20
2.885080
  0
VERTEX
  8
0
  6
CONTINUOUS
 10
3.204080
 20
3.622520
  0
VERTEX
  8
0
  6
CONTINUOUS
 10
3.225200
 20
3.596120
  0
VERTEX
  8
0
  6
CONTINUOUS
 10
3.223000
 20
2.858680
  0
VERTEX
  8
0
  6
CONTINUOUS
 10
3.201880
 20
2.885080
  0
SEQEND
  8
0
  0
SOLID
  8
0
 62
    15
 10
3.223000
 20
2.858680
 11
3.225200
 21
3.596120
 12
3.241480
 22
2.827880
 13
3.243680
 23
3.565320
  0
POLYLINE
  8
0
  6
CONTINUOUS
 66
     1
 40
0.000000
 41
0.000000
  0
VERTEX
  8
0
  6
CONTINUOUS
 10
3.223000
 20
2.858680
  0
VERTEX
  8
0
  6
CONTINUOUS
 10
3.225200
 20
3.596120
  0
VERTEX
  8
0
  6
CONTINUOUS
 10
3.243680
 20
3.565320
  0
VERTEX
  8
0
  6
CONTINUOUS
 10
3.241480
 20
2.827880
  0
VERTEX
  8
0
  6
CONTINUOUS
 10
3.223000
 20
2.858680
  0
SEQEND
  8
0
  0
SOLID
  8
0
 62
    15
 10
3.241480
 20
2.827880
 11
3.243680
 21
3.565320
 12
3.256440
 22
2.793120
 13
3.258640
 23
3.530560
  0
POLYLINE
  8
0
  6
CONTINUOUS
 66
     1
 40
0.000000
 41
0.000000
  0
VERTEX
  8
0
  6
CONTINUOUS
 10
3.241480
 20
2.827880
  0
VERTEX
  8
0
  6
CONTINUOUS
 10
3.243680
 20
3.565320
  0
VERTEX
  8
0
  6
CONTINUOUS
 10
3.258640
 20
3.530560
  0
VERTEX
  8
0
  6
CONTINUOUS
 10
3.256440
 20
2.793120
  0
VERTEX
  8
0
  6
CONTINUOUS
 10
3.241480
 20
2.827880
  0
SEQEND
  8
0
  0
SOLID
  8
0
 62
    15
 10
3.256440
 20
2.793120
 11
3.258640
 21
3.530560
 12
3.267880
 22
2.754400
 13
3.270080
 23
3.491840
  0
POLYLINE
  8
0
  6
CONTINUOUS
 66
     1
 40
0.000000
 41
0.000000
  0
VERTEX
  8
0
  6
CONTINUOUS
 10
3.256440
 20
2.793120
  0
VERTEX
  8
0
  6
CONTINUOUS
 10
3.258640
 20
3.530560
  0
VERTEX
  8
0
  6
CONTINUOUS
 10
3.270080
 20
3.491840
  0
VERTEX
  8
0
  6
CONTINUOUS
 10
3.267880
 20
2.754400
  0
VERTEX
  8
0
  6
CONTINUOUS
 10
3.256440
 20
2.793120
  0
SEQEND
  8
0
  0
SOLID
  8
0
 62
    15
 10
3.267880
 20
2.754400
 11
3.270080
 21
3.491840
 12
3.282840
 22
2.754400
 13
3.285040
 23
3.491840
  0
POLYLINE
  8
0
  6
CONTINUOUS
 66
     1
 40
0.000000
 41
0.000000
  0
VERTEX
  8
0
  6
CONTINUOUS
 10
3.267880
 20
2.754400
  0
VERTEX
  8
0
  6
CONTINUOUS
 10
3.270080
 20
3.491840
  0
VERTEX
  8
0
  6
CONTINUOUS
 10
3.285040
 20
3.491840
  0
VERTEX
  8
0
  6
CONTINUOUS
 10
3.282840
 20
2.754400
  0
VERTEX
  8
0
  6
CONTINUOUS
 10
3.267880
 20
2.754400
  0
SEQEND
  8
0
  0
SOLID
  8
0
 62
    15
 10
3.282840
 20
2.754400
 11
3.285040
 21
3.491840
 12
3.296920
 22
2.786080
 13
3.299120
 23
3.523520
  0
POLYLINE
  8
0
  6
CONTINUOUS
 66
     1
 40
0.000000
 41
0.000000
  0
VERTEX
  8
0
  6
CONTINUOUS
 10
3.282840
 20
2.754400
  0
VERTEX
  8
0
  6
CONTINUOUS
 10
3.285040
 20
3.491840
  0
VERTEX
  8
0
  6
CONTINUOUS
 10
3.299120
 20
3.523520
  0
VERTEX
  8
0
  6
CONTINUOUS
 10
3.296920
 20
2.786080
  0
VERTEX
  8
0
  6
CONTINUOUS
 10
3.282840
 20
2.754400
  0
SEQEND
  8
0
  0
SOLID
  8
0
 62
    15
 10
3.296920
 20
2.786080
 11
3.299120
 21
3.523520
 12
3.317600
 22
2.808080
 13
3.319800
 23
3.545080
  0
POLYLINE
  8
0
  6
CONTINUOUS
 66
     1
 40
0.000000
 41
0.000000
  0
VERTEX
  8
0
  6
CONTINUOUS
 10
3.296920
 20
2.786080
  0
VERTEX
  8
0
  6
CONTINUOUS
 10
3.299120
 20
3.523520
  0
VERTEX
  8
0
  6
CONTINUOUS
 10
3.319800
 20
3.545080
  0
VERTEX
  8
0
  6
CONTINUOUS
 10
3.317600
 20
2.808080
  0
VERTEX
  8
0
  6
CONTINUOUS
 10
3.296920
 20
2.786080
  0
SEQEND
  8
0
  0
SOLID
  8
0
 62
    15
 10
3.317600
 20
2.808080
 11
3.319800
 21
3.545080
 12
3.342680
 22
2.819960
 13
3.344880
 23
3.556960
  0
POLYLINE
  8
0
  6
CONTINUOUS
 66
     1
 40
0.000000
 41
0.000000
  0
VERTEX
  8
0
  6
CONTINUOUS
 10
3.317600
 20
2.808080
  0
VERTEX
  8
0
  6
CONTINUOUS
 10
3.319800
 20
3.545080
  0
VERTEX
  8
0
  6
CONTINUOUS
 10
3.344880
 20
3.556960
  0
VERTEX
  8
0
  6
CONTINUOUS
 10
3.342680
 20
2.819960
  0
VERTEX
  8
0
  6
CONTINUOUS
 10
3.317600
 20
2.808080
  0
SEQEND
  8
0
  0
SOLID
  8
0
 62
    15
 10
3.342680
 20
2.819960
 11
3.344880
 21
3.556960
 12
3.369960
 22
2.822160
 13
3.372160
 23
3.559600
  0
POLYLINE
  8
0
  6
CONTINUOUS
 66
     1
 40
0.000000
 41
0.000000
  0
VERTEX
  8
0
  6
CONTINUOUS
 10
3.342680
 20
2.819960
  0
VERTEX
  8
0
  6
CONTINUOUS
 10
3.344880
 20
3.556960
  0
VERTEX
  8
0
  6
CONTINUOUS
 10
3.372160
 20
3.559600
  0
VERTEX
  8
0
  6
CONTINUOUS
 10
3.369960
 20
2.822160
  0
VERTEX
  8
0
  6
CONTINUOUS
 10
3.342680
 20
2.819960
  0
SEQEND
  8
0
  0
SOLID
  8
0
 62
    15
 10
3.369960
 20
2.822160
 11
3.372160
 21
3.559600
 12
3.397240
 22
2.814680
 13
3.399440
 23
3.552120
  0
POLYLINE
  8
0
  6
CONTINUOUS
 66
     1
 40
0.000000
 41
0.000000
  0
VERTEX
  8
0
  6
CONTINUOUS
 10
3.369960
 20
2.822160
  0
VERTEX
  8
0
  6
CONTINUOUS
 10
3.372160
 20
3.559600
  0
VERTEX
  8
0
  6
CONTINUOUS
 10
3.399440
 20
3.552120
  0
VERTEX
  8
0
  6
CONTINUOUS
 10
3.397240
 20
2.814680
  0
VERTEX
  8
0
  6
CONTINUOUS
 10
3.369960
 20
2.822160
  0
SEQEND
  8
0
  0
SOLID
  8
0
 62
    15
 10
3.397240
 20
2.814680
 11
3.399440
 21
3.552120
 12
3.422320
 22
2.798400
 13
3.424520
 23
3.535840
  0
POLYLINE
  8
0
  6
CONTINUOUS
 66
     1
 40
0.000000
 41
0.000000
  0
VERTEX
  8
0
  6
CONTINUOUS
 10
3.397240
 20
2.814680
  0
VERTEX
  8
0
  6
CONTINUOUS
 10
3.399440
 20
3.552120
  0
VERTEX
  8
0
  6
CONTINUOUS
 10
3.424520
 20
3.535840
  0
VERTEX
  8
0
  6
CONTINUOUS
 10
3.422320
 20
2.798400
  0
VERTEX
  8
0
  6
CONTINUOUS
 10
3.397240
 20
2.814680
  0
SEQEND
  8
0
  0
SOLID
  8
0
 62
    15
 10
3.422320
 20
2.798400
 11
3.424520
 21
3.535840
 12
3.442560
 22
2.772880
 13
3.444760
 23
3.509880
  0
POLYLINE
  8
0
  6
CONTINUOUS
 66
     1
 40
0.000000
 41
0.000000
  0
VERTEX
  8
0
  6
CONTINUOUS
 10
3.422320
 20
2.798400
  0
VERTEX
  8
0
  6
CONTINUOUS
 10
3.424520
 20
3.535840
  0
VERTEX
  8
0
  6
CONTINUOUS
 10
3.444760
 20
3.509880
  0
VERTEX
  8
0
  6
CONTINUOUS
 10
3.442560
 20
2.772880
  0
VERTEX
  8
0
  6
CONTINUOUS
 10
3.422320
 20
2.798400
  0
SEQEND
  8
0
  0
SOLID
  8
0
 62
    15
 10
3.442560
 20
2.772880
 11
3.444760
 21
3.509880
 12
3.455760
 22
2.738120
 13
3.457960
 23
3.475560
  0
POLYLINE
  8
0
  6
CONTINUOUS
 66
     1
 40
0.000000
 41
0.000000
  0
VERTEX
  8
0
  6
CONTINUOUS
 10
3.442560
 20
2.772880
  0
VERTEX
  8
0
  6
CONTINUOUS
 10
3.444760
 20
3.509880
  0
VERTEX
  8
0
  6
CONTINUOUS
 10
3.457960
 20
3.475560
  0
VERTEX
  8
0
  6
CONTINUOUS
 10
3.455760
 20
2.738120
  0
VERTEX
  8
0
  6
CONTINUOUS
 10
3.442560
 20
2.772880
  0
SEQEND
  8
0
  0
SOLID
  8
0
 62
    15
 10
3.455760
 20
2.738120
 11
3.457960
 21
3.475560
 12
3.515160
 22
2.738120
 13
3.517360
 23
3.475560
  0
POLYLINE
  8
0
  6
CONTINUOUS
 66
     1
 40
0.000000
 41
0.000000
  0
VERTEX
  8
0
  6
CONTINUOUS
 10
3.455760
 20
2.738120
  0
VERTEX
  8
0
  6
CONTINUOUS
 10
3.457960
 20
3.475560
  0
VERTEX
  8
0
  6
CONTINUOUS
 10
3.517360
 20
3.475560
  0
VERTEX
  8
0
  6
CONTINUOUS
 10
3.515160
 20
2.738120
  0
VERTEX
  8
0
  6
CONTINUOUS
 10
3.455760
 20
2.738120
  0
SEQEND
  8
0
  0
SOLID
  8
0
 62
    15
 10
3.515160
 20
2.738120
 11
3.517360
 21
3.475560
 12
3.523520
 22
2.696760
 13
3.525720
 23
3.433760
  0
POLYLINE
  8
0
  6
CONTINUOUS
 66
     1
 40
0.000000
 41
0.000000
  0
VERTEX
  8
0
  6
CONTINUOUS
 10
3.515160
 20
2.738120
  0
VERTEX
  8
0
  6
CONTINUOUS
 10
3.517360
 20
3.475560
  0
VERTEX
  8
0
  6
CONTINUOUS
 10
3.525720
 20
3.433760
  0
VERTEX
  8
0
  6
CONTINUOUS
 10
3.523520
 20
2.696760
  0
VERTEX
  8
0
  6
CONTINUOUS
 10
3.515160
 20
2.738120
  0
SEQEND
  8
0
  0
SOLID
  8
0
 62
    15
 10
3.523520
 20
2.696760
 11
3.525720
 21
3.433760
 12
3.538920
 22
2.660240
 13
3.541120
 23
3.397680
  0
POLYLINE
  8
0
  6
CONTINUOUS
 66
     1
 40
0.000000
 41
0.000000
  0
VERTEX
  8
0
  6
CONTINUOUS
 10
3.523520
 20
2.696760
  0
VERTEX
  8
0
  6
CONTINUOUS
 10
3.525720
 20
3.433760
  0
VERTEX
  8
0
  6
CONTINUOUS
 10
3.541120
 20
3.397680
  0
VERTEX
  8
0
  6
CONTINUOUS
 10
3.538920
 20
2.660240
  0
VERTEX
  8
0
  6
CONTINUOUS
 10
3.523520
 20
2.696760
  0
SEQEND
  8
0
  0
SOLID
  8
0
 62
    15
 10
3.538920
 20
2.660240
 11
3.541120
 21
3.397680
 12
3.560480
 22
2.629440
 13
3.562680
 23
3.366880
  0
POLYLINE
  8
0
  6
CONTINUOUS
 66
     1
 40
0.000000
 41
0.000000
  0
VERTEX
  8
0
  6
CONTINUOUS
 10
3.538920
 20
2.660240
  0
VERTEX
  8
0
  6
CONTINUOUS
 10
3.541120
 20
3.397680
  0
VERTEX
  8
0
  6
CONTINUOUS
 10
3.562680
 20
3.366880
  0
VERTEX
  8
0
  6
CONTINUOUS
 10
3.560480
 20
2.629440
  0
VERTEX
  8
0
  6
CONTINUOUS
 10
3.538920
 20
2.660240
  0
SEQEND
  8
0
  0
SOLID
  8
0
 62
    15
 10
3.560480
 20
2.629440
 11
3.562680
 21
3.366880
 12
3.586880
 22
2.603920
 13
3.589080
 23
3.341360
  0
POLYLINE
  8
0
  6
CONTINUOUS
 66
     1
 40
0.000000
 41
0.000000
  0
VERTEX
  8
0
  6
CONTINUOUS
 10
3.560480
 20
2.629440
  0
VERTEX
  8
0
  6
CONTINUOUS
 10
3.562680
 20
3.366880
  0
VERTEX
  8
0
  6
CONTINUOUS
 10
3.589080
 20
3.341360
  0
VERTEX
  8
0
  6
CONTINUOUS
 10
3.586880
 20
2.603920
  0
VERTEX
  8
0
  6
CONTINUOUS
 10
3.560480
 20
2.629440
  0
SEQEND
  8
0
  0
SOLID
  8
0
 62
    15
 10
3.586880
 20
2.603920
 11
3.589080
 21
3.341360
 12
3.616800
 22
2.583680
 13
3.619000
 23
3.321120
  0
POLYLINE
  8
0
  6
CONTINUOUS
 66
     1
 40
0.000000
 41
0.000000
  0
VERTEX
  8
0
  6
CONTINUOUS
 10
3.586880
 20
2.603920
  0
VERTEX
  8
0
  6
CONTINUOUS
 10
3.589080
 20
3.341360
  0
VERTEX
  8
0
  6
CONTINUOUS
 10
3.619000
 20
3.321120
  0
VERTEX
  8
0
  6
CONTINUOUS
 10
3.616800
 20
2.583680
  0
VERTEX
  8
0
  6
CONTINUOUS
 10
3.586880
 20
2.603920
  0
SEQEND
  8
0
  0
SOLID
  8
0
 62
    15
 10
3.616800
 20
2.583680
 11
3.619000
 21
3.321120
 12
3.649800
 22
2.568720
 13
3.652000
 23
3.306160
  0
POLYLINE
  8
0
  6
CONTINUOUS
 66
     1
 40
0.000000
 41
0.000000
  0
VERTEX
  8
0
  6
CONTINUOUS
 10
3.616800
 20
2.583680
  0
VERTEX
  8
0
  6
CONTINUOUS
 10
3.619000
 20
3.321120
  0
VERTEX
  8
0
  6
CONTINUOUS
 10
3.652000
 20
3.306160
  0
VERTEX
  8
0
  6
CONTINUOUS
 10
3.649800
 20
2.568720
  0
VERTEX
  8
0
  6
CONTINUOUS
 10
3.616800
 20
2.583680
  0
SEQEND
  8
0
  0
SOLID
  8
0
 62
    15
 10
3.649800
 20
2.568720
 11
3.652000
 21
3.306160
 12
3.685000
 22
2.559480
 13
3.687200
 23
3.296920
  0
POLYLINE
  8
0
  6
CONTINUOUS
 66
     1
 40
0.000000
 41
0.000000
  0
VERTEX
  8
0
  6
CONTINUOUS
 10
3.649800
 20
2.568720
  0
VERTEX
  8
0
  6
CONTINUOUS
 10
3.652000
 20
3.306160
  0
VERTEX
  8
0
  6
CONTINUOUS
 10
3.687200
 20
3.296920
  0
VERTEX
  8
0
  6
CONTINUOUS
 10
3.685000
 20
2.559480
  0
VERTEX
  8
0
  6
CONTINUOUS
 10
3.649800
 20
2.568720
  0
SEQEND
  8
0
  0
SOLID
  8
0
 62
    15
 10
3.685000
 20
2.559480
 11
3.687200
 21
3.296920
 12
3.720640
 22
2.555520
 13
3.722840
 23
3.292960
  0
POLYLINE
  8
0
  6
CONTINUOUS
 66
     1
 40
0.000000
 41
0.000000
  0
VERTEX
  8
0
  6
CONTINUOUS
 10
3.685000
 20
2.559480
  0
VERTEX
  8
0
  6
CONTINUOUS
 10
3.687200
 20
3.296920
  0
VERTEX
  8
0
  6
CONTINUOUS
 10
3.722840
 20
3.292960
  0
VERTEX
  8
0
  6
CONTINUOUS
 10
3.720640
 20
2.555520
  0
VERTEX
  8
0
  6
CONTINUOUS
 10
3.685000
 20
2.559480
  0
SEQEND
  8
0
  0
SOLID
  8
0
 62
    15
 10
3.720640
 20
2.555520
 11
3.722840
 21
3.292960
 12
3.756280
 22
2.556840
 13
3.758480
 23
3.294280
  0
POLYLINE
  8
0
  6
CONTINUOUS
 66
     1
 40
0.000000
 41
0.000000
  0
VERTEX
  8
0
  6
CONTINUOUS
 10
3.720640
 20
2.555520
  0
VERTEX
  8
0
  6
CONTINUOUS
 10
3.722840
 20
3.292960
  0
VERTEX
  8
0
  6
CONTINUOUS
 10
3.758480
 20
3.294280
  0
VERTEX
  8
0
  6
CONTINUOUS
 10
3.756280
 20
2.556840
  0
VERTEX
  8
0
  6
CONTINUOUS
 10
3.720640
 20
2.555520
  0
SEQEND
  8
0
  0
SOLID
  8
0
 62
    15
 10
3.756280
 20
2.556840
 11
3.758480
 21
3.294280
 12
3.791040
 22
2.563880
 13
3.793240
 23
3.301320
  0
POLYLINE
  8
0
  6
CONTINUOUS
 66
     1
 40
0.000000
 41
0.000000
  0
VERTEX
  8
0
  6
CONTINUOUS
 10
3.756280
 20
2.556840
  0
VERTEX
  8
0
  6
CONTINUOUS
 10
3.758480
 20
3.294280
  0
VERTEX
  8
0
  6
CONTINUOUS
 10
3.793240
 20
3.301320
  0
VERTEX
  8
0
  6
CONTINUOUS
 10
3.791040
 20
2.563880
  0
VERTEX
  8
0
  6
CONTINUOUS
 10
3.756280
 20
2.556840
  0
SEQEND
  8
0
  0
SOLID
  8
0
 62
    15
 10
3.791040
 20
2.563880
 11
3.793240
 21
3.301320
 12
3.823160
 22
2.576640
 13
3.825360
 23
3.313640
  0
POLYLINE
  8
0
  6
CONTINUOUS
 66
     1
 40
0.000000
 41
0.000000
  0
VERTEX
  8
0
  6
CONTINUOUS
 10
3.791040
 20
2.563880
  0
VERTEX
  8
0
  6
CONTINUOUS
 10
3.793240
 20
3.301320
  0
VERTEX
  8
0
  6
CONTINUOUS
 10
3.825360
 20
3.313640
  0
VERTEX
  8
0
  6
CONTINUOUS
 10
3.823160
 20
2.576640
  0
VERTEX
  8
0
  6
CONTINUOUS
 10
3.791040
 20
2.563880
  0
SEQEND
  8
0
  0
SOLID
  8
0
 62
    15
 10
3.823160
 20
2.576640
 11
3.825360
 21
3.313640
 12
3.852200
 22
2.594680
 13
3.854400
 23
3.332120
  0
POLYLINE
  8
0
  6
CONTINUOUS
 66
     1
 40
0.000000
 41
0.000000
  0
VERTEX
  8
0
  6
CONTINUOUS
 10
3.823160
 20
2.576640
  0
VERTEX
  8
0
  6
CONTINUOUS
 10
3.825360
 20
3.313640
  0
VERTEX
  8
0
  6
CONTINUOUS
 10
3.854400
 20
3.332120
  0
VERTEX
  8
0
  6
CONTINUOUS
 10
3.852200
 20
2.594680
  0
VERTEX
  8
0
  6
CONTINUOUS
 10
3.823160
 20
2.576640
  0
SEQEND
  8
0
  0
SOLID
  8
0
 62
    15
 10
3.852200
 20
2.594680
 11
3.854400
 21
3.332120
 12
3.877280
 22
2.618440
 13
3.879480
 23
3.355440
  0
POLYLINE
  8
0
  6
CONTINUOUS
 66
     1
 40
0.000000
 41
0.000000
  0
VERTEX
  8
0
  6
CONTINUOUS
 10
3.852200
 20
2.594680
  0
VERTEX
  8
0
  6
CONTINUOUS
 10
3.854400
 20
3.332120
  0
VERTEX
  8
0
  6
CONTINUOUS
 10
3.879480
 20
3.355440
  0
VERTEX
  8
0
  6
CONTINUOUS
 10
3.877280
 20
2.618440
  0
VERTEX
  8
0
  6
CONTINUOUS
 10
3.852200
 20
2.594680
  0
SEQEND
  8
0
  0
SOLID
  8
0
 62
    15
 10
3.877280
 20
2.618440
 11
3.879480
 21
3.355440
 12
3.897080
 22
2.647480
 13
3.899280
 23
3.384920
  0
POLYLINE
  8
0
  6
CONTINUOUS
 66
     1
 40
0.000000
 41
0.000000
  0
VERTEX
  8
0
  6
CONTINUOUS
 10
3.877280
 20
2.618440
  0
VERTEX
  8
0
  6
CONTINUOUS
 10
3.879480
 20
3.355440
  0
VERTEX
  8
0
  6
CONTINUOUS
 10
3.899280
 20
3.384920
  0
VERTEX
  8
0
  6
CONTINUOUS
 10
3.897080
 20
2.647480
  0
VERTEX
  8
0
  6
CONTINUOUS
 10
3.877280
 20
2.618440
  0
SEQEND
  8
0
  0
SOLID
  8
0
 62
    15
 10
3.897080
 20
2.647480
 11
3.899280
 21
3.384920
 12
3.910280
 22
2.682680
 13
3.912920
 23
3.419680
  0
POLYLINE
  8
0
  6
CONTINUOUS
 66
     1
 40
0.000000
 41
0.000000
  0
VERTEX
  8
0
  6
CONTINUOUS
 10
3.897080
 20
2.647480
  0
VERTEX
  8
0
  6
CONTINUOUS
 10
3.899280
 20
3.384920
  0
VERTEX
  8
0
  6
CONTINUOUS
 10
3.912920
 20
3.419680
  0
VERTEX
  8
0
  6
CONTINUOUS
 10
3.910280
 20
2.682680
  0
VERTEX
  8
0
  6
CONTINUOUS
 10
3.897080
 20
2.647480
  0
SEQEND
  8
0
  0
SOLID
  8
0
 62
    15
 10
3.910280
 20
2.682680
 11
3.912920
 21
3.419680
 12
3.916880
 22
2.723160
 13
3.919080
 23
3.460600
  0
POLYLINE
  8
0
  6
CONTINUOUS
 66
     1
 40
0.000000
 41
0.000000
  0
VERTEX
  8
0
  6
CONTINUOUS
 10
3.910280
 20
2.682680
  0
VERTEX
  8
0
  6
CONTINUOUS
 10
3.912920
 20
3.419680
  0
VERTEX
  8
0
  6
CONTINUOUS
 10
3.919080
 20
3.460600
  0
VERTEX
  8
0
  6
CONTINUOUS
 10
3.916880
 20
2.723160
  0
VERTEX
  8
0
  6
CONTINUOUS
 10
3.910280
 20
2.682680
  0
SEQEND
  8
0
  0
SOLID
  8
0
 62
    15
 10
3.916880
 20
2.723160
 11
3.919080
 21
3.460600
 12
3.984640
 22
2.723160
 13
3.986840
 23
3.460600
  0
POLYLINE
  8
0
  6
CONTINUOUS
 66
     1
 40
0.000000
 41
0.000000
  0
VERTEX
  8
0
  6
CONTINUOUS
 10
3.916880
 20
2.723160
  0
VERTEX
  8
0
  6
CONTINUOUS
 10
3.919080
 20
3.460600
  0
VERTEX
  8
0
  6
CONTINUOUS
 10
3.986840
 20
3.460600
  0
VERTEX
  8
0
  6
CONTINUOUS
 10
3.984640
 20
2.723160
  0
VERTEX
  8
0
  6
CONTINUOUS
 10
3.916880
 20
2.723160
  0
SEQEND
  8
0
  0
SOLID
  8
0
 62
    15
 10
3.984640
 20
2.723160
 11
3.986840
 21
3.460600
 12
3.986400
 22
2.759680
 13
3.988600
 23
3.496680
  0
POLYLINE
  8
0
  6
CONTINUOUS
 66
     1
 40
0.000000
 41
0.000000
  0
VERTEX
  8
0
  6
CONTINUOUS
 10
3.984640
 20
2.723160
  0
VERTEX
  8
0
  6
CONTINUOUS
 10
3.986840
 20
3.460600
  0
VERTEX
  8
0
  6
CONTINUOUS
 10
3.988600
 20
3.496680
  0
VERTEX
  8
0
  6
CONTINUOUS
 10
3.986400
 20
2.759680
  0
VERTEX
  8
0
  6
CONTINUOUS
 10
3.984640
 20
2.723160
  0
SEQEND
  8
0
  0
SOLID
  8
0
 62
    15
 10
3.986400
 20
2.759680
 11
3.988600
 21
3.496680
 12
3.993000
 22
2.789160
 13
3.995200
 23
3.526600
  0
POLYLINE
  8
0
  6
CONTINUOUS
 66
     1
 40
0.000000
 41
0.000000
  0
VERTEX
  8
0
  6
CONTINUOUS
 10
3.986400
 20
2.759680
  0
VERTEX
  8
0
  6
CONTINUOUS
 10
3.988600
 20
3.496680
  0
VERTEX
  8
0
  6
CONTINUOUS
 10
3.995200
 20
3.526600
  0
VERTEX
  8
0
  6
CONTINUOUS
 10
3.993000
 20
2.789160
  0
VERTEX
  8
0
  6
CONTINUOUS
 10
3.986400
 20
2.759680
  0
SEQEND
  8
0
  0
SOLID
  8
0
 62
    15
 10
3.993000
 20
2.789160
 11
3.995200
 21
3.526600
 12
4.004440
 22
2.811600
 13
4.006640
 23
3.549040
  0
POLYLINE
  8
0
  6
CONTINUOUS
 66
     1
 40
0.000000
 41
0.000000
  0
VERTEX
  8
0
  6
CONTINUOUS
 10
3.993000
 20
2.789160
  0
VERTEX
  8
0
  6
CONTINUOUS
 10
3.995200
 20
3.526600
  0
VERTEX
  8
0
  6
CONTINUOUS
 10
4.006640
 20
3.549040
  0
VERTEX
  8
0
  6
CONTINUOUS
 10
4.004440
 20
2.811600
  0
VERTEX
  8
0
  6
CONTINUOUS
 10
3.993000
 20
2.789160
  0
SEQEND
  8
0
  0
SOLID
  8
0
 62
    15
 10
4.004440
 20
2.811600
 11
4.006640
 21
3.549040
 12
4.019840
 22
2.827000
 13
4.022040
 23
3.564440
  0
POLYLINE
  8
0
  6
CONTINUOUS
 66
     1
 40
0.000000
 41
0.000000
  0
VERTEX
  8
0
  6
CONTINUOUS
 10
4.004440
 20
2.811600
  0
VERTEX
  8
0
  6
CONTINUOUS
 10
4.006640
 20
3.549040
  0
VERTEX
  8
0
  6
CONTINUOUS
 10
4.022040
 20
3.564440
  0
VERTEX
  8
0
  6
CONTINUOUS
 10
4.019840
 20
2.827000
  0
VERTEX
  8
0
  6
CONTINUOUS
 10
4.004440
 20
2.811600
  0
SEQEND
  8
0
  0
SOLID
  8
0
 62
    15
 10
4.019840
 20
2.827000
 11
4.022040
 21
3.564440
 12
4.038320
 22
2.835360
 13
4.040520
 23
3.572360
  0
POLYLINE
  8
0
  6
CONTINUOUS
 66
     1
 40
0.000000
 41
0.000000
  0
VERTEX
  8
0
  6
CONTINUOUS
 10
4.019840
 20
2.827000
  0
VERTEX
  8
0
  6
CONTINUOUS
 10
4.022040
 20
3.564440
  0
VERTEX
  8
0
  6
CONTINUOUS
 10
4.040520
 20
3.572360
  0
VERTEX
  8
0
  6
CONTINUOUS
 10
4.038320
 20
2.835360
  0
VERTEX
  8
0
  6
CONTINUOUS
 10
4.019840
 20
2.827000
  0
SEQEND
  8
0
  0
SOLID
  8
0
 62
    15
 10
4.038320
 20
2.835360
 11
4.040520
 21
3.572360
 12
4.059440
 22
2.835800
 13
4.062080
 23
3.573240
  0
POLYLINE
  8
0
  6
CONTINUOUS
 66
     1
 40
0.000000
 41
0.000000
  0
VERTEX
  8
0
  6
CONTINUOUS
 10
4.038320
 20
2.835360
  0
VERTEX
  8
0
  6
CONTINUOUS
 10
4.040520
 20
3.572360
  0
VERTEX
  8
0
  6
CONTINUOUS
 10
4.062080
 20
3.573240
  0
VERTEX
  8
0
  6
CONTINUOUS
 10
4.059440
 20
2.835800
  0
VERTEX
  8
0
  6
CONTINUOUS
 10
4.038320
 20
2.835360
  0
SEQEND
  8
0
  0
SOLID
  8
0
 62
    15
 10
4.059440
 20
2.835800
 11
4.062080
 21
3.573240
 12
4.082760
 22
2.828760
 13
4.084960
 23
3.566200
  0
POLYLINE
  8
0
  6
CONTINUOUS
 66
     1
 40
0.000000
 41
0.000000
  0
VERTEX
  8
0
  6
CONTINUOUS
 10
4.059440
 20
2.835800
  0
VERTEX
  8
0
  6
CONTINUOUS
 10
4.062080
 20
3.573240
  0
VERTEX
  8
0
  6
CONTINUOUS
 10
4.084960
 20
3.566200
  0
VERTEX
  8
0
  6
CONTINUOUS
 10
4.082760
 20
2.828760
  0
VERTEX
  8
0
  6
CONTINUOUS
 10
4.059440
 20
2.835800
  0
SEQEND
  8
0
  0
SOLID
  8
0
 62
    15
 10
4.082760
 20
2.828760
 11
4.084960
 21
3.566200
 12
4.107400
 22
2.814240
 13
4.109600
 23
3.551680
  0
POLYLINE
  8
0
  6
CONTINUOUS
 66
     1
 40
0.000000
 41
0.000000
  0
VERTEX
  8
0
  6
CONTINUOUS
 10
4.082760
 20
2.828760
  0
VERTEX
  8
0
  6
CONTINUOUS
 10
4.084960
 20
3.566200
  0
VERTEX
  8
0
  6
CONTINUOUS
 10
4.109600
 20
3.551680
  0
VERTEX
  8
0
  6
CONTINUOUS
 10
4.107400
 20
2.814240
  0
VERTEX
  8
0
  6
CONTINUOUS
 10
4.082760
 20
2.828760
  0
SEQEND
  8
0
  0
SOLID
  8
0
 62
    15
 10
4.107400
 20
2.814240
 11
4.109600
 21
3.551680
 12
4.155360
 22
2.774640
 13
4.157560
 23
3.511640
  0
POLYLINE
  8
0
  6
CONTINUOUS
 66
     1
 40
0.000000
 41
0.000000
  0
VERTEX
  8
0
  6
CONTINUOUS
 10
4.107400
 20
2.814240
  0
VERTEX
  8
0
  6
CONTINUOUS
 10
4.109600
 20
3.551680
  0
VERTEX
  8
0
  6
CONTINUOUS
 10
4.157560
 20
3.511640
  0
VERTEX
  8
0
  6
CONTINUOUS
 10
4.155360
 20
2.774640
  0
VERTEX
  8
0
  6
CONTINUOUS
 10
4.107400
 20
2.814240
  0
SEQEND
  8
0
  0
SOLID
  8
0
 62
    15
 10
4.155360
 20
2.774640
 11
4.157560
 21
3.511640
 12
4.172520
 22
2.827000
 13
4.174720
 23
3.564000
  0
POLYLINE
  8
0
  6
CONTINUOUS
 66
     1
 40
0.000000
 41
0.000000
  0
VERTEX
  8
0
  6
CONTINUOUS
 10
4.155360
 20
2.774640
  0
VERTEX
  8
0
  6
CONTINUOUS
 10
4.157560
 20
3.511640
  0
VERTEX
  8
0
  6
CONTINUOUS
 10
4.174720
 20
3.564000
  0
VERTEX
  8
0
  6
CONTINUOUS
 10
4.172520
 20
2.827000
  0
VERTEX
  8
0
  6
CONTINUOUS
 10
4.155360
 20
2.774640
  0
SEQEND
  8
0
  0
SOLID
  8
0
 62
    15
 10
4.172520
 20
2.827000
 11
4.174720
 21
3.564000
 12
4.199360
 22
2.871440
 13
4.201560
 23
3.608880
  0
POLYLINE
  8
0
  6
CONTINUOUS
 66
     1
 40
0.000000
 41
0.000000
  0
VERTEX
  8
0
  6
CONTINUOUS
 10
4.172520
 20
2.827000
  0
VERTEX
  8
0
  6
CONTINUOUS
 10
4.174720
 20
3.564000
  0
VERTEX
  8
0
  6
CONTINUOUS
 10
4.201560
 20
3.608880
  0
VERTEX
  8
0
  6
CONTINUOUS
 10
4.199360
 20
2.871440
  0
VERTEX
  8
0
  6
CONTINUOUS
 10
4.172520
 20
2.827000
  0
SEQEND
  8
0
  0
SOLID
  8
0
 62
    15
 10
4.199360
 20
2.871440
 11
4.201560
 21
3.608880
 12
4.233680
 22
2.908840
 13
4.235880
 23
3.646280
  0
POLYLINE
  8
0
  6
CONTINUOUS
 66
     1
 40
0.000000
 41
0.000000
  0
VERTEX
  8
0
  6
CONTINUOUS
 10
4.199360
 20
2.871440
  0
VERTEX
  8
0
  6
CONTINUOUS
 10
4.201560
 20
3.608880
  0
VERTEX
  8
0
  6
CONTINUOUS
 10
4.235880
 20
3.646280
  0
VERTEX
  8
0
  6
CONTINUOUS
 10
4.233680
 20
2.908840
  0
VERTEX
  8
0
  6
CONTINUOUS
 10
4.199360
 20
2.871440
  0
SEQEND
  8
0
  0
SOLID
  8
0
 62
    15
 10
4.233680
 20
2.908840
 11
4.235880
 21
3.646280
 12
4.274160
 22
2.939200
 13
4.276360
 23
3.676640
  0
POLYLINE
  8
0
  6
CONTINUOUS
 66
     1
 40
0.000000
 41
0.000000
  0
VERTEX
  8
0
  6
CONTINUOUS
 10
4.233680
 20
2.908840
  0
VERTEX
  8
0
  6
CONTINUOUS
 10
4.235880
 20
3.646280
  0
VERTEX
  8
0
  6
CONTINUOUS
 10
4.276360
 20
3.676640
  0
VERTEX
  8
0
  6
CONTINUOUS
 10
4.274160
 20
2.939200
  0
VERTEX
  8
0
  6
CONTINUOUS
 10
4.233680
 20
2.908840
  0
SEQEND
  8
0
  0
SOLID
  8
0
 62
    15
 10
4.274160
 20
2.939200
 11
4.276360
 21
3.676640
 12
4.319480
 22
2.962520
 13
4.322120
 23
3.699960
  0
POLYLINE
  8
0
  6
CONTINUOUS
 66
     1
 40
0.000000
 41
0.000000
  0
VERTEX
  8
0
  6
CONTINUOUS
 10
4.274160
 20
2.939200
  0
VERTEX
  8
0
  6
CONTINUOUS
 10
4.276360
 20
3.676640
  0
VERTEX
  8
0
  6
CONTINUOUS
 10
4.322120
 20
3.699960
  0
VERTEX
  8
0
  6
CONTINUOUS
 10
4.319480
 20
2.962520
  0
VERTEX
  8
0
  6
CONTINUOUS
 10
4.274160
 20
2.939200
  0
SEQEND
  8
0
  0
SOLID
  8
0
 62
    15
 10
4.319480
 20
2.962520
 11
4.322120
 21
3.699960
 12
4.368320
 22
2.978800
 13
4.370520
 23
3.716240
  0
POLYLINE
  8
0
  6
CONTINUOUS
 66
     1
 40
0.000000
 41
0.000000
  0
VERTEX
  8
0
  6
CONTINUOUS
 10
4.319480
 20
2.962520
  0
VERTEX
  8
0
  6
CONTINUOUS
 10
4.322120
 20
3.699960
  0
VERTEX
  8
0
  6
CONTINUOUS
 10
4.370520
 20
3.716240
  0
VERTEX
  8
0
  6
CONTINUOUS
 10
4.368320
 20
2.978800
  0
VERTEX
  8
0
  6
CONTINUOUS
 10
4.319480
 20
2.962520
  0
SEQEND
  8
0
  0
SOLID
  8
0
 62
    15
 10
4.368320
 20
2.978800
 11
4.370520
 21
3.716240
 12
4.418480
 22
2.988480
 13
4.420680
 23
3.725920
  0
POLYLINE
  8
0
  6
CONTINUOUS
 66
     1
 40
0.000000
 41
0.000000
  0
VERTEX
  8
0
  6
CONTINUOUS
 10
4.368320
 20
2.978800
  0
VERTEX
  8
0
  6
CONTINUOUS
 10
4.370520
 20
3.716240
  0
VERTEX
  8
0
  6
CONTINUOUS
 10
4.420680
 20
3.725920
  0
VERTEX
  8
0
  6
CONTINUOUS
 10
4.418480
 20
2.988480
  0
VERTEX
  8
0
  6
CONTINUOUS
 10
4.368320
 20
2.978800
  0
SEQEND
  8
0
  0
SOLID
  8
0
 62
    15
 10
4.418480
 20
2.988480
 11
4.420680
 21
3.725920
 12
4.469080
 22
2.992000
 13
4.471280
 23
3.729000
  0
POLYLINE
  8
0
  6
CONTINUOUS
 66
     1
 40
0.000000
 41
0.000000
  0
VERTEX
  8
0
  6
CONTINUOUS
 10
4.418480
 20
2.988480
  0
VERTEX
  8
0
  6
CONTINUOUS
 10
4.420680
 20
3.725920
  0
VERTEX
  8
0
  6
CONTINUOUS
 10
4.471280
 20
3.729000
  0
VERTEX
  8
0
  6
CONTINUOUS
 10
4.469080
 20
2.992000
  0
VERTEX
  8
0
  6
CONTINUOUS
 10
4.418480
 20
2.988480
  0
SEQEND
  8
0
  0
SOLID
  8
0
 62
    15
 10
2.189000
 20
3.067680
 11
2.191200
 21
3.805120
 12
2.862200
 22
3.067680
 13
2.864400
 23
3.805120
  0
POLYLINE
  8
0
  6
CONTINUOUS
 66
     1
 40
0.000000
 41
0.000000
  0
VERTEX
  8
0
  6
CONTINUOUS
 10
2.189000
 20
3.067680
  0
VERTEX
  8
0
  6
CONTINUOUS
 10
2.191200
 20
3.805120
  0
VERTEX
  8
0
  6
CONTINUOUS
 10
2.864400
 20
3.805120
  0
VERTEX
  8
0
  6
CONTINUOUS
 10
2.862200
 20
3.067680
  0
VERTEX
  8
0
  6
CONTINUOUS
 10
2.189000
 20
3.067680
  0
SEQEND
  8
0
  0
SOLID
  8
0
 62
    15
 10
4.469080
 20
2.992000
 11
4.471280
 21
3.729440
 12
4.518360
 22
2.988480
 13
4.520560
 23
3.725920
  0
POLYLINE
  8
0
  6
CONTINUOUS
 66
     1
 40
0.000000
 41
0.000000
  0
VERTEX
  8
0
  6
CONTINUOUS
 10
4.469080
 20
2.992000
  0
VERTEX
  8
0
  6
CONTINUOUS
 10
4.471280
 20
3.729440
  0
VERTEX
  8
0
  6
CONTINUOUS
 10
4.520560
 20
3.725920
  0
VERTEX
  8
0
  6
CONTINUOUS
 10
4.518360
 20
2.988480
  0
VERTEX
  8
0
  6
CONTINUOUS
 10
4.469080
 20
2.992000
  0
SEQEND
  8
0
  0
SOLID
  8
0
 62
    15
 10
4.518360
 20
2.988480
 11
4.520560
 21
3.725920
 12
4.568080
 22
2.978800
 13
4.570280
 23
3.716240
  0
POLYLINE
  8
0
  6
CONTINUOUS
 66
     1
 40
0.000000
 41
0.000000
  0
VERTEX
  8
0
  6
CONTINUOUS
 10
4.518360
 20
2.988480
  0
VERTEX
  8
0
  6
CONTINUOUS
 10
4.520560
 20
3.725920
  0
VERTEX
  8
0
  6
CONTINUOUS
 10
4.570280
 20
3.716240
  0
VERTEX
  8
0
  6
CONTINUOUS
 10
4.568080
 20
2.978800
  0
VERTEX
  8
0
  6
CONTINUOUS
 10
4.518360
 20
2.988480
  0
SEQEND
  8
0
  0
SOLID
  8
0
 62
    15
 10
4.568080
 20
2.978800
 11
4.570280
 21
3.716240
 12
4.616040
 22
2.962520
 13
4.618240
 23
3.699960
  0
POLYLINE
  8
0
  6
CONTINUOUS
 66
     1
 40
0.000000
 41
0.000000
  0
VERTEX
  8
0
  6
CONTINUOUS
 10
4.568080
 20
2.978800
  0
VERTEX
  8
0
  6
CONTINUOUS
 10
4.570280
 20
3.716240
  0
VERTEX
  8
0
  6
CONTINUOUS
 10
4.618240
 20
3.699960
  0
VERTEX
  8
0
  6
CONTINUOUS
 10
4.616040
 20
2.962520
  0
VERTEX
  8
0
  6
CONTINUOUS
 10
4.568080
 20
2.978800
  0
SEQEND
  8
0
  0
SOLID
  8
0
 62
    15
 10
4.616040
 20
2.962520
 11
4.618240
 21
3.699960
 12
4.661360
 22
2.939200
 13
4.663560
 23
3.676640
  0
POLYLINE
  8
0
  6
CONTINUOUS
 66
     1
 40
0.000000
 41
0.000000
  0
VERTEX
  8
0
  6
CONTINUOUS
 10
4.616040
 20
2.962520
  0
VERTEX
  8
0
  6
CONTINUOUS
 10
4.618240
 20
3.699960
  0
VERTEX
  8
0
  6
CONTINUOUS
 10
4.663560
 20
3.676640
  0
VERTEX
  8
0
  6
CONTINUOUS
 10
4.661360
 20
2.939200
  0
VERTEX
  8
0
  6
CONTINUOUS
 10
4.616040
 20
2.962520
  0
SEQEND
  8
0
  0
SOLID
  8
0
 62
    15
 10
4.661360
 20
2.939200
 11
4.663560
 21
3.676640
 12
4.702280
 22
2.909280
 13
4.704480
 23
3.646720
  0
POLYLINE
  8
0
  6
CONTINUOUS
 66
     1
 40
0.000000
 41
0.000000
  0
VERTEX
  8
0
  6
CONTINUOUS
 10
4.661360
 20
2.939200
  0
VERTEX
  8
0
  6
CONTINUOUS
 10
4.663560
 20
3.676640
  0
VERTEX
  8
0
  6
CONTINUOUS
 10
4.704480
 20
3.646720
  0
VERTEX
  8
0
  6
CONTINUOUS
 10
4.702280
 20
2.909280
  0
VERTEX
  8
0
  6
CONTINUOUS
 10
4.661360
 20
2.939200
  0
SEQEND
  8
0
  0
SOLID
  8
0
 62
    15
 10
4.702280
 20
2.909280
 11
4.704480
 21
3.646720
 12
4.736600
 22
2.871880
 13
4.738800
 23
3.609320
  0
POLYLINE
  8
0
  6
CONTINUOUS
 66
     1
 40
0.000000
 41
0.000000
  0
VERTEX
  8
0
  6
CONTINUOUS
 10
4.702280
 20
2.909280
  0
VERTEX
  8
0
  6
CONTINUOUS
 10
4.704480
 20
3.646720
  0
VERTEX
  8
0
  6
CONTINUOUS
 10
4.738800
 20
3.609320
  0
VERTEX
  8
0
  6
CONTINUOUS
 10
4.736600
 20
2.871880
  0
VERTEX
  8
0
  6
CONTINUOUS
 10
4.702280
 20
2.909280
  0
SEQEND
  8
0
  0
SOLID
  8
0
 62
    15
 10
4.736600
 20
2.871880
 11
4.738800
 21
3.609320
 12
4.763440
 22
2.827000
 13
4.765640
 23
3.564440
  0
POLYLINE
  8
0
  6
CONTINUOUS
 66
     1
 40
0.000000
 41
0.000000
  0
VERTEX
  8
0
  6
CONTINUOUS
 10
4.736600
 20
2.871880
  0
VERTEX
  8
0
  6
CONTINUOUS
 10
4.738800
 20
3.609320
  0
VERTEX
  8
0
  6
CONTINUOUS
 10
4.765640
 20
3.564440
  0
VERTEX
  8
0
  6
CONTINUOUS
 10
4.763440
 20
2.827000
  0
VERTEX
  8
0
  6
CONTINUOUS
 10
4.736600
 20
2.871880
  0
SEQEND
  8
0
  0
SOLID
  8
0
 62
    15
 10
4.763440
 20
2.827000
 11
4.765640
 21
3.564440
 12
4.781040
 22
2.774640
 13
4.783240
 23
3.512080
  0
POLYLINE
  8
0
  6
CONTINUOUS
 66
     1
 40
0.000000
 41
0.000000
  0
VERTEX
  8
0
  6
CONTINUOUS
 10
4.763440
 20
2.827000
  0
VERTEX
  8
0
  6
CONTINUOUS
 10
4.765640
 20
3.564440
  0
VERTEX
  8
0
  6
CONTINUOUS
 10
4.783240
 20
3.512080
  0
VERTEX
  8
0
  6
CONTINUOUS
 10
4.781040
 20
2.774640
  0
VERTEX
  8
0
  6
CONTINUOUS
 10
4.763440
 20
2.827000
  0
SEQEND
  8
0
  0
SOLID
  8
0
 62
    15
 10
4.781040
 20
2.774640
 11
4.783240
 21
3.512080
 12
4.829000
 22
2.814240
 13
4.831200
 23
3.551680
  0
POLYLINE
  8
0
  6
CONTINUOUS
 66
     1
 40
0.000000
 41
0.000000
  0
VERTEX
  8
0
  6
CONTINUOUS
 10
4.781040
 20
2.774640
  0
VERTEX
  8
0
  6
CONTINUOUS
 10
4.783240
 20
3.512080
  0
VERTEX
  8
0
  6
CONTINUOUS
 10
4.831200
 20
3.551680
  0
VERTEX
  8
0
  6
CONTINUOUS
 10
4.829000
 20
2.814240
  0
VERTEX
  8
0
  6
CONTINUOUS
 10
4.781040
 20
2.774640
  0
SEQEND
  8
0
  0
SOLID
  8
0
 62
    15
 10
4.829000
 20
2.814240
 11
4.831200
 21
3.551680
 12
4.853200
 22
2.829200
 13
4.855840
 23
3.566640
  0
POLYLINE
  8
0
  6
CONTINUOUS
 66
     1
 40
0.000000
 41
0.000000
  0
VERTEX
  8
0
  6
CONTINUOUS
 10
4.829000
 20
2.814240
  0
VERTEX
  8
0
  6
CONTINUOUS
 10
4.831200
 20
3.551680
  0
VERTEX
  8
0
  6
CONTINUOUS
 10
4.855840
 20
3.566640
  0
VERTEX
  8
0
  6
CONTINUOUS
 10
4.853200
 20
2.829200
  0
VERTEX
  8
0
  6
CONTINUOUS
 10
4.829000
 20
2.814240
  0
SEQEND
  8
0
  0
SOLID
  8
0
 62
    15
 10
4.853200
 20
2.829200
 11
4.855840
 21
3.566640
 12
4.876520
 22
2.836240
 13
4.878720
 23
3.573240
  0
POLYLINE
  8
0
  6
CONTINUOUS
 66
     1
 40
0.000000
 41
0.000000
  0
VERTEX
  8
0
  6
CONTINUOUS
 10
4.853200
 20
2.829200
  0
VERTEX
  8
0
  6
CONTINUOUS
 10
4.855840
 20
3.566640
  0
VERTEX
  8
0
  6
CONTINUOUS
 10
4.878720
 20
3.573240
  0
VERTEX
  8
0
  6
CONTINUOUS
 10
4.876520
 20
2.836240
  0
VERTEX
  8
0
  6
CONTINUOUS
 10
4.853200
 20
2.829200
  0
SEQEND
  8
0
  0
SOLID
  8
0
 62
    15
 10
4.876520
 20
2.836240
 11
4.878720
 21
3.573240
 12
4.897640
 22
2.835360
 13
4.899840
 23
3.572800
  0
POLYLINE
  8
0
  6
CONTINUOUS
 66
     1
 40
0.000000
 41
0.000000
  0
VERTEX
  8
0
  6
CONTINUOUS
 10
4.876520
 20
2.836240
  0
VERTEX
  8
0
  6
CONTINUOUS
 10
4.878720
 20
3.573240
  0
VERTEX
  8
0
  6
CONTINUOUS
 10
4.899840
 20
3.572800
  0
VERTEX
  8
0
  6
CONTINUOUS
 10
4.897640
 20
2.835360
  0
VERTEX
  8
0
  6
CONTINUOUS
 10
4.876520
 20
2.836240
  0
SEQEND
  8
0
  0
SOLID
  8
0
 62
    15
 10
4.897640
 20
2.835360
 11
4.899840
 21
3.572800
 12
4.916120
 22
2.827440
 13
4.918760
 23
3.564440
  0
POLYLINE
  8
0
  6
CONTINUOUS
 66
     1
 40
0.000000
 41
0.000000
  0
VERTEX
  8
0
  6
CONTINUOUS
 10
4.897640
 20
2.835360
  0
VERTEX
  8
0
  6
CONTINUOUS
 10
4.899840
 20
3.572800
  0
VERTEX
  8
0
  6
CONTINUOUS
 10
4.918760
 20
3.564440
  0
VERTEX
  8
0
  6
CONTINUOUS
 10
4.916120
 20
2.827440
  0
VERTEX
  8
0
  6
CONTINUOUS
 10
4.897640
 20
2.835360
  0
SEQEND
  8
0
  0
SOLID
  8
0
 62
    15
 10
4.916120
 20
2.827440
 11
4.918760
 21
3.564440
 12
4.931520
 22
2.812040
 13
4.933720
 23
3.549040
  0
POLYLINE
  8
0
  6
CONTINUOUS
 66
     1
 40
0.000000
 41
0.000000
  0
VERTEX
  8
0
  6
CONTINUOUS
 10
4.916120
 20
2.827440
  0
VERTEX
  8
0
  6
CONTINUOUS
 10
4.918760
 20
3.564440
  0
VERTEX
  8
0
  6
CONTINUOUS
 10
4.933720
 20
3.549040
  0
VERTEX
  8
0
  6
CONTINUOUS
 10
4.931520
 20
2.812040
  0
VERTEX
  8
0
  6
CONTINUOUS
 10
4.916120
 20
2.827440
  0
SEQEND
  8
0
  0
SOLID
  8
0
 62
    15
 10
4.931520
 20
2.812040
 11
4.933720
 21
3.549040
 12
4.942960
 22
2.789160
 13
4.945160
 23
3.526600
  0
POLYLINE
  8
0
  6
CONTINUOUS
 66
     1
 40
0.000000
 41
0.000000
  0
VERTEX
  8
0
  6
CONTINUOUS
 10
4.931520
 20
2.812040
  0
VERTEX
  8
0
  6
CONTINUOUS
 10
4.933720
 20
3.549040
  0
VERTEX
  8
0
  6
CONTINUOUS
 10
4.945160
 20
3.526600
  0
VERTEX
  8
0
  6
CONTINUOUS
 10
4.942960
 20
2.789160
  0
VERTEX
  8
0
  6
CONTINUOUS
 10
4.931520
 20
2.812040
  0
SEQEND
  8
0
  0
SOLID
  8
0
 62
    15
 10
4.951320
 20
2.723160
 11
4.953960
 21
3.460600
 12
5.019520
 22
2.723160
 13
5.021720
 23
3.460600
  0
POLYLINE
  8
0
  6
CONTINUOUS
 66
     1
 40
0.000000
 41
0.000000
  0
VERTEX
  8
0
  6
CONTINUOUS
 10
4.951320
 20
2.723160
  0
VERTEX
  8
0
  6
CONTINUOUS
 10
4.953960
 20
3.460600
  0
VERTEX
  8
0
  6
CONTINUOUS
 10
5.021720
 20
3.460600
  0
VERTEX
  8
0
  6
CONTINUOUS
 10
5.019520
 20
2.723160
  0
VERTEX
  8
0
  6
CONTINUOUS
 10
4.951320
 20
2.723160
  0
SEQEND
  8
0
  0
SOLID
  8
0
 62
    15
 10
4.950000
 20
2.759680
 11
4.952200
 21
3.497120
 12
4.951320
 22
2.723160
 13
4.953960
 23
3.460600
  0
POLYLINE
  8
0
  6
CONTINUOUS
 66
     1
 40
0.000000
 41
0.000000
  0
VERTEX
  8
0
  6
CONTINUOUS
 10
4.950000
 20
2.759680
  0
VERTEX
  8
0
  6
CONTINUOUS
 10
4.952200
 20
3.497120
  0
VERTEX
  8
0
  6
CONTINUOUS
 10
4.953960
 20
3.460600
  0
VERTEX
  8
0
  6
CONTINUOUS
 10
4.951320
 20
2.723160
  0
VERTEX
  8
0
  6
CONTINUOUS
 10
4.950000
 20
2.759680
  0
SEQEND
  8
0
  0
SOLID
  8
0
 62
    15
 10
4.942960
 20
2.789160
 11
4.945160
 21
3.526600
 12
4.950000
 22
2.759680
 13
4.952200
 23
3.497120
  0
POLYLINE
  8
0
  6
CONTINUOUS
 66
     1
 40
0.000000
 41
0.000000
  0
VERTEX
  8
0
  6
CONTINUOUS
 10
4.942960
 20
2.789160
  0
VERTEX
  8
0
  6
CONTINUOUS
 10
4.945160
 20
3.526600
  0
VERTEX
  8
0
  6
CONTINUOUS
 10
4.952200
 20
3.497120
  0
VERTEX
  8
0
  6
CONTINUOUS
 10
4.950000
 20
2.759680
  0
VERTEX
  8
0
  6
CONTINUOUS
 10
4.942960
 20
2.789160
  0
SEQEND
  8
0
  0
SOLID
  8
0
 62
    15
 10
5.019520
 20
2.723160
 11
5.021720
 21
3.460600
 12
5.025680
 22
2.682680
 13
5.027880
 23
3.420120
  0
POLYLINE
  8
0
  6
CONTINUOUS
 66
     1
 40
0.000000
 41
0.000000
  0
VERTEX
  8
0
  6
CONTINUOUS
 10
5.019520
 20
2.723160
  0
VERTEX
  8
0
  6
CONTINUOUS
 10
5.021720
 20
3.460600
  0
VERTEX
  8
0
  6
CONTINUOUS
 10
5.027880
 20
3.420120
  0
VERTEX
  8
0
  6
CONTINUOUS
 10
5.025680
 20
2.682680
  0
VERTEX
  8
0
  6
CONTINUOUS
 10
5.019520
 20
2.723160
  0
SEQEND
  8
0
  0
SOLID
  8
0
 62
    15
 10
5.025680
 20
2.682680
 11
5.027880
 21
3.420120
 12
5.039320
 22
2.647920
 13
5.041520
 23
3.384920
  0
POLYLINE
  8
0
  6
CONTINUOUS
 66
     1
 40
0.000000
 41
0.000000
  0
VERTEX
  8
0
  6
CONTINUOUS
 10
5.025680
 20
2.682680
  0
VERTEX
  8
0
  6
CONTINUOUS
 10
5.027880
 20
3.420120
  0
VERTEX
  8
0
  6
CONTINUOUS
 10
5.041520
 20
3.384920
  0
VERTEX
  8
0
  6
CONTINUOUS
 10
5.039320
 20
2.647920
  0
VERTEX
  8
0
  6
CONTINUOUS
 10
5.025680
 20
2.682680
  0
SEQEND
  8
0
  0
SOLID
  8
0
 62
    15
 10
5.039320
 20
2.647920
 11
5.041520
 21
3.384920
 12
5.059120
 22
2.618440
 13
5.061320
 23
3.355880
  0
POLYLINE
  8
0
  6
CONTINUOUS
 66
     1
 40
0.000000
 41
0.000000
  0
VERTEX
  8
0
  6
CONTINUOUS
 10
5.039320
 20
2.647920
  0
VERTEX
  8
0
  6
CONTINUOUS
 10
5.041520
 20
3.384920
  0
VERTEX
  8
0
  6
CONTINUOUS
 10
5.061320
 20
3.355880
  0
VERTEX
  8
0
  6
CONTINUOUS
 10
5.059120
 20
2.618440
  0
VERTEX
  8
0
  6
CONTINUOUS
 10
5.039320
 20
2.647920
  0
SEQEND
  8
0
  0
SOLID
  8
0
 62
    15
 10
5.059120
 20
2.618440
 11
5.061320
 21
3.355880
 12
5.083760
 22
2.594680
 13
5.085960
 23
3.332120
  0
POLYLINE
  8
0
  6
CONTINUOUS
 66
     1
 40
0.000000
 41
0.000000
  0
VERTEX
  8
0
  6
CONTINUOUS
 10
5.059120
 20
2.618440
  0
VERTEX
  8
0
  6
CONTINUOUS
 10
5.061320
 20
3.355880
  0
VERTEX
  8
0
  6
CONTINUOUS
 10
5.085960
 20
3.332120
  0
VERTEX
  8
0
  6
CONTINUOUS
 10
5.083760
 20
2.594680
  0
VERTEX
  8
0
  6
CONTINUOUS
 10
5.059120
 20
2.618440
  0
SEQEND
  8
0
  0
SOLID
  8
0
 62
    15
 10
5.083760
 20
2.594680
 11
5.085960
 21
3.332120
 12
5.113240
 22
2.576640
 13
5.115440
 23
3.314080
  0
POLYLINE
  8
0
  6
CONTINUOUS
 66
     1
 40
0.000000
 41
0.000000
  0
VERTEX
  8
0
  6
CONTINUOUS
 10
5.083760
 20
2.594680
  0
VERTEX
  8
0
  6
CONTINUOUS
 10
5.085960
 20
3.332120
  0
VERTEX
  8
0
  6
CONTINUOUS
 10
5.115440
 20
3.314080
  0
VERTEX
  8
0
  6
CONTINUOUS
 10
5.113240
 20
2.576640
  0
VERTEX
  8
0
  6
CONTINUOUS
 10
5.083760
 20
2.594680
  0
SEQEND
  8
0
  0
SOLID
  8
0
 62
    15
 10
5.113240
 20
2.576640
 11
5.115440
 21
3.314080
 12
5.145360
 22
2.564320
 13
5.147560
 23
3.301320
  0
POLYLINE
  8
0
  6
CONTINUOUS
 66
     1
 40
0.000000
 41
0.000000
  0
VERTEX
  8
0
  6
CONTINUOUS
 10
5.113240
 20
2.576640
  0
VERTEX
  8
0
  6
CONTINUOUS
 10
5.115440
 20
3.314080
  0
VERTEX
  8
0
  6
CONTINUOUS
 10
5.147560
 20
3.301320
  0
VERTEX
  8
0
  6
CONTINUOUS
 10
5.145360
 20
2.564320
  0
VERTEX
  8
0
  6
CONTINUOUS
 10
5.113240
 20
2.576640
  0
SEQEND
  8
0
  0
SOLID
  8
0
 62
    15
 10
5.145360
 20
2.564320
 11
5.147560
 21
3.301320
 12
5.179680
 22
2.557280
 13
5.181880
 23
3.294280
  0
POLYLINE
  8
0
  6
CONTINUOUS
 66
     1
 40
0.000000
 41
0.000000
  0
VERTEX
  8
0
  6
CONTINUOUS
 10
5.145360
 20
2.564320
  0
VERTEX
  8
0
  6
CONTINUOUS
 10
5.147560
 20
3.301320
  0
VERTEX
  8
0
  6
CONTINUOUS
 10
5.181880
 20
3.294280
  0
VERTEX
  8
0
  6
CONTINUOUS
 10
5.179680
 20
2.557280
  0
VERTEX
  8
0
  6
CONTINUOUS
 10
5.145360
 20
2.564320
  0
SEQEND
  8
0
  0
SOLID
  8
0
 62
    15
 10
5.179680
 20
2.557280
 11
5.181880
 21
3.294280
 12
5.215320
 22
2.555520
 13
5.217960
 23
3.292960
  0
POLYLINE
  8
0
  6
CONTINUOUS
 66
     1
 40
0.000000
 41
0.000000
  0
VERTEX
  8
0
  6
CONTINUOUS
 10
5.179680
 20
2.557280
  0
VERTEX
  8
0
  6
CONTINUOUS
 10
5.181880
 20
3.294280
  0
VERTEX
  8
0
  6
CONTINUOUS
 10
5.217960
 20
3.292960
  0
VERTEX
  8
0
  6
CONTINUOUS
 10
5.215320
 20
2.555520
  0
VERTEX
  8
0
  6
CONTINUOUS
 10
5.179680
 20
2.557280
  0
SEQEND
  8
0
  0
SOLID
  8
0
 62
    15
 10
5.215320
 20
2.555520
 11
5.217960
 21
3.292960
 12
5.251400
 22
2.559480
 13
5.253600
 23
3.296920
  0
POLYLINE
  8
0
  6
CONTINUOUS
 66
     1
 40
0.000000
 41
0.000000
  0
VERTEX
  8
0
  6
CONTINUOUS
 10
5.215320
 20
2.555520
  0
VERTEX
  8
0
  6
CONTINUOUS
 10
5.217960
 20
3.292960
  0
VERTEX
  8
0
  6
CONTINUOUS
 10
5.253600
 20
3.296920
  0
VERTEX
  8
0
  6
CONTINUOUS
 10
5.251400
 20
2.559480
  0
VERTEX
  8
0
  6
CONTINUOUS
 10
5.215320
 20
2.555520
  0
SEQEND
  8
0
  0
SOLID
  8
0
 62
    15
 10
5.251400
 20
2.559480
 11
5.253600
 21
3.296920
 12
5.286160
 22
2.569160
 13
5.288360
 23
3.306600
  0
POLYLINE
  8
0
  6
CONTINUOUS
 66
     1
 40
0.000000
 41
0.000000
  0
VERTEX
  8
0
  6
CONTINUOUS
 10
5.251400
 20
2.559480
  0
VERTEX
  8
0
  6
CONTINUOUS
 10
5.253600
 20
3.296920
  0
VERTEX
  8
0
  6
CONTINUOUS
 10
5.288360
 20
3.306600
  0
VERTEX
  8
0
  6
CONTINUOUS
 10
5.286160
 20
2.569160
  0
VERTEX
  8
0
  6
CONTINUOUS
 10
5.251400
 20
2.559480
  0
SEQEND
  8
0
  0
SOLID
  8
0
 62
    15
 10
5.286160
 20
2.569160
 11
5.288360
 21
3.306600
 12
5.319160
 22
2.583680
 13
5.321360
 23
3.321120
  0
POLYLINE
  8
0
  6
CONTINUOUS
 66
     1
 40
0.000000
 41
0.000000
  0
VERTEX
  8
0
  6
CONTINUOUS
 10
5.286160
 20
2.569160
  0
VERTEX
  8
0
  6
CONTINUOUS
 10
5.288360
 20
3.306600
  0
VERTEX
  8
0
  6
CONTINUOUS
 10
5.321360
 20
3.321120
  0
VERTEX
  8
0
  6
CONTINUOUS
 10
5.319160
 20
2.583680
  0
VERTEX
  8
0
  6
CONTINUOUS
 10
5.286160
 20
2.569160
  0
SEQEND
  8
0
  0
SOLID
  8
0
 62
    15
 10
5.319160
 20
2.583680
 11
5.321360
 21
3.321120
 12
5.349520
 22
2.603920
 13
5.351720
 23
3.341360
  0
POLYLINE
  8
0
  6
CONTINUOUS
 66
     1
 40
0.000000
 41
0.000000
  0
VERTEX
  8
0
  6
CONTINUOUS
 10
5.319160
 20
2.583680
  0
VERTEX
  8
0
  6
CONTINUOUS
 10
5.321360
 20
3.321120
  0
VERTEX
  8
0
  6
CONTINUOUS
 10
5.351720
 20
3.341360
  0
VERTEX
  8
0
  6
CONTINUOUS
 10
5.349520
 20
2.603920
  0
VERTEX
  8
0
  6
CONTINUOUS
 10
5.319160
 20
2.583680
  0
SEQEND
  8
0
  0
SOLID
  8
0
 62
    15
 10
5.349520
 20
2.603920
 11
5.351720
 21
3.341360
 12
5.375920
 22
2.629440
 13
5.378120
 23
3.366880
  0
POLYLINE
  8
0
  6
CONTINUOUS
 66
     1
 40
0.000000
 41
0.000000
  0
VERTEX
  8
0
  6
CONTINUOUS
 10
5.349520
 20
2.603920
  0
VERTEX
  8
0
  6
CONTINUOUS
 10
5.351720
 20
3.341360
  0
VERTEX
  8
0
  6
CONTINUOUS
 10
5.378120
 20
3.366880
  0
VERTEX
  8
0
  6
CONTINUOUS
 10
5.375920
 20
2.629440
  0
VERTEX
  8
0
  6
CONTINUOUS
 10
5.349520
 20
2.603920
  0
SEQEND
  8
0
  0
SOLID
  8
0
 62
    15
 10
5.375920
 20
2.629440
 11
5.378120
 21
3.366880
 12
5.397040
 22
2.660680
 13
5.399240
 23
3.397680
  0
POLYLINE
  8
0
  6
CONTINUOUS
 66
     1
 40
0.000000
 41
0.000000
  0
VERTEX
  8
0
  6
CONTINUOUS
 10
5.375920
 20
2.629440
  0
VERTEX
  8
0
  6
CONTINUOUS
 10
5.378120
 20
3.366880
  0
VERTEX
  8
0
  6
CONTINUOUS
 10
5.399240
 20
3.397680
  0
VERTEX
  8
0
  6
CONTINUOUS
 10
5.397040
 20
2.660680
  0
VERTEX
  8
0
  6
CONTINUOUS
 10
5.375920
 20
2.629440
  0
SEQEND
  8
0
  0
SOLID
  8
0
 62
    15
 10
5.397040
 20
2.660680
 11
5.399240
 21
3.397680
 12
5.412440
 22
2.696760
 13
5.414640
 23
3.434200
  0
POLYLINE
  8
0
  6
CONTINUOUS
 66
     1
 40
0.000000
 41
0.000000
  0
VERTEX
  8
0
  6
CONTINUOUS
 10
5.397040
 20
2.660680
  0
VERTEX
  8
0
  6
CONTINUOUS
 10
5.399240
 20
3.397680
  0
VERTEX
  8
0
  6
CONTINUOUS
 10
5.414640
 20
3.434200
  0
VERTEX
  8
0
  6
CONTINUOUS
 10
5.412440
 20
2.696760
  0
VERTEX
  8
0
  6
CONTINUOUS
 10
5.397040
 20
2.660680
  0
SEQEND
  8
0
  0
SOLID
  8
0
 62
    15
 10
5.412440
 20
2.696760
 11
5.414640
 21
3.434200
 12
5.420800
 22
2.738120
 13
5.423440
 23
3.475560
  0
POLYLINE
  8
0
  6
CONTINUOUS
 66
     1
 40
0.000000
 41
0.000000
  0
VERTEX
  8
0
  6
CONTINUOUS
 10
5.412440
 20
2.696760
  0
VERTEX
  8
0
  6
CONTINUOUS
 10
5.414640
 20
3.434200
  0
VERTEX
  8
0
  6
CONTINUOUS
 10
5.423440
 20
3.475560
  0
VERTEX
  8
0
  6
CONTINUOUS
 10
5.420800
 20
2.738120
  0
VERTEX
  8
0
  6
CONTINUOUS
 10
5.412440
 20
2.696760
  0
SEQEND
  8
0
  0
SOLID
  8
0
 62
    15
 10
5.420800
 20
2.738120
 11
5.423440
 21
3.475560
 12
5.480640
 22
2.738120
 13
5.482840
 23
3.475560
  0
POLYLINE
  8
0
  6
CONTINUOUS
 66
     1
 40
0.000000
 41
0.000000
  0
VERTEX
  8
0
  6
CONTINUOUS
 10
5.420800
 20
2.738120
  0
VERTEX
  8
0
  6
CONTINUOUS
 10
5.423440
 20
3.475560
  0
VERTEX
  8
0
  6
CONTINUOUS
 10
5.482840
 20
3.475560
  0
VERTEX
  8
0
  6
CONTINUOUS
 10
5.480640
 20
2.738120
  0
VERTEX
  8
0
  6
CONTINUOUS
 10
5.420800
 20
2.738120
  0
SEQEND
  8
0
  0
SOLID
  8
0
 62
    15
 10
5.480640
 20
2.738120
 11
5.482840
 21
3.475560
 12
5.493840
 22
2.772880
 13
5.496040
 23
3.510320
  0
POLYLINE
  8
0
  6
CONTINUOUS
 66
     1
 40
0.000000
 41
0.000000
  0
VERTEX
  8
0
  6
CONTINUOUS
 10
5.480640
 20
2.738120
  0
VERTEX
  8
0
  6
CONTINUOUS
 10
5.482840
 20
3.475560
  0
VERTEX
  8
0
  6
CONTINUOUS
 10
5.496040
 20
3.510320
  0
VERTEX
  8
0
  6
CONTINUOUS
 10
5.493840
 20
2.772880
  0
VERTEX
  8
0
  6
CONTINUOUS
 10
5.480640
 20
2.738120
  0
SEQEND
  8
0
  0
SOLID
  8
0
 62
    15
 10
5.493840
 20
2.772880
 11
5.496040
 21
3.510320
 12
5.514080
 22
2.798400
 13
5.516280
 23
3.535840
  0
POLYLINE
  8
0
  6
CONTINUOUS
 66
     1
 40
0.000000
 41
0.000000
  0
VERTEX
  8
0
  6
CONTINUOUS
 10
5.493840
 20
2.772880
  0
VERTEX
  8
0
  6
CONTINUOUS
 10
5.496040
 20
3.510320
  0
VERTEX
  8
0
  6
CONTINUOUS
 10
5.516280
 20
3.535840
  0
VERTEX
  8
0
  6
CONTINUOUS
 10
5.514080
 20
2.798400
  0
VERTEX
  8
0
  6
CONTINUOUS
 10
5.493840
 20
2.772880
  0
SEQEND
  8
0
  0
SOLID
  8
0
 62
    15
 10
5.514080
 20
2.798400
 11
5.516280
 21
3.535840
 12
5.538720
 22
2.815120
 13
5.540920
 23
3.552560
  0
POLYLINE
  8
0
  6
CONTINUOUS
 66
     1
 40
0.000000
 41
0.000000
  0
VERTEX
  8
0
  6
CONTINUOUS
 10
5.514080
 20
2.798400
  0
VERTEX
  8
0
  6
CONTINUOUS
 10
5.516280
 20
3.535840
  0
VERTEX
  8
0
  6
CONTINUOUS
 10
5.540920
 20
3.552560
  0
VERTEX
  8
0
  6
CONTINUOUS
 10
5.538720
 20
2.815120
  0
VERTEX
  8
0
  6
CONTINUOUS
 10
5.514080
 20
2.798400
  0
SEQEND
  8
0
  0
SOLID
  8
0
 62
    15
 10
5.538720
 20
2.815120
 11
5.540920
 21
3.552560
 12
5.566000
 22
2.822160
 13
5.568200
 23
3.559600
  0
POLYLINE
  8
0
  6
CONTINUOUS
 66
     1
 40
0.000000
 41
0.000000
  0
VERTEX
  8
0
  6
CONTINUOUS
 10
5.538720
 20
2.815120
  0
VERTEX
  8
0
  6
CONTINUOUS
 10
5.540920
 20
3.552560
  0
VERTEX
  8
0
  6
CONTINUOUS
 10
5.568200
 20
3.559600
  0
VERTEX
  8
0
  6
CONTINUOUS
 10
5.566000
 20
2.822160
  0
VERTEX
  8
0
  6
CONTINUOUS
 10
5.538720
 20
2.815120
  0
SEQEND
  8
0
  0
SOLID
  8
0
 62
    15
 10
5.566000
 20
2.822160
 11
5.568200
 21
3.559600
 12
5.593720
 22
2.819960
 13
5.595920
 23
3.557400
  0
POLYLINE
  8
0
  6
CONTINUOUS
 66
     1
 40
0.000000
 41
0.000000
  0
VERTEX
  8
0
  6
CONTINUOUS
 10
5.566000
 20
2.822160
  0
VERTEX
  8
0
  6
CONTINUOUS
 10
5.568200
 20
3.559600
  0
VERTEX
  8
0
  6
CONTINUOUS
 10
5.595920
 20
3.557400
  0
VERTEX
  8
0
  6
CONTINUOUS
 10
5.593720
 20
2.819960
  0
VERTEX
  8
0
  6
CONTINUOUS
 10
5.566000
 20
2.822160
  0
SEQEND
  8
0
  0
SOLID
  8
0
 62
    15
 10
5.593720
 20
2.819960
 11
5.595920
 21
3.557400
 12
5.618800
 22
2.808080
 13
5.621000
 23
3.545520
  0
POLYLINE
  8
0
  6
CONTINUOUS
 66
     1
 40
0.000000
 41
0.000000
  0
VERTEX
  8
0
  6
CONTINUOUS
 10
5.593720
 20
2.819960
  0
VERTEX
  8
0
  6
CONTINUOUS
 10
5.595920
 20
3.557400
  0
VERTEX
  8
0
  6
CONTINUOUS
 10
5.621000
 20
3.545520
  0
VERTEX
  8
0
  6
CONTINUOUS
 10
5.618800
 20
2.808080
  0
VERTEX
  8
0
  6
CONTINUOUS
 10
5.593720
 20
2.819960
  0
SEQEND
  8
0
  0
SOLID
  8
0
 62
    15
 10
5.618800
 20
2.808080
 11
5.621000
 21
3.545520
 12
5.639480
 22
2.786520
 13
5.641680
 23
3.523960
  0
POLYLINE
  8
0
  6
CONTINUOUS
 66
     1
 40
0.000000
 41
0.000000
  0
VERTEX
  8
0
  6
CONTINUOUS
 10
5.618800
 20
2.808080
  0
VERTEX
  8
0
  6
CONTINUOUS
 10
5.621000
 20
3.545520
  0
VERTEX
  8
0
  6
CONTINUOUS
 10
5.641680
 20
3.523960
  0
VERTEX
  8
0
  6
CONTINUOUS
 10
5.639480
 20
2.786520
  0
VERTEX
  8
0
  6
CONTINUOUS
 10
5.618800
 20
2.808080
  0
SEQEND
  8
0
  0
SOLID
  8
0
 62
    15
 10
5.639480
 20
2.786520
 11
5.641680
 21
3.523960
 12
5.653560
 22
2.754840
 13
5.655760
 23
3.492280
  0
POLYLINE
  8
0
  6
CONTINUOUS
 66
     1
 40
0.000000
 41
0.000000
  0
VERTEX
  8
0
  6
CONTINUOUS
 10
5.639480
 20
2.786520
  0
VERTEX
  8
0
  6
CONTINUOUS
 10
5.641680
 20
3.523960
  0
VERTEX
  8
0
  6
CONTINUOUS
 10
5.655760
 20
3.492280
  0
VERTEX
  8
0
  6
CONTINUOUS
 10
5.653560
 20
2.754840
  0
VERTEX
  8
0
  6
CONTINUOUS
 10
5.639480
 20
2.786520
  0
SEQEND
  8
0
  0
SOLID
  8
0
 62
    15
 10
5.653560
 20
2.754840
 11
5.655760
 21
3.492280
 12
5.668520
 22
2.754840
 13
5.670720
 23
3.492280
  0
POLYLINE
  8
0
  6
CONTINUOUS
 66
     1
 40
0.000000
 41
0.000000
  0
VERTEX
  8
0
  6
CONTINUOUS
 10
5.653560
 20
2.754840
  0
VERTEX
  8
0
  6
CONTINUOUS
 10
5.655760
 20
3.492280
  0
VERTEX
  8
0
  6
CONTINUOUS
 10
5.670720
 20
3.492280
  0
VERTEX
  8
0
  6
CONTINUOUS
 10
5.668520
 20
2.754840
  0
VERTEX
  8
0
  6
CONTINUOUS
 10
5.653560
 20
2.754840
  0
SEQEND
  8
0
  0
SOLID
  8
0
 62
    15
 10
5.668520
 20
2.754840
 11
5.670720
 21
3.492280
 12
5.679520
 22
2.793560
 13
5.681720
 23
3.531000
  0
POLYLINE
  8
0
  6
CONTINUOUS
 66
     1
 40
0.000000
 41
0.000000
  0
VERTEX
  8
0
  6
CONTINUOUS
 10
5.668520
 20
2.754840
  0
VERTEX
  8
0
  6
CONTINUOUS
 10
5.670720
 20
3.492280
  0
VERTEX
  8
0
  6
CONTINUOUS
 10
5.681720
 20
3.531000
  0
VERTEX
  8
0
  6
CONTINUOUS
 10
5.679520
 20
2.793560
  0
VERTEX
  8
0
  6
CONTINUOUS
 10
5.668520
 20
2.754840
  0
SEQEND
  8
0
  0
SOLID
  8
0
 62
    15
 10
5.679520
 20
2.793560
 11
5.681720
 21
3.531000
 12
5.694480
 22
2.827880
 13
5.696680
 23
3.565320
  0
POLYLINE
  8
0
  6
CONTINUOUS
 66
     1
 40
0.000000
 41
0.000000
  0
VERTEX
  8
0
  6
CONTINUOUS
 10
5.679520
 20
2.793560
  0
VERTEX
  8
0
  6
CONTINUOUS
 10
5.681720
 20
3.531000
  0
VERTEX
  8
0
  6
CONTINUOUS
 10
5.696680
 20
3.565320
  0
VERTEX
  8
0
  6
CONTINUOUS
 10
5.694480
 20
2.827880
  0
VERTEX
  8
0
  6
CONTINUOUS
 10
5.679520
 20
2.793560
  0
SEQEND
  8
0
  0
SOLID
  8
0
 62
    15
 10
5.694480
 20
2.827880
 11
5.696680
 21
3.565320
 12
5.712960
 22
2.858680
 13
5.715160
 23
3.596120
  0
POLYLINE
  8
0
  6
CONTINUOUS
 66
     1
 40
0.000000
 41
0.000000
  0
VERTEX
  8
0
  6
CONTINUOUS
 10
5.694480
 20
2.827880
  0
VERTEX
  8
0
  6
CONTINUOUS
 10
5.696680
 20
3.565320
  0
VERTEX
  8
0
  6
CONTINUOUS
 10
5.715160
 20
3.596120
  0
VERTEX
  8
0
  6
CONTINUOUS
 10
5.712960
 20
2.858680
  0
VERTEX
  8
0
  6
CONTINUOUS
 10
5.694480
 20
2.827880
  0
SEQEND
  8
0
  0
SOLID
  8
0
 62
    15
 10
5.712960
 20
2.858680
 11
5.715160
 21
3.596120
 12
5.734520
 22
2.885520
 13
5.736720
 23
3.622960
  0
POLYLINE
  8
0
  6
CONTINUOUS
 66
     1
 40
0.000000
 41
0.000000
  0
VERTEX
  8
0
  6
CONTINUOUS
 10
5.712960
 20
2.858680
  0
VERTEX
  8
0
  6
CONTINUOUS
 10
5.715160
 20
3.596120
  0
VERTEX
  8
0
  6
CONTINUOUS
 10
5.736720
 20
3.622960
  0
VERTEX
  8
0
  6
CONTINUOUS
 10
5.734520
 20
2.885520
  0
VERTEX
  8
0
  6
CONTINUOUS
 10
5.712960
 20
2.858680
  0
SEQEND
  8
0
  0
SOLID
  8
0
 62
    15
 10
5.734520
 20
2.885520
 11
5.736720
 21
3.622960
 12
5.757840
 22
2.908400
 13
5.760480
 23
3.645840
  0
POLYLINE
  8
0
  6
CONTINUOUS
 66
     1
 40
0.000000
 41
0.000000
  0
VERTEX
  8
0
  6
CONTINUOUS
 10
5.734520
 20
2.885520
  0
VERTEX
  8
0
  6
CONTINUOUS
 10
5.736720
 20
3.622960
  0
VERTEX
  8
0
  6
CONTINUOUS
 10
5.760480
 20
3.645840
  0
VERTEX
  8
0
  6
CONTINUOUS
 10
5.757840
 20
2.908400
  0
VERTEX
  8
0
  6
CONTINUOUS
 10
5.734520
 20
2.885520
  0
SEQEND
  8
0
  0
SOLID
  8
0
 62
    15
 10
5.757840
 20
2.908400
 11
5.760480
 21
3.645840
 12
5.783800
 22
2.927760
 13
5.786000
 23
3.665200
  0
POLYLINE
  8
0
  6
CONTINUOUS
 66
     1
 40
0.000000
 41
0.000000
  0
VERTEX
  8
0
  6
CONTINUOUS
 10
5.757840
 20
2.908400
  0
VERTEX
  8
0
  6
CONTINUOUS
 10
5.760480
 20
3.645840
  0
VERTEX
  8
0
  6
CONTINUOUS
 10
5.786000
 20
3.665200
  0
VERTEX
  8
0
  6
CONTINUOUS
 10
5.783800
 20
2.927760
  0
VERTEX
  8
0
  6
CONTINUOUS
 10
5.757840
 20
2.908400
  0
SEQEND
  8
0
  0
SOLID
  8
0
 62
    15
 10
5.783800
 20
2.927760
 11
5.786000
 21
3.665200
 12
5.811520
 22
2.943600
 13
5.813720
 23
3.680600
  0
POLYLINE
  8
0
  6
CONTINUOUS
 66
     1
 40
0.000000
 41
0.000000
  0
VERTEX
  8
0
  6
CONTINUOUS
 10
5.783800
 20
2.927760
  0
VERTEX
  8
0
  6
CONTINUOUS
 10
5.786000
 20
3.665200
  0
VERTEX
  8
0
  6
CONTINUOUS
 10
5.813720
 20
3.680600
  0
VERTEX
  8
0
  6
CONTINUOUS
 10
5.811520
 20
2.943600
  0
VERTEX
  8
0
  6
CONTINUOUS
 10
5.783800
 20
2.927760
  0
SEQEND
  8
0
  0
SOLID
  8
0
 62
    15
 10
5.811520
 20
2.943600
 11
5.813720
 21
3.680600
 12
5.840120
 22
2.955480
 13
5.842320
 23
3.692920
  0
POLYLINE
  8
0
  6
CONTINUOUS
 66
     1
 40
0.000000
 41
0.000000
  0
VERTEX
  8
0
  6
CONTINUOUS
 10
5.811520
 20
2.943600
  0
VERTEX
  8
0
  6
CONTINUOUS
 10
5.813720
 20
3.680600
  0
VERTEX
  8
0
  6
CONTINUOUS
 10
5.842320
 20
3.692920
  0
VERTEX
  8
0
  6
CONTINUOUS
 10
5.840120
 20
2.955480
  0
VERTEX
  8
0
  6
CONTINUOUS
 10
5.811520
 20
2.943600
  0
SEQEND
  8
0
  0
SOLID
  8
0
 62
    15
 10
5.840120
 20
2.955480
 11
5.842320
 21
3.692920
 12
5.899520
 22
2.969120
 13
5.901720
 23
3.706560
  0
POLYLINE
  8
0
  6
CONTINUOUS
 66
     1
 40
0.000000
 41
0.000000
  0
VERTEX
  8
0
  6
CONTINUOUS
 10
5.840120
 20
2.955480
  0
VERTEX
  8
0
  6
CONTINUOUS
 10
5.842320
 20
3.692920
  0
VERTEX
  8
0
  6
CONTINUOUS
 10
5.901720
 20
3.706560
  0
VERTEX
  8
0
  6
CONTINUOUS
 10
5.899520
 20
2.969120
  0
VERTEX
  8
0
  6
CONTINUOUS
 10
5.840120
 20
2.955480
  0
SEQEND
  8
0
  0
SOLID
  8
0
 62
    15
 10
5.899520
 20
2.969120
 11
5.901720
 21
3.706560
 12
5.958920
 22
2.970000
 13
5.961120
 23
3.707000
  0
POLYLINE
  8
0
  6
CONTINUOUS
 66
     1
 40
0.000000
 41
0.000000
  0
VERTEX
  8
0
  6
CONTINUOUS
 10
5.899520
 20
2.969120
  0
VERTEX
  8
0
  6
CONTINUOUS
 10
5.901720
 20
3.706560
  0
VERTEX
  8
0
  6
CONTINUOUS
 10
5.961120
 20
3.707000
  0
VERTEX
  8
0
  6
CONTINUOUS
 10
5.958920
 20
2.970000
  0
VERTEX
  8
0
  6
CONTINUOUS
 10
5.899520
 20
2.969120
  0
SEQEND
  8
0
  0
SOLID
  8
0
 62
    15
 10
5.958920
 20
2.970000
 11
5.961120
 21
3.707000
 12
6.014800
 22
2.957680
 13
6.017000
 23
3.695120
  0
POLYLINE
  8
0
  6
CONTINUOUS
 66
     1
 40
0.000000
 41
0.000000
  0
VERTEX
  8
0
  6
CONTINUOUS
 10
5.958920
 20
2.970000
  0
VERTEX
  8
0
  6
CONTINUOUS
 10
5.961120
 20
3.707000
  0
VERTEX
  8
0
  6
CONTINUOUS
 10
6.017000
 20
3.695120
  0
VERTEX
  8
0
  6
CONTINUOUS
 10
6.014800
 20
2.957680
  0
VERTEX
  8
0
  6
CONTINUOUS
 10
5.958920
 20
2.970000
  0
SEQEND
  8
0
  0
SOLID
  8
0
 62
    15
 10
6.014800
 20
2.957680
 11
6.017000
 21
3.695120
 12
6.040760
 22
2.947120
 13
6.042960
 23
3.684560
  0
POLYLINE
  8
0
  6
CONTINUOUS
 66
     1
 40
0.000000
 41
0.000000
  0
VERTEX
  8
0
  6
CONTINUOUS
 10
6.014800
 20
2.957680
  0
VERTEX
  8
0
  6
CONTINUOUS
 10
6.017000
 20
3.695120
  0
VERTEX
  8
0
  6
CONTINUOUS
 10
6.042960
 20
3.684560
  0
VERTEX
  8
0
  6
CONTINUOUS
 10
6.040760
 20
2.947120
  0
VERTEX
  8
0
  6
CONTINUOUS
 10
6.014800
 20
2.957680
  0
SEQEND
  8
0
  0
SOLID
  8
0
 62
    15
 10
6.040760
 20
2.947120
 11
6.042960
 21
3.684560
 12
6.064080
 22
2.933480
 13
6.066280
 23
3.670920
  0
POLYLINE
  8
0
  6
CONTINUOUS
 66
     1
 40
0.000000
 41
0.000000
  0
VERTEX
  8
0
  6
CONTINUOUS
 10
6.040760
 20
2.947120
  0
VERTEX
  8
0
  6
CONTINUOUS
 10
6.042960
 20
3.684560
  0
VERTEX
  8
0
  6
CONTINUOUS
 10
6.066280
 20
3.670920
  0
VERTEX
  8
0
  6
CONTINUOUS
 10
6.064080
 20
2.933480
  0
VERTEX
  8
0
  6
CONTINUOUS
 10
6.040760
 20
2.947120
  0
SEQEND
  8
0
  0
SOLID
  8
0
 62
    15
 10
6.064080
 20
2.933480
 11
6.066280
 21
3.670920
 12
6.074200
 22
2.933480
 13
6.076400
 23
3.670920
  0
POLYLINE
  8
0
  6
CONTINUOUS
 66
     1
 40
0.000000
 41
0.000000
  0
VERTEX
  8
0
  6
CONTINUOUS
 10
6.064080
 20
2.933480
  0
VERTEX
  8
0
  6
CONTINUOUS
 10
6.066280
 20
3.670920
  0
VERTEX
  8
0
  6
CONTINUOUS
 10
6.076400
 20
3.670920
  0
VERTEX
  8
0
  6
CONTINUOUS
 10
6.074200
 20
2.933480
  0
VERTEX
  8
0
  6
CONTINUOUS
 10
6.064080
 20
2.933480
  0
SEQEND
  8
0
  0
SOLID
  8
0
 62
    15
 10
6.746960
 20
3.067680
 11
6.749600
 21
3.805120
 12
6.746960
 22
2.320120
 13
6.749600
 23
3.057560
  0
POLYLINE
  8
0
  6
CONTINUOUS
 66
     1
 40
0.000000
 41
0.000000
  0
VERTEX
  8
0
  6
CONTINUOUS
 10
6.746960
 20
3.067680
  0
VERTEX
  8
0
  6
CONTINUOUS
 10
6.749600
 20
3.805120
  0
VERTEX
  8
0
  6
CONTINUOUS
 10
6.749600
 20
3.057560
  0
VERTEX
  8
0
  6
CONTINUOUS
 10
6.746960
 20
2.320120
  0
VERTEX
  8
0
  6
CONTINUOUS
 10
6.746960
 20
3.067680
  0
SEQEND
  8
0
  0
SOLID
  8
0
 62
    15
 10
6.074200
 20
3.067680
 11
6.076400
 21
3.805120
 12
6.746960
 22
3.067680
 13
6.749600
 23
3.805120
  0
POLYLINE
  8
0
  6
CONTINUOUS
 66
     1
 40
0.000000
 41
0.000000
  0
VERTEX
  8
0
  6
CONTINUOUS
 10
6.074200
 20
3.067680
  0
VERTEX
  8
0
  6
CONTINUOUS
 10
6.076400
 20
3.805120
  0
VERTEX
  8
0
  6
CONTINUOUS
 10
6.749600
 20
3.805120
  0
VERTEX
  8
0
  6
CONTINUOUS
 10
6.746960
 20
3.067680
  0
VERTEX
  8
0
  6
CONTINUOUS
 10
6.074200
 20
3.067680
  0
SEQEND
  8
0
  0
POLYLINE
  8
0
  6
CONTINUOUS
 66
     1
 40
0.000000
 41
0.000000
  0
VERTEX
  8
0
  6
CONTINUOUS
 10
2.189000
 20
2.319680
  0
VERTEX
  8
0
  6
CONTINUOUS
 10
2.189000
 20
3.067680
  0
VERTEX
  8
0
  6
CONTINUOUS
 10
2.862200
 20
3.067680
  0
VERTEX
  8
0
  6
CONTINUOUS
 10
2.862200
 20
2.933480
  0
VERTEX
  8
0
  6
CONTINUOUS
 10
2.871880
 20
2.933480
  0
VERTEX
  8
0
  6
CONTINUOUS
 10
2.895640
 20
2.947120
  0
VERTEX
  8
0
  6
CONTINUOUS
 10
2.921160
 20
2.957680
  0
VERTEX
  8
0
  6
CONTINUOUS
 10
2.977040
 20
2.969560
  0
VERTEX
  8
0
  6
CONTINUOUS
 10
3.036440
 20
2.969120
  0
VERTEX
  8
0
  6
CONTINUOUS
 10
3.095840
 20
2.955040
  0
VERTEX
  8
0
  6
CONTINUOUS
 10
3.124440
 20
2.943160
  0
VERTEX
  8
0
  6
CONTINUOUS
 10
3.152160
 20
2.927760
  0
VERTEX
  8
0
  6
CONTINUOUS
 10
3.178120
 20
2.908400
  0
VERTEX
  8
0
  6
CONTINUOUS
 10
3.201880
 20
2.885080
  0
VERTEX
  8
0
  6
CONTINUOUS
 10
3.223000
 20
2.858680
  0
VERTEX
  8
0
  6
CONTINUOUS
 10
3.241480
 20
2.827880
  0
VERTEX
  8
0
  6
CONTINUOUS
 10
3.256440
 20
2.793120
  0
VERTEX
  8
0
  6
CONTINUOUS
 10
3.267880
 20
2.754400
  0
VERTEX
  8
0
  6
CONTINUOUS
 10
3.282840
 20
2.754400
  0
VERTEX
  8
0
  6
CONTINUOUS
 10
3.296920
 20
2.786080
  0
VERTEX
  8
0
  6
CONTINUOUS
 10
3.317600
 20
2.808080
  0
VERTEX
  8
0
  6
CONTINUOUS
 10
3.342680
 20
2.819960
  0
VERTEX
  8
0
  6
CONTINUOUS
 10
3.369960
 20
2.822160
  0
VERTEX
  8
0
  6
CONTINUOUS
 10
3.397240
 20
2.814680
  0
VERTEX
  8
0
  6
CONTINUOUS
 10
3.422320
 20
2.798400
  0
VERTEX
  8
0
  6
CONTINUOUS
 10
3.442560
 20
2.772880
  0
VERTEX
  8
0
  6
CONTINUOUS
 10
3.455760
 20
2.738120
  0
VERTEX
  8
0
  6
CONTINUOUS
 10
3.515160
 20
2.738120
  0
VERTEX
  8
0
  6
CONTINUOUS
 10
3.523520
 20
2.696760
  0
VERTEX
  8
0
  6
CONTINUOUS
 10
3.538920
 20
2.660240
  0
VERTEX
  8
0
  6
CONTINUOUS
 10
3.560480
 20
2.629440
  0
VERTEX
  8
0
  6
CONTINUOUS
 10
3.586880
 20
2.603920
  0
VERTEX
  8
0
  6
CONTINUOUS
 10
3.616800
 20
2.583680
  0
VERTEX
  8
0
  6
CONTINUOUS
 10
3.649800
 20
2.568720
  0
VERTEX
  8
0
  6
CONTINUOUS
 10
3.685000
 20
2.559480
  0
VERTEX
  8
0
  6
CONTINUOUS
 10
3.720640
 20
2.555520
  0
VERTEX
  8
0
  6
CONTINUOUS
 10
3.756280
 20
2.556840
  0
VERTEX
  8
0
  6
CONTINUOUS
 10
3.791040
 20
2.563880
  0
VERTEX
  8
0
  6
CONTINUOUS
 10
3.823160
 20
2.576640
  0
VERTEX
  8
0
  6
CONTINUOUS
 10
3.852200
 20
2.594680
  0
VERTEX
  8
0
  6
CONTINUOUS
 10
3.877280
 20
2.618440
  0
VERTEX
  8
0
  6
CONTINUOUS
 10
3.897080
 20
2.647480
  0
VERTEX
  8
0
  6
CONTINUOUS
 10
3.910280
 20
2.682680
  0
VERTEX
  8
0
  6
CONTINUOUS
 10
3.916880
 20
2.723160
  0
VERTEX
  8
0
  6
CONTINUOUS
 10
3.984640
 20
2.723160
  0
VERTEX
  8
0
  6
CONTINUOUS
 10
3.986400
 20
2.759680
  0
VERTEX
  8
0
  6
CONTINUOUS
 10
3.993000
 20
2.789160
  0
VERTEX
  8
0
  6
CONTINUOUS
 10
4.004440
 20
2.811600
  0
VERTEX
  8
0
  6
CONTINUOUS
 10
4.019840
 20
2.827000
  0
VERTEX
  8
0
  6
CONTINUOUS
 10
4.038320
 20
2.835360
  0
VERTEX
  8
0
  6
CONTINUOUS
 10
4.059440
 20
2.835800
  0
VERTEX
  8
0
  6
CONTINUOUS
 10
4.082760
 20
2.828760
  0
VERTEX
  8
0
  6
CONTINUOUS
 10
4.107400
 20
2.814240
  0
VERTEX
  8
0
  6
CONTINUOUS
 10
4.155360
 20
2.774640
  0
VERTEX
  8
0
  6
CONTINUOUS
 10
4.172520
 20
2.827000
  0
VERTEX
  8
0
  6
CONTINUOUS
 10
4.199360
 20
2.871440
  0
VERTEX
  8
0
  6
CONTINUOUS
 10
4.233680
 20
2.908840
  0
VERTEX
  8
0
  6
CONTINUOUS
 10
4.274160
 20
2.939200
  0
VERTEX
  8
0
  6
CONTINUOUS
 10
4.319480
 20
2.962520
  0
VERTEX
  8
0
  6
CONTINUOUS
 10
4.368320
 20
2.978800
  0
VERTEX
  8
0
  6
CONTINUOUS
 10
4.418480
 20
2.988480
  0
VERTEX
  8
0
  6
CONTINUOUS
 10
4.469080
 20
2.992000
  0
VERTEX
  8
0
  6
CONTINUOUS
 10
4.518360
 20
2.988480
  0
VERTEX
  8
0
  6
CONTINUOUS
 10
4.568080
 20
2.978800
  0
VERTEX
  8
0
  6
CONTINUOUS
 10
4.616040
 20
2.962520
  0
VERTEX
  8
0
  6
CONTINUOUS
 10
4.661360
 20
2.939200
  0
VERTEX
  8
0
  6
CONTINUOUS
 10
4.702280
 20
2.909280
  0
VERTEX
  8
0
  6
CONTINUOUS
 10
4.736600
 20
2.871880
  0
VERTEX
  8
0
  6
CONTINUOUS
 10
4.763440
 20
2.827000
  0
VERTEX
  8
0
  6
CONTINUOUS
 10
4.781040
 20
2.774640
  0
VERTEX
  8
0
  6
CONTINUOUS
 10
4.829000
 20
2.814240
  0
VERTEX
  8
0
  6
CONTINUOUS
 10
4.853200
 20
2.829200
  0
VERTEX
  8
0
  6
CONTINUOUS
 10
4.876520
 20
2.836240
  0
VERTEX
  8
0
  6
CONTINUOUS
 10
4.897640
 20
2.835360
  0
VERTEX
  8
0
  6
CONTINUOUS
 10
4.916120
 20
2.827440
  0
VERTEX
  8
0
  6
CONTINUOUS
 10
4.931520
 20
2.812040
  0
VERTEX
  8
0
  6
CONTINUOUS
 10
4.942960
 20
2.789160
  0
VERTEX
  8
0
  6
CONTINUOUS
 10
4.950000
 20
2.759680
  0
VERTEX
  8
0
  6
CONTINUOUS
 10
4.951320
 20
2.723160
  0
VERTEX
  8
0
  6
CONTINUOUS
 10
5.019520
 20
2.723160
  0
VERTEX
  8
0
  6
CONTINUOUS
 10
5.025680
 20
2.682680
  0
VERTEX
  8
0
  6
CONTINUOUS
 10
5.039320
 20
2.647920
  0
VERTEX
  8
0
  6
CONTINUOUS
 10
5.059120
 20
2.618440
  0
VERTEX
  8
0
  6
CONTINUOUS
 10
5.083760
 20
2.594680
  0
VERTEX
  8
0
  6
CONTINUOUS
 10
5.113240
 20
2.576640
  0
VERTEX
  8
0
  6
CONTINUOUS
 10
5.145360
 20
2.564320
  0
VERTEX
  8
0
  6
CONTINUOUS
 10
5.179680
 20
2.557280
  0
VERTEX
  8
0
  6
CONTINUOUS
 10
5.215320
 20
2.555520
  0
VERTEX
  8
0
  6
CONTINUOUS
 10
5.251400
 20
2.559480
  0
VERTEX
  8
0
  6
CONTINUOUS
 10
5.286160
 20
2.569160
  0
VERTEX
  8
0
  6
CONTINUOUS
 10
5.319160
 20
2.583680
  0
VERTEX
  8
0
  6
CONTINUOUS
 10
5.349520
 20
2.603920
  0
VERTEX
  8
0
  6
CONTINUOUS
 10
5.375920
 20
2.629440
  0
VERTEX
  8
0
  6
CONTINUOUS
 10
5.397040
 20
2.660680
  0
VERTEX
  8
0
  6
CONTINUOUS
 10
5.412440
 20
2.696760
  0
VERTEX
  8
0
  6
CONTINUOUS
 10
5.420800
 20
2.738120
  0
VERTEX
  8
0
  6
CONTINUOUS
 10
5.480640
 20
2.738120
  0
VERTEX
  8
0
  6
CONTINUOUS
 10
5.493840
 20
2.772880
  0
VERTEX
  8
0
  6
CONTINUOUS
 10
5.514080
 20
2.798400
  0
VERTEX
  8
0
  6
CONTINUOUS
 10
5.538720
 20
2.815120
  0
VERTEX
  8
0
  6
CONTINUOUS
 10
5.566000
 20
2.822160
  0
VERTEX
  8
0
  6
CONTINUOUS
 10
5.593720
 20
2.819960
  0
VERTEX
  8
0
  6
CONTINUOUS
 10
5.618800
 20
2.808080
  0
VERTEX
  8
0
  6
CONTINUOUS
 10
5.639480
 20
2.786520
  0
VERTEX
  8
0
  6
CONTINUOUS
 10
5.653560
 20
2.754840
  0
VERTEX
  8
0
  6
CONTINUOUS
 10
5.668520
 20
2.754840
  0
VERTEX
  8
0
  6
CONTINUOUS
 10
5.679520
 20
2.793560
  0
VERTEX
  8
0
  6
CONTINUOUS
 10
5.694480
 20
2.827880
  0
VERTEX
  8
0
  6
CONTINUOUS
 10
5.712960
 20
2.858680
  0
VERTEX
  8
0
  6
CONTINUOUS
 10
5.734520
 20
2.885520
  0
VERTEX
  8
0
  6
CONTINUOUS
 10
5.757840
 20
2.908400
  0
VERTEX
  8
0
  6
CONTINUOUS
 10
5.783800
 20
2.927760
  0
VERTEX
  8
0
  6
CONTINUOUS
 10
5.811520
 20
2.943600
  0
VERTEX
  8
0
  6
CONTINUOUS
 10
5.840120
 20
2.955480
  0
VERTEX
  8
0
  6
CONTINUOUS
 10
5.899520
 20
2.969120
  0
VERTEX
  8
0
  6
CONTINUOUS
 10
5.958920
 20
2.970000
  0
VERTEX
  8
0
  6
CONTINUOUS
 10
6.014800
 20
2.957680
  0
VERTEX
  8
0
  6
CONTINUOUS
 10
6.040760
 20
2.947120
  0
VERTEX
  8
0
  6
CONTINUOUS
 10
6.064080
 20
2.933480
  0
VERTEX
  8
0
  6
CONTINUOUS
 10
6.074200
 20
2.933480
  0
VERTEX
  8
0
  6
CONTINUOUS
 10
6.074200
 20
3.067680
  0
VERTEX
  8
0
  6
CONTINUOUS
 10
6.746960
 20
3.067680
  0
VERTEX
  8
0
  6
CONTINUOUS
 10
6.746960
 20
2.320120
  0
VERTEX
  8
0
  6
CONTINUOUS
 10
2.189000
 20
2.319680
  0
SEQEND
  8
0
  0
TEXT
  8
0
 10
4.128080
 20
2.055240
 40
0.138126
  1
BA  1149
 41
1.000000
  7
SN0
 71
     0
 72
     5
 11
4.811503
 21
2.055240
  0
TEXT
  8
0
 10
3.971880
 20
1.863400
 40
0.138126
  1
3/4" x 4-9/16"
 41
1.000000
  7
SN0
 71
     0
 72
     5
 11
4.965804
 21
1.863400
  0
TEXT
  8
0
 10
6.033720
 20
2.579280
 40
0.138126
  1
Rosette
 41
1.000000
  7
SN0
 71
     0
 72
     5
 11
6.606021
 21
2.579280
  0
TEXT
  8
0
 10
5.978280
 20
2.387880
 40
0.138126
  1
BA  1150
 41
1.000000
  7
SN0
 71
     0
 72
     5
 11
6.661703
 21
2.387880
  0
ENDSEC
  0
EOF
