  0
SECTION
  2
HEADER
  9
$ACADVER
  1
AC1006
  9
$EXTMIN
 10
0.931480
 20
1.531200
  9
$EXTMAX
 10
7.029440
 20
10.091840
  9
$LTSCALE
 40
0.044000
  9
$PDMODE
 70
    35
  9
$PDSIZE
 40
0.035200
  0
ENDSEC
  0
SECTION
  2
TABLES
  0
TABLE
  2
LTYPE
 70
     9
  0
LTYPE
  2
CONTINUOUS
 70
    64
  3
Solid line
 72
    65
 73
     0
 40
0.000000
  0
LTYPE
  2
DASHED
 70
    64
  3
__ __ __ __ __ __ __ __ __ __ __ __ __ __ __
 72
    65
 73
     2
 40
0.000330
 49
0.000220
 49
-0.000110
  0
LTYPE
  2
HIDDEN
 70
    64
  3
 _ _ _ _ _ _ _ _ _ _ _ _ _ _ _ _ _ _ _ _ _ _
 72
    65
 73
     2
 40
0.000165
 49
0.000110
 49
-0.000055
  0
LTYPE
  2
CENTER
 70
    64
  3
____ _ ____ _ ____ _ ____ _ ____ _ ____ _ ____
 72
    65
 73
     4
 40
0.000880
 49
0.000550
 49
-0.000110
 49
0.000110
 49
-0.000110
  0
LTYPE
  2
PHANTOM
 70
    64
  3
_____ _ _ _____ _ _ _____ _ _ _____ _ _ ____
 72
    65
 73
     6
 40
0.001100
 49
0.000550
 49
-0.000110
 49
0.000110
 49
-0.000110
 49
0.000110
 49
-0.000110
  0
LTYPE
  2
DOT
 70
    64
  3
...............................................
 72
    65
 73
     2
 40
0.000110
 49
0.000000
 49
-0.000110
  0
LTYPE
  2
DASHDOT
 70
    64
  3
__ . __ . __ . __ . __ . __ . __ . __ . __ . __
 72
    65
 73
     4
 40
0.000440
 49
0.000220
 49
-0.000110
 49
0.000000
 49
-0.000110
  0
LTYPE
  2
BORDER
 70
    64
  3
__ __ . __ __ . __ __ . __ __ . __ __ . __ __
 72
    65
 73
     6
 40
0.000770
 49
0.000220
 49
-0.000110
 49
0.000220
 49
-0.000110
 49
0.000000
 49
-0.000110
  0
LTYPE
  2
DIVIDE
 70
    64
  3
__ . . __ . . __ . . __ . . __ . . __ . . __
 72
    65
 73
     6
 40
0.000550
 49
0.000220
 49
-0.000110
 49
0.000000
 49
-0.000110
 49
0.000000
 49
-0.000110
  0
LTYPE
  2
DOTDOT
 70
    64
  3
 . .  . .  . .  . .  . .  . . 
 72
    65
 73
     5
 40
0.000242
 49
-0.000110
 49
0.000000
 49
-0.000110
 49
0.000000
 49
-0.000110
  0
ENDTAB
  0
TABLE
  2
STYLE
 70
     2
  0
STYLE
 70
     0
  2
SN0
 40
0.000000
 41
0.000440
 50
0.000000
 71
     0
 42
0.000000
  3
ROMAND
  0
STYLE
 70
    68
  2
SV0
 40
0.000000
 41
0.000440
 50
0.000000
 71
     0
 42
0.000000
  3
ROMAND
  0
ENDTAB
  0
TABLE
  2
LAYER
 70
     3
  0
LAYER
  2
FOREGROUND
 70
    64
 62
     7
  6
CONTINUOUS
  0
LAYER
  2
BACKGROUND
 70
    65
 62
    -7
  6
CONTINUOUS
  0
LAYER
  2
0
 70
    64
 62
     7
  6
CONTINUOUS
  0
ENDTAB
  0
ENDSEC
  0
SECTION
  2
ENTITIES
  0
POLYLINE
  8
FOREGROUND
  6
CONTINUOUS
 66
     1
 40
0.000000
 41
0.000000
  0
VERTEX
  8
FOREGROUND
  6
CONTINUOUS
 10
0.000000
 20
11.623040
  0
VERTEX
  8
FOREGROUND
  6
CONTINUOUS
 10
8.499920
 20
11.623040
  0
VERTEX
  8
FOREGROUND
  6
CONTINUOUS
 10
8.499920
 20
0.623040
  0
VERTEX
  8
FOREGROUND
  6
CONTINUOUS
 10
0.000000
 20
0.623040
  0
VERTEX
  8
FOREGROUND
  6
CONTINUOUS
 10
0.000000
 20
11.623040
  0
SEQEND
  8
0
  0
POLYLINE
  8
FOREGROUND
  6
CONTINUOUS
 66
     1
 40
0.000000
 41
0.000000
  0
VERTEX
  8
FOREGROUND
  6
CONTINUOUS
 10
0.000000
 20
11.623040
  0
VERTEX
  8
FOREGROUND
  6
CONTINUOUS
 10
8.499920
 20
11.623040
  0
VERTEX
  8
FOREGROUND
  6
CONTINUOUS
 10
8.499920
 20
0.623040
  0
VERTEX
  8
FOREGROUND
  6
CONTINUOUS
 10
0.000000
 20
0.623040
  0
VERTEX
  8
FOREGROUND
  6
CONTINUOUS
 10
0.000000
 20
11.623040
  0
SEQEND
  8
0
  0
POLYLINE
  8
0
  6
CONTINUOUS
 66
     1
 40
0.000000
 41
0.000000
  0
VERTEX
  8
0
  6
CONTINUOUS
 10
4.205520
 20
1.584880
  0
VERTEX
  8
0
  6
CONTINUOUS
 10
2.531760
 20
1.584880
  0
VERTEX
  8
0
  6
CONTINUOUS
 10
2.531760
 20
2.776400
  0
VERTEX
  8
0
  6
CONTINUOUS
 10
2.531760
 20
2.777720
  0
VERTEX
  8
0
  6
CONTINUOUS
 10
2.531760
 20
2.959880
  0
VERTEX
  8
0
  6
CONTINUOUS
 10
2.680040
 20
2.959880
  0
VERTEX
  8
0
  6
CONTINUOUS
 10
4.284720
 20
2.959880
  0
VERTEX
  8
0
  6
CONTINUOUS
 10
4.284720
 20
2.834920
  0
VERTEX
  8
0
  6
CONTINUOUS
 10
4.284280
 20
2.834920
  0
VERTEX
  8
0
  6
CONTINUOUS
 10
4.261400
 20
2.834480
  0
VERTEX
  8
0
  6
CONTINUOUS
 10
4.239400
 20
2.832720
  0
VERTEX
  8
0
  6
CONTINUOUS
 10
4.217400
 20
2.830080
  0
VERTEX
  8
0
  6
CONTINUOUS
 10
4.195840
 20
2.826120
  0
VERTEX
  8
0
  6
CONTINUOUS
 10
4.174720
 20
2.821280
  0
VERTEX
  8
0
  6
CONTINUOUS
 10
4.153600
 20
2.815120
  0
VERTEX
  8
0
  6
CONTINUOUS
 10
4.133360
 20
2.808520
  0
VERTEX
  8
0
  6
CONTINUOUS
 10
4.114000
 20
2.800600
  0
VERTEX
  8
0
  6
CONTINUOUS
 10
4.094640
 20
2.791800
  0
VERTEX
  8
0
  6
CONTINUOUS
 10
4.075720
 20
2.782120
  0
VERTEX
  8
0
  6
CONTINUOUS
 10
4.057680
 20
2.771560
  0
VERTEX
  8
0
  6
CONTINUOUS
 10
4.040080
 20
2.760120
  0
VERTEX
  8
0
  6
CONTINUOUS
 10
4.023360
 20
2.747800
  0
VERTEX
  8
0
  6
CONTINUOUS
 10
4.007080
 20
2.735040
  0
VERTEX
  8
0
  6
CONTINUOUS
 10
3.991240
 20
2.721400
  0
VERTEX
  8
0
  6
CONTINUOUS
 10
3.976280
 20
2.706880
  0
VERTEX
  8
0
  6
CONTINUOUS
 10
3.962200
 20
2.691480
  0
VERTEX
  8
0
  6
CONTINUOUS
 10
3.948560
 20
2.675640
  0
VERTEX
  8
0
  6
CONTINUOUS
 10
3.935800
 20
2.659360
  0
VERTEX
  8
0
  6
CONTINUOUS
 10
3.923920
 20
2.642200
  0
VERTEX
  8
0
  6
CONTINUOUS
 10
3.912920
 20
2.624160
  0
VERTEX
  8
0
  6
CONTINUOUS
 10
3.902800
 20
2.605680
  0
VERTEX
  8
0
  6
CONTINUOUS
 10
3.893120
 20
2.587200
  0
VERTEX
  8
0
  6
CONTINUOUS
 10
3.884760
 20
2.567400
  0
VERTEX
  8
0
  6
CONTINUOUS
 10
3.877280
 20
2.547600
  0
VERTEX
  8
0
  6
CONTINUOUS
 10
3.870240
 20
2.527360
  0
VERTEX
  8
0
  6
CONTINUOUS
 10
3.864520
 20
2.506680
  0
VERTEX
  8
0
  6
CONTINUOUS
 10
3.860120
 20
2.485560
  0
VERTEX
  8
0
  6
CONTINUOUS
 10
3.856160
 20
2.464000
  0
VERTEX
  8
0
  6
CONTINUOUS
 10
3.853520
 20
2.442000
  0
VERTEX
  8
0
  6
CONTINUOUS
 10
3.851760
 20
2.419560
  0
VERTEX
  8
0
  6
CONTINUOUS
 10
3.851320
 20
2.397120
  0
VERTEX
  8
0
  6
CONTINUOUS
 10
3.850880
 20
2.397120
  0
VERTEX
  8
0
  6
CONTINUOUS
 10
4.288240
 20
2.397120
  0
VERTEX
  8
0
  6
CONTINUOUS
 10
4.288240
 20
1.585320
  0
VERTEX
  8
0
  6
CONTINUOUS
 10
4.205520
 20
1.585320
  0
VERTEX
  8
0
  6
CONTINUOUS
 10
4.205520
 20
1.584880
  0
SEQEND
  8
0
  0
POLYLINE
  8
0
  6
CONTINUOUS
 66
     1
 40
0.000000
 41
0.000000
  0
VERTEX
  8
0
  6
CONTINUOUS
 10
5.126440
 20
1.532080
  0
VERTEX
  8
0
  6
CONTINUOUS
 10
6.223800
 20
1.532080
  0
VERTEX
  8
0
  6
CONTINUOUS
 10
6.266480
 20
1.532080
  0
VERTEX
  8
0
  6
CONTINUOUS
 10
6.266480
 20
1.533840
  0
VERTEX
  8
0
  6
CONTINUOUS
 10
6.266920
 20
1.532960
  0
VERTEX
  8
0
  6
CONTINUOUS
 10
6.266920
 20
2.906640
  0
VERTEX
  8
0
  6
CONTINUOUS
 10
5.927680
 20
2.906640
  0
VERTEX
  8
0
  6
CONTINUOUS
 10
4.951760
 20
2.906640
  0
VERTEX
  8
0
  6
CONTINUOUS
 10
4.951760
 20
2.781680
  0
VERTEX
  8
0
  6
CONTINUOUS
 10
4.951320
 20
2.781680
  0
VERTEX
  8
0
  6
CONTINUOUS
 10
4.928440
 20
2.781240
  0
VERTEX
  8
0
  6
CONTINUOUS
 10
4.906440
 20
2.779480
  0
VERTEX
  8
0
  6
CONTINUOUS
 10
4.884440
 20
2.776840
  0
VERTEX
  8
0
  6
CONTINUOUS
 10
4.862880
 20
2.772880
  0
VERTEX
  8
0
  6
CONTINUOUS
 10
4.841320
 20
2.768040
  0
VERTEX
  8
0
  6
CONTINUOUS
 10
4.820640
 20
2.761880
  0
VERTEX
  8
0
  6
CONTINUOUS
 10
4.800400
 20
2.755280
  0
VERTEX
  8
0
  6
CONTINUOUS
 10
4.780600
 20
2.747360
  0
VERTEX
  8
0
  6
CONTINUOUS
 10
4.761680
 20
2.738560
  0
VERTEX
  8
0
  6
CONTINUOUS
 10
4.742760
 20
2.728880
  0
VERTEX
  8
0
  6
CONTINUOUS
 10
4.724720
 20
2.718320
  0
VERTEX
  8
0
  6
CONTINUOUS
 10
4.707120
 20
2.706880
  0
VERTEX
  8
0
  6
CONTINUOUS
 10
4.689960
 20
2.695000
  0
VERTEX
  8
0
  6
CONTINUOUS
 10
4.673680
 20
2.681800
  0
VERTEX
  8
0
  6
CONTINUOUS
 10
4.658280
 20
2.668160
  0
VERTEX
  8
0
  6
CONTINUOUS
 10
4.643320
 20
2.653640
  0
VERTEX
  8
0
  6
CONTINUOUS
 10
4.628800
 20
2.638240
  0
VERTEX
  8
0
  6
CONTINUOUS
 10
4.615600
 20
2.622400
  0
VERTEX
  8
0
  6
CONTINUOUS
 10
4.602840
 20
2.606120
  0
VERTEX
  8
0
  6
CONTINUOUS
 10
4.590960
 20
2.588960
  0
VERTEX
  8
0
  6
CONTINUOUS
 10
4.579520
 20
2.570920
  0
VERTEX
  8
0
  6
CONTINUOUS
 10
4.569400
 20
2.552880
  0
VERTEX
  8
0
  6
CONTINUOUS
 10
4.559720
 20
2.533960
  0
VERTEX
  8
0
  6
CONTINUOUS
 10
4.551360
 20
2.514600
  0
VERTEX
  8
0
  6
CONTINUOUS
 10
4.543880
 20
2.494800
  0
VERTEX
  8
0
  6
CONTINUOUS
 10
4.536840
 20
2.474560
  0
VERTEX
  8
0
  6
CONTINUOUS
 10
4.531120
 20
2.453440
  0
VERTEX
  8
0
  6
CONTINUOUS
 10
4.526720
 20
2.432320
  0
VERTEX
  8
0
  6
CONTINUOUS
 10
4.522760
 20
2.410760
  0
VERTEX
  8
0
  6
CONTINUOUS
 10
4.520120
 20
2.389200
  0
VERTEX
  8
0
  6
CONTINUOUS
 10
4.518360
 20
2.366760
  0
VERTEX
  8
0
  6
CONTINUOUS
 10
4.517920
 20
2.344320
  0
VERTEX
  8
0
  6
CONTINUOUS
 10
4.517480
 20
2.344320
  0
VERTEX
  8
0
  6
CONTINUOUS
 10
4.955280
 20
2.344320
  0
VERTEX
  8
0
  6
CONTINUOUS
 10
4.955280
 20
1.531640
  0
VERTEX
  8
0
  6
CONTINUOUS
 10
5.126440
 20
1.531640
  0
SEQEND
  8
0
  0
POLYLINE
  8
0
  6
CONTINUOUS
 66
     1
 40
0.000000
 41
0.000000
  0
VERTEX
  8
0
  6
CONTINUOUS
 10
5.324880
 20
3.483040
  0
VERTEX
  8
0
  6
CONTINUOUS
 10
6.998640
 20
3.483040
  0
VERTEX
  8
0
  6
CONTINUOUS
 10
6.998640
 20
4.674560
  0
VERTEX
  8
0
  6
CONTINUOUS
 10
6.998640
 20
4.675880
  0
VERTEX
  8
0
  6
CONTINUOUS
 10
6.998640
 20
4.857600
  0
VERTEX
  8
0
  6
CONTINUOUS
 10
6.850360
 20
4.857600
  0
VERTEX
  8
0
  6
CONTINUOUS
 10
5.245680
 20
4.857600
  0
VERTEX
  8
0
  6
CONTINUOUS
 10
5.245680
 20
4.732640
  0
VERTEX
  8
0
  6
CONTINUOUS
 10
5.246120
 20
4.732640
  0
VERTEX
  8
0
  6
CONTINUOUS
 10
5.269000
 20
4.732200
  0
VERTEX
  8
0
  6
CONTINUOUS
 10
5.291000
 20
4.730440
  0
VERTEX
  8
0
  6
CONTINUOUS
 10
5.313000
 20
4.727800
  0
VERTEX
  8
0
  6
CONTINUOUS
 10
5.334560
 20
4.723840
  0
VERTEX
  8
0
  6
CONTINUOUS
 10
5.355680
 20
4.719000
  0
VERTEX
  8
0
  6
CONTINUOUS
 10
5.376800
 20
4.712840
  0
VERTEX
  8
0
  6
CONTINUOUS
 10
5.397040
 20
4.706240
  0
VERTEX
  8
0
  6
CONTINUOUS
 10
5.416400
 20
4.698320
  0
VERTEX
  8
0
  6
CONTINUOUS
 10
5.435760
 20
4.689520
  0
VERTEX
  8
0
  6
CONTINUOUS
 10
5.454680
 20
4.679840
  0
VERTEX
  8
0
  6
CONTINUOUS
 10
5.472720
 20
4.669280
  0
VERTEX
  8
0
  6
CONTINUOUS
 10
5.490320
 20
4.657840
  0
VERTEX
  8
0
  6
CONTINUOUS
 10
5.507040
 20
4.645960
  0
VERTEX
  8
0
  6
CONTINUOUS
 10
5.523320
 20
4.632760
  0
VERTEX
  8
0
  6
CONTINUOUS
 10
5.539160
 20
4.619120
  0
VERTEX
  8
0
  6
CONTINUOUS
 10
5.554120
 20
4.604600
  0
VERTEX
  8
0
  6
CONTINUOUS
 10
5.568200
 20
4.589200
  0
VERTEX
  8
0
  6
CONTINUOUS
 10
5.581840
 20
4.573360
  0
VERTEX
  8
0
  6
CONTINUOUS
 10
5.594600
 20
4.557080
  0
VERTEX
  8
0
  6
CONTINUOUS
 10
5.606480
 20
4.539920
  0
VERTEX
  8
0
  6
CONTINUOUS
 10
5.617480
 20
4.521880
  0
VERTEX
  8
0
  6
CONTINUOUS
 10
5.627600
 20
4.503840
  0
VERTEX
  8
0
  6
CONTINUOUS
 10
5.637280
 20
4.484920
  0
VERTEX
  8
0
  6
CONTINUOUS
 10
5.645640
 20
4.465560
  0
VERTEX
  8
0
  6
CONTINUOUS
 10
5.653120
 20
4.445760
  0
VERTEX
  8
0
  6
CONTINUOUS
 10
5.660160
 20
4.425520
  0
VERTEX
  8
0
  6
CONTINUOUS
 10
5.665880
 20
4.404400
  0
VERTEX
  8
0
  6
CONTINUOUS
 10
5.670280
 20
4.383280
  0
VERTEX
  8
0
  6
CONTINUOUS
 10
5.674240
 20
4.361720
  0
VERTEX
  8
0
  6
CONTINUOUS
 10
5.676880
 20
4.340160
  0
VERTEX
  8
0
  6
CONTINUOUS
 10
5.678640
 20
4.317720
  0
VERTEX
  8
0
  6
CONTINUOUS
 10
5.679080
 20
4.295280
  0
VERTEX
  8
0
  6
CONTINUOUS
 10
5.679520
 20
4.295280
  0
VERTEX
  8
0
  6
CONTINUOUS
 10
5.242160
 20
4.295280
  0
VERTEX
  8
0
  6
CONTINUOUS
 10
5.242160
 20
3.483040
  0
VERTEX
  8
0
  6
CONTINUOUS
 10
5.324880
 20
3.483040
  0
SEQEND
  8
0
  0
POLYLINE
  8
0
  6
CONTINUOUS
 66
     1
 40
0.000000
 41
0.000000
  0
VERTEX
  8
0
  6
CONTINUOUS
 10
4.539920
 20
3.483920
  0
VERTEX
  8
0
  6
CONTINUOUS
 10
3.442120
 20
3.483920
  0
VERTEX
  8
0
  6
CONTINUOUS
 10
3.399440
 20
3.483920
  0
VERTEX
  8
0
  6
CONTINUOUS
 10
3.399440
 20
3.486120
  0
VERTEX
  8
0
  6
CONTINUOUS
 10
3.399000
 20
3.485240
  0
VERTEX
  8
0
  6
CONTINUOUS
 10
3.399000
 20
4.858920
  0
VERTEX
  8
0
  6
CONTINUOUS
 10
3.738240
 20
4.858920
  0
VERTEX
  8
0
  6
CONTINUOUS
 10
4.714160
 20
4.858920
  0
VERTEX
  8
0
  6
CONTINUOUS
 10
4.714160
 20
4.733960
  0
VERTEX
  8
0
  6
CONTINUOUS
 10
4.714600
 20
4.733960
  0
VERTEX
  8
0
  6
CONTINUOUS
 10
4.737480
 20
4.733520
  0
VERTEX
  8
0
  6
CONTINUOUS
 10
4.759480
 20
4.731760
  0
VERTEX
  8
0
  6
CONTINUOUS
 10
4.781480
 20
4.729120
  0
VERTEX
  8
0
  6
CONTINUOUS
 10
4.803040
 20
4.725160
  0
VERTEX
  8
0
  6
CONTINUOUS
 10
4.824600
 20
4.720320
  0
VERTEX
  8
0
  6
CONTINUOUS
 10
4.845280
 20
4.714160
  0
VERTEX
  8
0
  6
CONTINUOUS
 10
4.865520
 20
4.707560
  0
VERTEX
  8
0
  6
CONTINUOUS
 10
4.885320
 20
4.699640
  0
VERTEX
  8
0
  6
CONTINUOUS
 10
4.904240
 20
4.690840
  0
VERTEX
  8
0
  6
CONTINUOUS
 10
4.923160
 20
4.681160
  0
VERTEX
  8
0
  6
CONTINUOUS
 10
4.941200
 20
4.670600
  0
VERTEX
  8
0
  6
CONTINUOUS
 10
4.958800
 20
4.659160
  0
VERTEX
  8
0
  6
CONTINUOUS
 10
4.975960
 20
4.646840
  0
VERTEX
  8
0
  6
CONTINUOUS
 10
4.992240
 20
4.634080
  0
VERTEX
  8
0
  6
CONTINUOUS
 10
5.007640
 20
4.620440
  0
VERTEX
  8
0
  6
CONTINUOUS
 10
5.022600
 20
4.605920
  0
VERTEX
  8
0
  6
CONTINUOUS
 10
5.037120
 20
4.590520
  0
VERTEX
  8
0
  6
CONTINUOUS
 10
5.050320
 20
4.574680
  0
VERTEX
  8
0
  6
CONTINUOUS
 10
5.063080
 20
4.558400
  0
VERTEX
  8
0
  6
CONTINUOUS
 10
5.074960
 20
4.541240
  0
VERTEX
  8
0
  6
CONTINUOUS
 10
5.086400
 20
4.523200
  0
VERTEX
  8
0
  6
CONTINUOUS
 10
5.096520
 20
4.504720
  0
VERTEX
  8
0
  6
CONTINUOUS
 10
5.106200
 20
4.486240
  0
VERTEX
  8
0
  6
CONTINUOUS
 10
5.114560
 20
4.466440
  0
VERTEX
  8
0
  6
CONTINUOUS
 10
5.122040
 20
4.446640
  0
VERTEX
  8
0
  6
CONTINUOUS
 10
5.129080
 20
4.426400
  0
VERTEX
  8
0
  6
CONTINUOUS
 10
5.134800
 20
4.405720
  0
VERTEX
  8
0
  6
CONTINUOUS
 10
5.139200
 20
4.384600
  0
VERTEX
  8
0
  6
CONTINUOUS
 10
5.143160
 20
4.363040
  0
VERTEX
  8
0
  6
CONTINUOUS
 10
5.145800
 20
4.341040
  0
VERTEX
  8
0
  6
CONTINUOUS
 10
5.147560
 20
4.318600
  0
VERTEX
  8
0
  6
CONTINUOUS
 10
5.148000
 20
4.296160
  0
VERTEX
  8
0
  6
CONTINUOUS
 10
5.148440
 20
4.296160
  0
VERTEX
  8
0
  6
CONTINUOUS
 10
4.710640
 20
4.296160
  0
VERTEX
  8
0
  6
CONTINUOUS
 10
4.710640
 20
3.483920
  0
VERTEX
  8
0
  6
CONTINUOUS
 10
4.539920
 20
3.483920
  0
SEQEND
  8
0
  0
SOLID
  8
0
 62
    15
 10
4.634960
 20
7.302240
 11
5.275600
 21
7.669640
 12
6.387920
 22
7.302240
 13
7.029000
 23
7.669640
  0
POLYLINE
  8
0
  6
CONTINUOUS
 66
     1
 40
0.000000
 41
0.000000
  0
VERTEX
  8
0
  6
CONTINUOUS
 10
4.634960
 20
7.302240
  0
VERTEX
  8
0
  6
CONTINUOUS
 10
5.275600
 20
7.669640
  0
VERTEX
  8
0
  6
CONTINUOUS
 10
7.029000
 20
7.669640
  0
VERTEX
  8
0
  6
CONTINUOUS
 10
6.387920
 20
7.302240
  0
VERTEX
  8
0
  6
CONTINUOUS
 10
4.634960
 20
7.302240
  0
SEQEND
  8
0
  0
SOLID
  8
0
 62
    15
 10
6.387920
 20
7.302240
 11
7.029000
 21
7.669640
 12
6.388360
 22
5.927680
 13
7.029000
 23
6.295080
  0
POLYLINE
  8
0
  6
CONTINUOUS
 66
     1
 40
0.000000
 41
0.000000
  0
VERTEX
  8
0
  6
CONTINUOUS
 10
6.387920
 20
7.302240
  0
VERTEX
  8
0
  6
CONTINUOUS
 10
7.029000
 20
7.669640
  0
VERTEX
  8
0
  6
CONTINUOUS
 10
7.029000
 20
6.295080
  0
VERTEX
  8
0
  6
CONTINUOUS
 10
6.388360
 20
5.927680
  0
VERTEX
  8
0
  6
CONTINUOUS
 10
6.387920
 20
7.302240
  0
SEQEND
  8
0
  0
SOLID
  8
0
 62
    15
 10
4.631440
 20
6.739920
 11
5.272520
 21
7.107320
 12
5.068800
 22
6.739920
 13
5.709880
 23
7.107320
  0
POLYLINE
  8
0
  6
CONTINUOUS
 66
     1
 40
0.000000
 41
0.000000
  0
VERTEX
  8
0
  6
CONTINUOUS
 10
4.631440
 20
6.739920
  0
VERTEX
  8
0
  6
CONTINUOUS
 10
5.272520
 20
7.107320
  0
VERTEX
  8
0
  6
CONTINUOUS
 10
5.709880
 20
7.107320
  0
VERTEX
  8
0
  6
CONTINUOUS
 10
5.068800
 20
6.739920
  0
VERTEX
  8
0
  6
CONTINUOUS
 10
4.631440
 20
6.739920
  0
SEQEND
  8
0
  0
POLYLINE
  8
0
  6
CONTINUOUS
 66
     1
 40
0.000000
 41
0.000000
  0
VERTEX
  8
0
  6
CONTINUOUS
 10
4.714160
 20
5.927680
  0
VERTEX
  8
0
  6
CONTINUOUS
 10
4.631440
 20
5.927680
  0
VERTEX
  8
0
  6
CONTINUOUS
 10
4.631440
 20
6.739920
  0
VERTEX
  8
0
  6
CONTINUOUS
 10
5.068800
 20
6.739920
  0
VERTEX
  8
0
  6
CONTINUOUS
 10
5.060000
 20
6.827920
  0
VERTEX
  8
0
  6
CONTINUOUS
 10
5.035360
 20
6.910200
  0
VERTEX
  8
0
  6
CONTINUOUS
 10
4.995760
 20
6.984560
  0
VERTEX
  8
0
  6
CONTINUOUS
 10
4.943400
 20
7.049240
  0
VERTEX
  8
0
  6
CONTINUOUS
 10
4.879600
 20
7.102920
  0
VERTEX
  8
0
  6
CONTINUOUS
 10
4.806120
 20
7.142960
  0
VERTEX
  8
0
  6
CONTINUOUS
 10
4.723840
 20
7.168480
  0
VERTEX
  8
0
  6
CONTINUOUS
 10
4.635400
 20
7.177280
  0
VERTEX
  8
0
  6
CONTINUOUS
 10
4.634960
 20
7.177280
  0
VERTEX
  8
0
  6
CONTINUOUS
 10
4.634960
 20
7.302240
  0
VERTEX
  8
0
  6
CONTINUOUS
 10
6.387920
 20
7.302240
  0
VERTEX
  8
0
  6
CONTINUOUS
 10
6.388360
 20
5.927680
  0
VERTEX
  8
0
  6
CONTINUOUS
 10
4.714160
 20
5.927680
  0
SEQEND
  8
0
  0
SOLID
  8
0
 62
    15
 10
3.693360
 20
7.102920
 11
4.336640
 21
7.461080
 12
3.757160
 22
7.049240
 13
4.400440
 23
7.407400
  0
POLYLINE
  8
0
  6
CONTINUOUS
 66
     1
 40
0.000000
 41
0.000000
  0
VERTEX
  8
0
  6
CONTINUOUS
 10
3.693360
 20
7.102920
  0
VERTEX
  8
0
  6
CONTINUOUS
 10
4.336640
 20
7.461080
  0
VERTEX
  8
0
  6
CONTINUOUS
 10
4.400440
 20
7.407400
  0
VERTEX
  8
0
  6
CONTINUOUS
 10
3.757160
 20
7.049240
  0
VERTEX
  8
0
  6
CONTINUOUS
 10
3.693360
 20
7.102920
  0
SEQEND
  8
0
  0
SOLID
  8
0
 62
    15
 10
2.133560
 20
7.302680
 11
2.776840
 21
7.660840
 12
3.448720
 22
7.302680
 13
4.092000
 23
7.660840
  0
POLYLINE
  8
0
  6
CONTINUOUS
 66
     1
 40
0.000000
 41
0.000000
  0
VERTEX
  8
0
  6
CONTINUOUS
 10
2.133560
 20
7.302680
  0
VERTEX
  8
0
  6
CONTINUOUS
 10
2.776840
 20
7.660840
  0
VERTEX
  8
0
  6
CONTINUOUS
 10
4.092000
 20
7.660840
  0
VERTEX
  8
0
  6
CONTINUOUS
 10
3.448720
 20
7.302680
  0
VERTEX
  8
0
  6
CONTINUOUS
 10
2.133560
 20
7.302680
  0
SEQEND
  8
0
  0
SOLID
  8
0
 62
    15
 10
3.448720
 20
7.302680
 11
4.092000
 21
7.660840
 12
3.448720
 22
7.177280
 13
4.092000
 23
7.535880
  0
POLYLINE
  8
0
  6
CONTINUOUS
 66
     1
 40
0.000000
 41
0.000000
  0
VERTEX
  8
0
  6
CONTINUOUS
 10
3.448720
 20
7.302680
  0
VERTEX
  8
0
  6
CONTINUOUS
 10
4.092000
 20
7.660840
  0
VERTEX
  8
0
  6
CONTINUOUS
 10
4.092000
 20
7.535880
  0
VERTEX
  8
0
  6
CONTINUOUS
 10
3.448720
 20
7.177280
  0
VERTEX
  8
0
  6
CONTINUOUS
 10
3.448720
 20
7.302680
  0
SEQEND
  8
0
  0
SOLID
  8
0
 62
    15
 10
3.448720
 20
7.177280
 11
4.092000
 21
7.535880
 12
3.449160
 22
7.177280
 13
4.092440
 23
7.535880
  0
POLYLINE
  8
0
  6
CONTINUOUS
 66
     1
 40
0.000000
 41
0.000000
  0
VERTEX
  8
0
  6
CONTINUOUS
 10
3.448720
 20
7.177280
  0
VERTEX
  8
0
  6
CONTINUOUS
 10
4.092000
 20
7.535880
  0
VERTEX
  8
0
  6
CONTINUOUS
 10
4.092440
 20
7.535880
  0
VERTEX
  8
0
  6
CONTINUOUS
 10
3.449160
 20
7.177280
  0
VERTEX
  8
0
  6
CONTINUOUS
 10
3.448720
 20
7.177280
  0
SEQEND
  8
0
  0
SOLID
  8
0
 62
    15
 10
3.449160
 20
7.177280
 11
4.092440
 21
7.535880
 12
3.537600
 22
7.168480
 13
4.180880
 23
7.526640
  0
POLYLINE
  8
0
  6
CONTINUOUS
 66
     1
 40
0.000000
 41
0.000000
  0
VERTEX
  8
0
  6
CONTINUOUS
 10
3.449160
 20
7.177280
  0
VERTEX
  8
0
  6
CONTINUOUS
 10
4.092440
 20
7.535880
  0
VERTEX
  8
0
  6
CONTINUOUS
 10
4.180880
 20
7.526640
  0
VERTEX
  8
0
  6
CONTINUOUS
 10
3.537600
 20
7.168480
  0
VERTEX
  8
0
  6
CONTINUOUS
 10
3.449160
 20
7.177280
  0
SEQEND
  8
0
  0
SOLID
  8
0
 62
    15
 10
3.537600
 20
7.168480
 11
4.180880
 21
7.526640
 12
3.619880
 22
7.142960
 13
4.263160
 23
7.501560
  0
POLYLINE
  8
0
  6
CONTINUOUS
 66
     1
 40
0.000000
 41
0.000000
  0
VERTEX
  8
0
  6
CONTINUOUS
 10
3.537600
 20
7.168480
  0
VERTEX
  8
0
  6
CONTINUOUS
 10
4.180880
 20
7.526640
  0
VERTEX
  8
0
  6
CONTINUOUS
 10
4.263160
 20
7.501560
  0
VERTEX
  8
0
  6
CONTINUOUS
 10
3.619880
 20
7.142960
  0
VERTEX
  8
0
  6
CONTINUOUS
 10
3.537600
 20
7.168480
  0
SEQEND
  8
0
  0
SOLID
  8
0
 62
    15
 10
3.619880
 20
7.142960
 11
4.263160
 21
7.501560
 12
3.693360
 22
7.102920
 13
4.336640
 23
7.461080
  0
POLYLINE
  8
0
  6
CONTINUOUS
 66
     1
 40
0.000000
 41
0.000000
  0
VERTEX
  8
0
  6
CONTINUOUS
 10
3.619880
 20
7.142960
  0
VERTEX
  8
0
  6
CONTINUOUS
 10
4.263160
 20
7.501560
  0
VERTEX
  8
0
  6
CONTINUOUS
 10
4.336640
 20
7.461080
  0
VERTEX
  8
0
  6
CONTINUOUS
 10
3.693360
 20
7.102920
  0
VERTEX
  8
0
  6
CONTINUOUS
 10
3.619880
 20
7.142960
  0
SEQEND
  8
0
  0
SOLID
  8
0
 62
    15
 10
2.133560
 20
5.929880
 11
2.777280
 21
6.288040
 12
2.133560
 22
5.929000
 13
2.776840
 23
6.287160
  0
POLYLINE
  8
0
  6
CONTINUOUS
 66
     1
 40
0.000000
 41
0.000000
  0
VERTEX
  8
0
  6
CONTINUOUS
 10
2.133560
 20
5.929880
  0
VERTEX
  8
0
  6
CONTINUOUS
 10
2.777280
 20
6.288040
  0
VERTEX
  8
0
  6
CONTINUOUS
 10
2.776840
 20
6.287160
  0
VERTEX
  8
0
  6
CONTINUOUS
 10
2.133560
 20
5.929000
  0
VERTEX
  8
0
  6
CONTINUOUS
 10
2.133560
 20
5.929880
  0
SEQEND
  8
0
  0
SOLID
  8
0
 62
    15
 10
3.757160
 20
7.049240
 11
4.400440
 21
7.407400
 12
3.809520
 22
6.984560
 13
4.452800
 23
7.342720
  0
POLYLINE
  8
0
  6
CONTINUOUS
 66
     1
 40
0.000000
 41
0.000000
  0
VERTEX
  8
0
  6
CONTINUOUS
 10
3.757160
 20
7.049240
  0
VERTEX
  8
0
  6
CONTINUOUS
 10
4.400440
 20
7.407400
  0
VERTEX
  8
0
  6
CONTINUOUS
 10
4.452800
 20
7.342720
  0
VERTEX
  8
0
  6
CONTINUOUS
 10
3.809520
 20
6.984560
  0
VERTEX
  8
0
  6
CONTINUOUS
 10
3.757160
 20
7.049240
  0
SEQEND
  8
0
  0
SOLID
  8
0
 62
    15
 10
3.445200
 20
6.739920
 11
4.088480
 21
7.098080
 12
3.445200
 22
5.927240
 13
4.088480
 23
6.285840
  0
POLYLINE
  8
0
  6
CONTINUOUS
 66
     1
 40
0.000000
 41
0.000000
  0
VERTEX
  8
0
  6
CONTINUOUS
 10
3.445200
 20
6.739920
  0
VERTEX
  8
0
  6
CONTINUOUS
 10
4.088480
 20
7.098080
  0
VERTEX
  8
0
  6
CONTINUOUS
 10
4.088480
 20
6.285840
  0
VERTEX
  8
0
  6
CONTINUOUS
 10
3.445200
 20
5.927240
  0
VERTEX
  8
0
  6
CONTINUOUS
 10
3.445200
 20
6.739920
  0
SEQEND
  8
0
  0
SOLID
  8
0
 62
    15
 10
3.849120
 20
6.910200
 11
4.492400
 21
7.268360
 12
3.873760
 22
6.828360
 13
4.517040
 23
7.186520
  0
POLYLINE
  8
0
  6
CONTINUOUS
 66
     1
 40
0.000000
 41
0.000000
  0
VERTEX
  8
0
  6
CONTINUOUS
 10
3.849120
 20
6.910200
  0
VERTEX
  8
0
  6
CONTINUOUS
 10
4.492400
 20
7.268360
  0
VERTEX
  8
0
  6
CONTINUOUS
 10
4.517040
 20
7.186520
  0
VERTEX
  8
0
  6
CONTINUOUS
 10
3.873760
 20
6.828360
  0
VERTEX
  8
0
  6
CONTINUOUS
 10
3.849120
 20
6.910200
  0
SEQEND
  8
0
  0
SOLID
  8
0
 62
    15
 10
3.873760
 20
6.828360
 11
4.517040
 21
7.186520
 12
3.882560
 22
6.739920
 13
4.525840
 23
7.098080
  0
POLYLINE
  8
0
  6
CONTINUOUS
 66
     1
 40
0.000000
 41
0.000000
  0
VERTEX
  8
0
  6
CONTINUOUS
 10
3.873760
 20
6.828360
  0
VERTEX
  8
0
  6
CONTINUOUS
 10
4.517040
 20
7.186520
  0
VERTEX
  8
0
  6
CONTINUOUS
 10
4.525840
 20
7.098080
  0
VERTEX
  8
0
  6
CONTINUOUS
 10
3.882560
 20
6.739920
  0
VERTEX
  8
0
  6
CONTINUOUS
 10
3.873760
 20
6.828360
  0
SEQEND
  8
0
  0
SOLID
  8
0
 62
    15
 10
3.882560
 20
6.739920
 11
4.525840
 21
7.098080
 12
3.882560
 22
6.739920
 13
4.526280
 23
7.098080
  0
POLYLINE
  8
0
  6
CONTINUOUS
 66
     1
 40
0.000000
 41
0.000000
  0
VERTEX
  8
0
  6
CONTINUOUS
 10
3.882560
 20
6.739920
  0
VERTEX
  8
0
  6
CONTINUOUS
 10
4.525840
 20
7.098080
  0
VERTEX
  8
0
  6
CONTINUOUS
 10
4.526280
 20
7.098080
  0
VERTEX
  8
0
  6
CONTINUOUS
 10
3.882560
 20
6.739920
  0
SEQEND
  8
0
  0
SOLID
  8
0
 62
    15
 10
3.809520
 20
6.984560
 11
4.452800
 21
7.342720
 12
3.849120
 22
6.910200
 13
4.492400
 23
7.268360
  0
POLYLINE
  8
0
  6
CONTINUOUS
 66
     1
 40
0.000000
 41
0.000000
  0
VERTEX
  8
0
  6
CONTINUOUS
 10
3.809520
 20
6.984560
  0
VERTEX
  8
0
  6
CONTINUOUS
 10
4.452800
 20
7.342720
  0
VERTEX
  8
0
  6
CONTINUOUS
 10
4.492400
 20
7.268360
  0
VERTEX
  8
0
  6
CONTINUOUS
 10
3.849120
 20
6.910200
  0
VERTEX
  8
0
  6
CONTINUOUS
 10
3.809520
 20
6.984560
  0
SEQEND
  8
0
  0
POLYLINE
  8
0
  6
CONTINUOUS
 66
     1
 40
0.000000
 41
0.000000
  0
VERTEX
  8
0
  6
CONTINUOUS
 10
3.274040
 20
5.927680
  0
VERTEX
  8
0
  6
CONTINUOUS
 10
2.133560
 20
5.927680
  0
VERTEX
  8
0
  6
CONTINUOUS
 10
2.133560
 20
5.929880
  0
VERTEX
  8
0
  6
CONTINUOUS
 10
2.133560
 20
5.929000
  0
VERTEX
  8
0
  6
CONTINUOUS
 10
2.133560
 20
7.302680
  0
VERTEX
  8
0
  6
CONTINUOUS
 10
3.448720
 20
7.302680
  0
VERTEX
  8
0
  6
CONTINUOUS
 10
3.448720
 20
7.177280
  0
VERTEX
  8
0
  6
CONTINUOUS
 10
3.449160
 20
7.177280
  0
VERTEX
  8
0
  6
CONTINUOUS
 10
3.537600
 20
7.168480
  0
VERTEX
  8
0
  6
CONTINUOUS
 10
3.619880
 20
7.142960
  0
VERTEX
  8
0
  6
CONTINUOUS
 10
3.693360
 20
7.102920
  0
VERTEX
  8
0
  6
CONTINUOUS
 10
3.757160
 20
7.049240
  0
VERTEX
  8
0
  6
CONTINUOUS
 10
3.809520
 20
6.984560
  0
VERTEX
  8
0
  6
CONTINUOUS
 10
3.849120
 20
6.910200
  0
VERTEX
  8
0
  6
CONTINUOUS
 10
3.873760
 20
6.828360
  0
VERTEX
  8
0
  6
CONTINUOUS
 10
3.882560
 20
6.739920
  0
VERTEX
  8
0
  6
CONTINUOUS
 10
3.445200
 20
6.739920
  0
VERTEX
  8
0
  6
CONTINUOUS
 10
3.445200
 20
5.927240
  0
VERTEX
  8
0
  6
CONTINUOUS
 10
3.274040
 20
5.927240
  0
VERTEX
  8
0
  6
CONTINUOUS
 10
3.274040
 20
5.927680
  0
SEQEND
  8
0
  0
TEXT
  8
0
 10
4.027760
 20
5.683040
 40
0.138117
  1
BA  1148A & B
 41
1.000000
  7
SN0
 71
     0
 72
     5
 11
5.131655
 21
5.683040
  0
TEXT
  8
0
 10
4.363040
 20
5.491640
 40
0.138117
  1
1-3/8"
 41
1.000000
  7
SN0
 71
     0
 72
     5
 11
4.799205
 21
5.491640
  0
POLYLINE
  8
0
  6
CONTINUOUS
 66
     1
 40
0.014080
 41
0.014080
  0
VERTEX
  8
0
  6
CONTINUOUS
 10
4.702280
 20
8.693080
  0
VERTEX
  8
0
  6
CONTINUOUS
 10
6.376480
 20
8.693080
  0
VERTEX
  8
0
  6
CONTINUOUS
 10
6.376480
 20
9.884160
  0
VERTEX
  8
0
  6
CONTINUOUS
 10
6.376480
 20
9.885480
  0
VERTEX
  8
0
  6
CONTINUOUS
 10
6.376480
 20
10.067640
  0
VERTEX
  8
0
  6
CONTINUOUS
 10
6.227760
 20
10.067640
  0
VERTEX
  8
0
  6
CONTINUOUS
 10
4.623080
 20
10.067640
  0
VERTEX
  8
0
  6
CONTINUOUS
 10
4.623080
 20
9.942680
  0
VERTEX
  8
0
  6
CONTINUOUS
 10
4.623520
 20
9.942680
  0
VERTEX
  8
0
  6
CONTINUOUS
 10
4.646400
 20
9.942240
  0
VERTEX
  8
0
  6
CONTINUOUS
 10
4.668400
 20
9.940480
  0
VERTEX
  8
0
  6
CONTINUOUS
 10
4.690400
 20
9.937840
  0
VERTEX
  8
0
  6
CONTINUOUS
 10
4.711960
 20
9.933880
  0
VERTEX
  8
0
  6
CONTINUOUS
 10
4.733520
 20
9.929040
  0
VERTEX
  8
0
  6
CONTINUOUS
 10
4.754200
 20
9.922880
  0
VERTEX
  8
0
  6
CONTINUOUS
 10
4.774440
 20
9.916280
  0
VERTEX
  8
0
  6
CONTINUOUS
 10
4.794240
 20
9.908360
  0
VERTEX
  8
0
  6
CONTINUOUS
 10
4.813160
 20
9.899560
  0
VERTEX
  8
0
  6
CONTINUOUS
 10
4.832080
 20
9.889880
  0
VERTEX
  8
0
  6
CONTINUOUS
 10
4.850120
 20
9.879320
  0
VERTEX
  8
0
  6
CONTINUOUS
 10
4.867720
 20
9.867880
  0
VERTEX
  8
0
  6
CONTINUOUS
 10
4.884880
 20
9.855560
  0
VERTEX
  8
0
  6
CONTINUOUS
 10
4.901160
 20
9.842800
  0
VERTEX
  8
0
  6
CONTINUOUS
 10
4.916560
 20
9.829160
  0
VERTEX
  8
0
  6
CONTINUOUS
 10
4.931520
 20
9.814640
  0
VERTEX
  8
0
  6
CONTINUOUS
 10
4.946040
 20
9.799240
  0
VERTEX
  8
0
  6
CONTINUOUS
 10
4.959240
 20
9.783400
  0
VERTEX
  8
0
  6
CONTINUOUS
 10
4.972000
 20
9.767120
  0
VERTEX
  8
0
  6
CONTINUOUS
 10
4.983880
 20
9.749960
  0
VERTEX
  8
0
  6
CONTINUOUS
 10
4.995320
 20
9.731920
  0
VERTEX
  8
0
  6
CONTINUOUS
 10
5.005440
 20
9.713440
  0
VERTEX
  8
0
  6
CONTINUOUS
 10
5.015120
 20
9.694960
  0
VERTEX
  8
0
  6
CONTINUOUS
 10
5.023480
 20
9.675160
  0
VERTEX
  8
0
  6
CONTINUOUS
 10
5.030960
 20
9.655360
  0
VERTEX
  8
0
  6
CONTINUOUS
 10
5.038000
 20
9.635120
  0
VERTEX
  8
0
  6
CONTINUOUS
 10
5.043720
 20
9.614440
  0
VERTEX
  8
0
  6
CONTINUOUS
 10
5.048120
 20
9.593320
  0
VERTEX
  8
0
  6
CONTINUOUS
 10
5.052080
 20
9.571760
  0
VERTEX
  8
0
  6
CONTINUOUS
 10
5.054720
 20
9.549760
  0
VERTEX
  8
0
  6
CONTINUOUS
 10
5.056480
 20
9.527320
  0
VERTEX
  8
0
  6
CONTINUOUS
 10
5.056920
 20
9.504880
  0
VERTEX
  8
0
  6
CONTINUOUS
 10
5.057360
 20
9.504880
  0
VERTEX
  8
0
  6
CONTINUOUS
 10
4.620000
 20
9.504880
  0
VERTEX
  8
0
  6
CONTINUOUS
 10
4.620000
 20
8.693080
  0
VERTEX
  8
0
  6
CONTINUOUS
 10
4.702280
 20
8.693080
  0
SEQEND
  8
0
  0
POLYLINE
  8
0
  6
CONTINUOUS
 66
     1
 40
0.014080
 41
0.014080
  0
VERTEX
  8
0
  6
CONTINUOUS
 10
3.917320
 20
8.693960
  0
VERTEX
  8
0
  6
CONTINUOUS
 10
2.819960
 20
8.693960
  0
VERTEX
  8
0
  6
CONTINUOUS
 10
2.776840
 20
8.693960
  0
VERTEX
  8
0
  6
CONTINUOUS
 10
2.776840
 20
8.695720
  0
VERTEX
  8
0
  6
CONTINUOUS
 10
2.776840
 20
8.695280
  0
VERTEX
  8
0
  6
CONTINUOUS
 10
2.776840
 20
10.068520
  0
VERTEX
  8
0
  6
CONTINUOUS
 10
3.116080
 20
10.068520
  0
VERTEX
  8
0
  6
CONTINUOUS
 10
4.092000
 20
10.068520
  0
VERTEX
  8
0
  6
CONTINUOUS
 10
4.092000
 20
9.943560
  0
VERTEX
  8
0
  6
CONTINUOUS
 10
4.092440
 20
9.943560
  0
VERTEX
  8
0
  6
CONTINUOUS
 10
4.115320
 20
9.943120
  0
VERTEX
  8
0
  6
CONTINUOUS
 10
4.137320
 20
9.941360
  0
VERTEX
  8
0
  6
CONTINUOUS
 10
4.159320
 20
9.938720
  0
VERTEX
  8
0
  6
CONTINUOUS
 10
4.180880
 20
9.934760
  0
VERTEX
  8
0
  6
CONTINUOUS
 10
4.202440
 20
9.929920
  0
VERTEX
  8
0
  6
CONTINUOUS
 10
4.223120
 20
9.923760
  0
VERTEX
  8
0
  6
CONTINUOUS
 10
4.243360
 20
9.917160
  0
VERTEX
  8
0
  6
CONTINUOUS
 10
4.263160
 20
9.909240
  0
VERTEX
  8
0
  6
CONTINUOUS
 10
4.282080
 20
9.900440
  0
VERTEX
  8
0
  6
CONTINUOUS
 10
4.301000
 20
9.890760
  0
VERTEX
  8
0
  6
CONTINUOUS
 10
4.319040
 20
9.880200
  0
VERTEX
  8
0
  6
CONTINUOUS
 10
4.336640
 20
9.868760
  0
VERTEX
  8
0
  6
CONTINUOUS
 10
4.353800
 20
9.856880
  0
VERTEX
  8
0
  6
CONTINUOUS
 10
4.370080
 20
9.843680
  0
VERTEX
  8
0
  6
CONTINUOUS
 10
4.385480
 20
9.830040
  0
VERTEX
  8
0
  6
CONTINUOUS
 10
4.400440
 20
9.815520
  0
VERTEX
  8
0
  6
CONTINUOUS
 10
4.414960
 20
9.800120
  0
VERTEX
  8
0
  6
CONTINUOUS
 10
4.428160
 20
9.784280
  0
VERTEX
  8
0
  6
CONTINUOUS
 10
4.440920
 20
9.768000
  0
VERTEX
  8
0
  6
CONTINUOUS
 10
4.452800
 20
9.750840
  0
VERTEX
  8
0
  6
CONTINUOUS
 10
4.464240
 20
9.732800
  0
VERTEX
  8
0
  6
CONTINUOUS
 10
4.474360
 20
9.714760
  0
VERTEX
  8
0
  6
CONTINUOUS
 10
4.484040
 20
9.695840
  0
VERTEX
  8
0
  6
CONTINUOUS
 10
4.492400
 20
9.676480
  0
VERTEX
  8
0
  6
CONTINUOUS
 10
4.499880
 20
9.656680
  0
VERTEX
  8
0
  6
CONTINUOUS
 10
4.506920
 20
9.636440
  0
VERTEX
  8
0
  6
CONTINUOUS
 10
4.512640
 20
9.615320
  0
VERTEX
  8
0
  6
CONTINUOUS
 10
4.517040
 20
9.594200
  0
VERTEX
  8
0
  6
CONTINUOUS
 10
4.521000
 20
9.572640
  0
VERTEX
  8
0
  6
CONTINUOUS
 10
4.523640
 20
9.551080
  0
VERTEX
  8
0
  6
CONTINUOUS
 10
4.525400
 20
9.528640
  0
VERTEX
  8
0
  6
CONTINUOUS
 10
4.525840
 20
9.506200
  0
VERTEX
  8
0
  6
CONTINUOUS
 10
4.088480
 20
9.506200
  0
VERTEX
  8
0
  6
CONTINUOUS
 10
4.088480
 20
8.693520
  0
VERTEX
  8
0
  6
CONTINUOUS
 10
3.917320
 20
8.693520
  0
SEQEND
  8
0
  0
TEXT
  8
0
 10
2.869680
 20
9.016920
 40
0.138117
  1
BA  1148A & B
 41
1.000000
  7
SN0
 71
     0
 72
     5
 11
3.973575
 21
9.016920
  0
TEXT
  8
0
 10
3.204960
 20
8.825520
 40
0.138117
  1
1-3/8"
 41
1.000000
  7
SN0
 71
     0
 72
     5
 11
3.641125
 21
8.825520
  0
LINE
  8
0
  6
CONTINUOUS
 10
2.108480
 20
3.755400
 11
2.108480
 21
3.757160
  0
POLYLINE
  8
0
  6
CONTINUOUS
 66
     1
 40
0.014080
 41
0.014080
  0
VERTEX
  8
0
  6
CONTINUOUS
 10
1.376320
 20
8.709360
  0
VERTEX
  8
0
  6
CONTINUOUS
 10
1.376320
 20
9.522040
  0
VERTEX
  8
0
  6
CONTINUOUS
 10
0.938960
 20
9.522040
  0
VERTEX
  8
0
  6
CONTINUOUS
 10
0.939400
 20
9.522040
  0
VERTEX
  8
0
  6
CONTINUOUS
 10
0.941600
 20
9.566920
  0
VERTEX
  8
0
  6
CONTINUOUS
 10
0.948200
 20
9.610040
  0
VERTEX
  8
0
  6
CONTINUOUS
 10
0.958320
 20
9.652280
  0
VERTEX
  8
0
  6
CONTINUOUS
 10
0.981200
 20
9.711680
  0
VERTEX
  8
0
  6
CONTINUOUS
 10
1.012000
 20
9.766680
  0
VERTEX
  8
0
  6
CONTINUOUS
 10
1.036640
 20
9.800120
  0
VERTEX
  8
0
  6
CONTINUOUS
 10
1.064360
 20
9.831360
  0
VERTEX
  8
0
  6
CONTINUOUS
 10
1.095160
 20
9.859520
  0
VERTEX
  8
0
  6
CONTINUOUS
 10
1.128160
 20
9.884600
  0
VERTEX
  8
0
  6
CONTINUOUS
 10
1.163800
 20
9.906600
  0
VERTEX
  8
0
  6
CONTINUOUS
 10
1.202080
 20
9.925080
  0
VERTEX
  8
0
  6
CONTINUOUS
 10
1.241680
 20
9.939600
  0
VERTEX
  8
0
  6
CONTINUOUS
 10
1.283920
 20
9.950600
  0
VERTEX
  8
0
  6
CONTINUOUS
 10
1.327480
 20
9.957200
  0
VERTEX
  8
0
  6
CONTINUOUS
 10
1.372360
 20
9.959400
  0
VERTEX
  8
0
  6
CONTINUOUS
 10
1.373240
 20
9.959400
  0
VERTEX
  8
0
  6
CONTINUOUS
 10
1.373240
 20
10.084360
  0
VERTEX
  8
0
  6
CONTINUOUS
 10
1.555400
 20
10.084360
  0
VERTEX
  8
0
  6
CONTINUOUS
 10
1.555400
 20
9.959400
  0
VERTEX
  8
0
  6
CONTINUOUS
 10
1.601160
 20
9.957200
  0
VERTEX
  8
0
  6
CONTINUOUS
 10
1.644720
 20
9.950600
  0
VERTEX
  8
0
  6
CONTINUOUS
 10
1.686520
 20
9.939600
  0
VERTEX
  8
0
  6
CONTINUOUS
 10
1.726560
 20
9.925080
  0
VERTEX
  8
0
  6
CONTINUOUS
 10
1.764400
 20
9.906600
  0
VERTEX
  8
0
  6
CONTINUOUS
 10
1.817200
 20
9.872720
  0
VERTEX
  8
0
  6
CONTINUOUS
 10
1.848880
 20
9.845880
  0
VERTEX
  8
0
  6
CONTINUOUS
 10
1.878360
 20
9.815960
  0
VERTEX
  8
0
  6
CONTINUOUS
 10
1.904320
 20
9.783840
  0
VERTEX
  8
0
  6
CONTINUOUS
 10
1.927640
 20
9.748640
  0
VERTEX
  8
0
  6
CONTINUOUS
 10
1.947440
 20
9.711680
  0
VERTEX
  8
0
  6
CONTINUOUS
 10
1.970320
 20
9.652280
  0
VERTEX
  8
0
  6
CONTINUOUS
 10
1.980440
 20
9.610040
  0
VERTEX
  8
0
  6
CONTINUOUS
 10
1.987040
 20
9.566920
  0
VERTEX
  8
0
  6
CONTINUOUS
 10
1.989680
 20
9.522040
  0
VERTEX
  8
0
  6
CONTINUOUS
 10
1.552320
 20
9.522040
  0
VERTEX
  8
0
  6
CONTINUOUS
 10
1.552320
 20
8.709360
  0
VERTEX
  8
0
  6
CONTINUOUS
 10
1.376320
 20
8.709360
  0
SEQEND
  8
0
  0
ENDSEC
  0
EOF
