  0
SECTION
  2
HEADER
  9
$ACADVER
  1
AC1006
  9
$EXTMIN
 10
2.772880
 20
1.918840
  9
$EXTMAX
 10
5.796560
 20
8.877000
  9
$LTSCALE
 40
0.044000
  9
$PDMODE
 70
    35
  9
$PDSIZE
 40
0.035200
  0
ENDSEC
  0
SECTION
  2
TABLES
  0
TABLE
  2
LTYPE
 70
     9
  0
LTYPE
  2
CONTINUOUS
 70
    64
  3
Solid line
 72
    65
 73
     0
 40
0.000000
  0
LTYPE
  2
DASHED
 70
    64
  3
__ __ __ __ __ __ __ __ __ __ __ __ __ __ __
 72
    65
 73
     2
 40
0.000330
 49
0.000220
 49
-0.000110
  0
LTYPE
  2
HIDDEN
 70
    64
  3
 _ _ _ _ _ _ _ _ _ _ _ _ _ _ _ _ _ _ _ _ _ _
 72
    65
 73
     2
 40
0.000165
 49
0.000110
 49
-0.000055
  0
LTYPE
  2
CENTER
 70
    64
  3
____ _ ____ _ ____ _ ____ _ ____ _ ____ _ ____
 72
    65
 73
     4
 40
0.000880
 49
0.000550
 49
-0.000110
 49
0.000110
 49
-0.000110
  0
LTYPE
  2
PHANTOM
 70
    64
  3
_____ _ _ _____ _ _ _____ _ _ _____ _ _ ____
 72
    65
 73
     6
 40
0.001100
 49
0.000550
 49
-0.000110
 49
0.000110
 49
-0.000110
 49
0.000110
 49
-0.000110
  0
LTYPE
  2
DOT
 70
    64
  3
...............................................
 72
    65
 73
     2
 40
0.000110
 49
0.000000
 49
-0.000110
  0
LTYPE
  2
DASHDOT
 70
    64
  3
__ . __ . __ . __ . __ . __ . __ . __ . __ . __
 72
    65
 73
     4
 40
0.000440
 49
0.000220
 49
-0.000110
 49
0.000000
 49
-0.000110
  0
LTYPE
  2
BORDER
 70
    64
  3
__ __ . __ __ . __ __ . __ __ . __ __ . __ __
 72
    65
 73
     6
 40
0.000770
 49
0.000220
 49
-0.000110
 49
0.000220
 49
-0.000110
 49
0.000000
 49
-0.000110
  0
LTYPE
  2
DIVIDE
 70
    64
  3
__ . . __ . . __ . . __ . . __ . . __ . . __
 72
    65
 73
     6
 40
0.000550
 49
0.000220
 49
-0.000110
 49
0.000000
 49
-0.000110
 49
0.000000
 49
-0.000110
  0
LTYPE
  2
DOTDOT
 70
    64
  3
 . .  . .  . .  . .  . .  . . 
 72
    65
 73
     5
 40
0.000242
 49
-0.000110
 49
0.000000
 49
-0.000110
 49
0.000000
 49
-0.000110
  0
ENDTAB
  0
TABLE
  2
STYLE
 70
     2
  0
STYLE
 70
     0
  2
SN0
 40
0.000000
 41
0.000440
 50
0.000000
 71
     0
 42
0.000000
  3
ROMAND
  0
STYLE
 70
    68
  2
SV0
 40
0.000000
 41
0.000440
 50
0.000000
 71
     0
 42
0.000000
  3
ROMAND
  0
ENDTAB
  0
TABLE
  2
LAYER
 70
     3
  0
LAYER
  2
FOREGROUND
 70
    64
 62
     7
  6
CONTINUOUS
  0
LAYER
  2
BACKGROUND
 70
    65
 62
    -7
  6
CONTINUOUS
  0
LAYER
  2
0
 70
    64
 62
     7
  6
CONTINUOUS
  0
ENDTAB
  0
ENDSEC
  0
SECTION
  2
ENTITIES
  0
POLYLINE
  8
FOREGROUND
  6
CONTINUOUS
 66
     1
 40
0.000000
 41
0.000000
  0
VERTEX
  8
FOREGROUND
  6
CONTINUOUS
 10
0.000000
 20
10.795840
  0
VERTEX
  8
FOREGROUND
  6
CONTINUOUS
 10
8.499920
 20
10.795840
  0
VERTEX
  8
FOREGROUND
  6
CONTINUOUS
 10
8.499920
 20
-0.204160
  0
VERTEX
  8
FOREGROUND
  6
CONTINUOUS
 10
0.000000
 20
-0.204160
  0
VERTEX
  8
FOREGROUND
  6
CONTINUOUS
 10
0.000000
 20
10.795840
  0
SEQEND
  8
0
  0
POLYLINE
  8
FOREGROUND
  6
CONTINUOUS
 66
     1
 40
0.000000
 41
0.000000
  0
VERTEX
  8
FOREGROUND
  6
CONTINUOUS
 10
0.000000
 20
10.795840
  0
VERTEX
  8
FOREGROUND
  6
CONTINUOUS
 10
8.499920
 20
10.795840
  0
VERTEX
  8
FOREGROUND
  6
CONTINUOUS
 10
8.499920
 20
-0.204160
  0
VERTEX
  8
FOREGROUND
  6
CONTINUOUS
 10
0.000000
 20
-0.204160
  0
VERTEX
  8
FOREGROUND
  6
CONTINUOUS
 10
0.000000
 20
10.795840
  0
SEQEND
  8
0
  0
POLYLINE
  8
0
  6
CONTINUOUS
 66
     1
 40
0.000000
 41
0.000000
  0
VERTEX
  8
0
  6
CONTINUOUS
 10
4.917880
 20
4.372280
  0
VERTEX
  8
0
  6
CONTINUOUS
 10
5.371080
 20
4.372280
  0
VERTEX
  8
0
  6
CONTINUOUS
 10
5.371080
 20
5.322240
  0
VERTEX
  8
0
  6
CONTINUOUS
 10
4.744960
 20
5.322240
  0
VERTEX
  8
0
  6
CONTINUOUS
 10
4.744960
 20
4.939440
  0
VERTEX
  8
0
  6
CONTINUOUS
 10
3.863200
 20
4.939440
  0
VERTEX
  8
0
  6
CONTINUOUS
 10
3.863200
 20
4.753760
  0
VERTEX
  8
0
  6
CONTINUOUS
 10
2.992880
 20
4.753760
  0
VERTEX
  8
0
  6
CONTINUOUS
 10
2.992880
 20
4.370960
  0
VERTEX
  8
0
  6
CONTINUOUS
 10
4.917880
 20
4.370960
  0
VERTEX
  8
0
  6
CONTINUOUS
 10
4.917880
 20
4.372280
  0
SEQEND
  8
0
  0
POLYLINE
  8
0
  6
CONTINUOUS
 66
     1
 40
0.000000
 41
0.000000
  0
VERTEX
  8
0
  6
CONTINUOUS
 10
3.446520
 20
1.920600
  0
VERTEX
  8
0
  6
CONTINUOUS
 10
2.993320
 20
1.920600
  0
VERTEX
  8
0
  6
CONTINUOUS
 10
2.993320
 20
2.870560
  0
VERTEX
  8
0
  6
CONTINUOUS
 10
3.619440
 20
2.870560
  0
VERTEX
  8
0
  6
CONTINUOUS
 10
3.619440
 20
2.487760
  0
VERTEX
  8
0
  6
CONTINUOUS
 10
4.501200
 20
2.487760
  0
VERTEX
  8
0
  6
CONTINUOUS
 10
4.501200
 20
2.302080
  0
VERTEX
  8
0
  6
CONTINUOUS
 10
5.371520
 20
2.302080
  0
VERTEX
  8
0
  6
CONTINUOUS
 10
5.371520
 20
1.919280
  0
VERTEX
  8
0
  6
CONTINUOUS
 10
3.446520
 20
1.919280
  0
VERTEX
  8
0
  6
CONTINUOUS
 10
3.446520
 20
1.920600
  0
SEQEND
  8
0
  0
POLYLINE
  8
0
  6
CONTINUOUS
 66
     1
 40
0.000000
 41
0.000000
  0
VERTEX
  8
0
  6
CONTINUOUS
 10
3.446520
 20
3.146440
  0
VERTEX
  8
0
  6
CONTINUOUS
 10
2.993320
 20
3.146440
  0
VERTEX
  8
0
  6
CONTINUOUS
 10
2.993320
 20
4.096400
  0
VERTEX
  8
0
  6
CONTINUOUS
 10
3.619440
 20
4.096400
  0
VERTEX
  8
0
  6
CONTINUOUS
 10
3.619440
 20
3.713600
  0
VERTEX
  8
0
  6
CONTINUOUS
 10
4.501200
 20
3.713600
  0
VERTEX
  8
0
  6
CONTINUOUS
 10
4.501200
 20
3.527920
  0
VERTEX
  8
0
  6
CONTINUOUS
 10
5.371520
 20
3.527920
  0
VERTEX
  8
0
  6
CONTINUOUS
 10
5.371520
 20
3.145120
  0
VERTEX
  8
0
  6
CONTINUOUS
 10
3.446520
 20
3.145120
  0
VERTEX
  8
0
  6
CONTINUOUS
 10
3.446520
 20
3.146440
  0
SEQEND
  8
0
  0
SOLID
  8
0
 62
    15
 10
3.400320
 20
7.040000
 11
4.044480
 21
7.415760
 12
3.400320
 22
6.657200
 13
4.044480
 23
7.032960
  0
POLYLINE
  8
0
  6
CONTINUOUS
 66
     1
 40
0.000000
 41
0.000000
  0
VERTEX
  8
0
  6
CONTINUOUS
 10
3.400320
 20
7.040000
  0
VERTEX
  8
0
  6
CONTINUOUS
 10
4.044480
 20
7.415760
  0
VERTEX
  8
0
  6
CONTINUOUS
 10
4.044480
 20
7.032960
  0
VERTEX
  8
0
  6
CONTINUOUS
 10
3.400320
 20
6.657200
  0
VERTEX
  8
0
  6
CONTINUOUS
 10
3.400320
 20
7.040000
  0
SEQEND
  8
0
  0
SOLID
  8
0
 62
    15
 10
3.400320
 20
6.657200
 11
4.044480
 21
7.032960
 12
4.282080
 22
6.657200
 13
4.926240
 23
7.032960
  0
POLYLINE
  8
0
  6
CONTINUOUS
 66
     1
 40
0.000000
 41
0.000000
  0
VERTEX
  8
0
  6
CONTINUOUS
 10
3.400320
 20
6.657200
  0
VERTEX
  8
0
  6
CONTINUOUS
 10
4.044480
 20
7.032960
  0
VERTEX
  8
0
  6
CONTINUOUS
 10
4.926240
 20
7.032960
  0
VERTEX
  8
0
  6
CONTINUOUS
 10
4.282080
 20
6.657200
  0
VERTEX
  8
0
  6
CONTINUOUS
 10
3.400320
 20
6.657200
  0
SEQEND
  8
0
  0
SOLID
  8
0
 62
    15
 10
4.282080
 20
6.657200
 11
4.926240
 21
7.032960
 12
4.282080
 22
6.471520
 13
4.926240
 23
6.847280
  0
POLYLINE
  8
0
  6
CONTINUOUS
 66
     1
 40
0.000000
 41
0.000000
  0
VERTEX
  8
0
  6
CONTINUOUS
 10
4.282080
 20
6.657200
  0
VERTEX
  8
0
  6
CONTINUOUS
 10
4.926240
 20
7.032960
  0
VERTEX
  8
0
  6
CONTINUOUS
 10
4.926240
 20
6.847280
  0
VERTEX
  8
0
  6
CONTINUOUS
 10
4.282080
 20
6.471520
  0
VERTEX
  8
0
  6
CONTINUOUS
 10
4.282080
 20
6.657200
  0
SEQEND
  8
0
  0
SOLID
  8
0
 62
    15
 10
4.282080
 20
6.471520
 11
4.926240
 21
6.847280
 12
5.151960
 22
6.471520
 13
5.796120
 23
6.847280
  0
POLYLINE
  8
0
  6
CONTINUOUS
 66
     1
 40
0.000000
 41
0.000000
  0
VERTEX
  8
0
  6
CONTINUOUS
 10
4.282080
 20
6.471520
  0
VERTEX
  8
0
  6
CONTINUOUS
 10
4.926240
 20
6.847280
  0
VERTEX
  8
0
  6
CONTINUOUS
 10
5.796120
 20
6.847280
  0
VERTEX
  8
0
  6
CONTINUOUS
 10
5.151960
 20
6.471520
  0
VERTEX
  8
0
  6
CONTINUOUS
 10
4.282080
 20
6.471520
  0
SEQEND
  8
0
  0
SOLID
  8
0
 62
    15
 10
5.151960
 20
6.471520
 11
5.796120
 21
6.847280
 12
5.151960
 22
6.088720
 13
5.796120
 23
6.464480
  0
POLYLINE
  8
0
  6
CONTINUOUS
 66
     1
 40
0.000000
 41
0.000000
  0
VERTEX
  8
0
  6
CONTINUOUS
 10
5.151960
 20
6.471520
  0
VERTEX
  8
0
  6
CONTINUOUS
 10
5.796120
 20
6.847280
  0
VERTEX
  8
0
  6
CONTINUOUS
 10
5.796120
 20
6.464480
  0
VERTEX
  8
0
  6
CONTINUOUS
 10
5.151960
 20
6.088720
  0
VERTEX
  8
0
  6
CONTINUOUS
 10
5.151960
 20
6.471520
  0
SEQEND
  8
0
  0
SOLID
  8
0
 62
    15
 10
2.773760
 20
7.040000
 11
3.417920
 21
7.415760
 12
3.400320
 22
7.040000
 13
4.044480
 23
7.415760
  0
POLYLINE
  8
0
  6
CONTINUOUS
 66
     1
 40
0.000000
 41
0.000000
  0
VERTEX
  8
0
  6
CONTINUOUS
 10
2.773760
 20
7.040000
  0
VERTEX
  8
0
  6
CONTINUOUS
 10
3.417920
 20
7.415760
  0
VERTEX
  8
0
  6
CONTINUOUS
 10
4.044480
 20
7.415760
  0
VERTEX
  8
0
  6
CONTINUOUS
 10
3.400320
 20
7.040000
  0
VERTEX
  8
0
  6
CONTINUOUS
 10
2.773760
 20
7.040000
  0
SEQEND
  8
0
  0
POLYLINE
  8
0
  6
CONTINUOUS
 66
     1
 40
0.000000
 41
0.000000
  0
VERTEX
  8
0
  6
CONTINUOUS
 10
3.226960
 20
6.090040
  0
VERTEX
  8
0
  6
CONTINUOUS
 10
2.773760
 20
6.090040
  0
VERTEX
  8
0
  6
CONTINUOUS
 10
2.773760
 20
7.040000
  0
VERTEX
  8
0
  6
CONTINUOUS
 10
3.400320
 20
7.040000
  0
VERTEX
  8
0
  6
CONTINUOUS
 10
3.400320
 20
6.657200
  0
VERTEX
  8
0
  6
CONTINUOUS
 10
4.282080
 20
6.657200
  0
VERTEX
  8
0
  6
CONTINUOUS
 10
4.282080
 20
6.471520
  0
VERTEX
  8
0
  6
CONTINUOUS
 10
5.151960
 20
6.471520
  0
VERTEX
  8
0
  6
CONTINUOUS
 10
5.151960
 20
6.088720
  0
VERTEX
  8
0
  6
CONTINUOUS
 10
3.226960
 20
6.088720
  0
VERTEX
  8
0
  6
CONTINUOUS
 10
3.226960
 20
6.090040
  0
SEQEND
  8
0
  0
TEXT
  8
0
 10
3.944160
 20
5.855520
 40
0.138096
  1
BA  1147
 41
1.000000
  7
SN0
 71
     0
 72
     5
 11
4.626408
 21
5.855520
  0
TEXT
  8
0
 10
3.742200
 20
5.664120
 40
0.138096
  1
15/16" x 2-3/8"
 41
1.000000
  7
SN0
 71
     0
 72
     5
 11
4.826977
 21
5.664120
  0
POLYLINE
  8
0
  6
CONTINUOUS
 66
     1
 40
0.014080
 41
0.014080
  0
VERTEX
  8
0
  6
CONTINUOUS
 10
3.696000
 20
7.919560
  0
VERTEX
  8
0
  6
CONTINUOUS
 10
3.242360
 20
7.919560
  0
VERTEX
  8
0
  6
CONTINUOUS
 10
3.242360
 20
8.869520
  0
VERTEX
  8
0
  6
CONTINUOUS
 10
3.868920
 20
8.869520
  0
VERTEX
  8
0
  6
CONTINUOUS
 10
3.868920
 20
8.486720
  0
VERTEX
  8
0
  6
CONTINUOUS
 10
4.750680
 20
8.486720
  0
VERTEX
  8
0
  6
CONTINUOUS
 10
4.750680
 20
8.301040
  0
VERTEX
  8
0
  6
CONTINUOUS
 10
5.621000
 20
8.301040
  0
VERTEX
  8
0
  6
CONTINUOUS
 10
5.621000
 20
7.918240
  0
VERTEX
  8
0
  6
CONTINUOUS
 10
3.696000
 20
7.918240
  0
VERTEX
  8
0
  6
CONTINUOUS
 10
3.696000
 20
7.919560
  0
SEQEND
  8
0
  0
TEXT
  8
0
 10
3.709200
 20
8.180480
 40
0.138096
  1
BA  1147
 41
1.000000
  7
SN0
 71
     0
 72
     5
 11
4.391448
 21
8.180480
  0
TEXT
  8
0
 10
3.507240
 20
7.988640
 40
0.138096
  1
15/16" x 2-3/8"
 41
1.000000
  7
SN0
 71
     0
 72
     5
 11
4.592017
 21
7.988640
  0
ENDSEC
  0
EOF
