  0
SECTION
  2
HEADER
  9
$ACADVER
  1
AC1006
  9
$EXTMIN
 10
1.232880
 20
0.518760
  9
$EXTMAX
 10
7.845640
 20
10.477720
  9
$LTSCALE
 40
0.044000
  9
$PDMODE
 70
    35
  9
$PDSIZE
 40
0.035200
  0
ENDSEC
  0
SECTION
  2
TABLES
  0
TABLE
  2
LTYPE
 70
     9
  0
LTYPE
  2
CONTINUOUS
 70
    64
  3
Solid line
 72
    65
 73
     0
 40
0.000000
  0
LTYPE
  2
DASHED
 70
    64
  3
__ __ __ __ __ __ __ __ __ __ __ __ __ __ __
 72
    65
 73
     2
 40
0.000330
 49
0.000220
 49
-0.000110
  0
LTYPE
  2
HIDDEN
 70
    64
  3
 _ _ _ _ _ _ _ _ _ _ _ _ _ _ _ _ _ _ _ _ _ _
 72
    65
 73
     2
 40
0.000165
 49
0.000110
 49
-0.000055
  0
LTYPE
  2
CENTER
 70
    64
  3
____ _ ____ _ ____ _ ____ _ ____ _ ____ _ ____
 72
    65
 73
     4
 40
0.000880
 49
0.000550
 49
-0.000110
 49
0.000110
 49
-0.000110
  0
LTYPE
  2
PHANTOM
 70
    64
  3
_____ _ _ _____ _ _ _____ _ _ _____ _ _ ____
 72
    65
 73
     6
 40
0.001100
 49
0.000550
 49
-0.000110
 49
0.000110
 49
-0.000110
 49
0.000110
 49
-0.000110
  0
LTYPE
  2
DOT
 70
    64
  3
...............................................
 72
    65
 73
     2
 40
0.000110
 49
0.000000
 49
-0.000110
  0
LTYPE
  2
DASHDOT
 70
    64
  3
__ . __ . __ . __ . __ . __ . __ . __ . __ . __
 72
    65
 73
     4
 40
0.000440
 49
0.000220
 49
-0.000110
 49
0.000000
 49
-0.000110
  0
LTYPE
  2
BORDER
 70
    64
  3
__ __ . __ __ . __ __ . __ __ . __ __ . __ __
 72
    65
 73
     6
 40
0.000770
 49
0.000220
 49
-0.000110
 49
0.000220
 49
-0.000110
 49
0.000000
 49
-0.000110
  0
LTYPE
  2
DIVIDE
 70
    64
  3
__ . . __ . . __ . . __ . . __ . . __ . . __
 72
    65
 73
     6
 40
0.000550
 49
0.000220
 49
-0.000110
 49
0.000000
 49
-0.000110
 49
0.000000
 49
-0.000110
  0
LTYPE
  2
DOTDOT
 70
    64
  3
 . .  . .  . .  . .  . .  . . 
 72
    65
 73
     5
 40
0.000242
 49
-0.000110
 49
0.000000
 49
-0.000110
 49
0.000000
 49
-0.000110
  0
ENDTAB
  0
TABLE
  2
STYLE
 70
     2
  0
STYLE
 70
     0
  2
SN0
 40
0.000000
 41
0.000440
 50
0.000000
 71
     0
 42
0.000000
  3
ROMAND
  0
STYLE
 70
    68
  2
SV0
 40
0.000000
 41
0.000440
 50
0.000000
 71
     0
 42
0.000000
  3
ROMAND
  0
ENDTAB
  0
TABLE
  2
LAYER
 70
     3
  0
LAYER
  2
FOREGROUND
 70
    64
 62
     7
  6
CONTINUOUS
  0
LAYER
  2
BACKGROUND
 70
    65
 62
    -7
  6
CONTINUOUS
  0
LAYER
  2
0
 70
    64
 62
     7
  6
CONTINUOUS
  0
ENDTAB
  0
ENDSEC
  0
SECTION
  2
ENTITIES
  0
POLYLINE
  8
FOREGROUND
  6
CONTINUOUS
 66
     1
 40
0.000000
 41
0.000000
  0
VERTEX
  8
FOREGROUND
  6
CONTINUOUS
 10
0.000000
 20
10.996480
  0
VERTEX
  8
FOREGROUND
  6
CONTINUOUS
 10
8.499920
 20
10.996480
  0
VERTEX
  8
FOREGROUND
  6
CONTINUOUS
 10
8.499920
 20
-0.003520
  0
VERTEX
  8
FOREGROUND
  6
CONTINUOUS
 10
0.000000
 20
-0.003520
  0
VERTEX
  8
FOREGROUND
  6
CONTINUOUS
 10
0.000000
 20
10.996480
  0
SEQEND
  8
0
  0
POLYLINE
  8
FOREGROUND
  6
CONTINUOUS
 66
     1
 40
0.000000
 41
0.000000
  0
VERTEX
  8
FOREGROUND
  6
CONTINUOUS
 10
0.000000
 20
10.996480
  0
VERTEX
  8
FOREGROUND
  6
CONTINUOUS
 10
8.499920
 20
10.996480
  0
VERTEX
  8
FOREGROUND
  6
CONTINUOUS
 10
8.499920
 20
-0.003520
  0
VERTEX
  8
FOREGROUND
  6
CONTINUOUS
 10
0.000000
 20
-0.003520
  0
VERTEX
  8
FOREGROUND
  6
CONTINUOUS
 10
0.000000
 20
10.996480
  0
SEQEND
  8
0
  0
SOLID
  8
0
 62
    15
 10
1.927200
 20
2.358840
 11
2.582800
 21
1.970320
 12
1.943480
 22
2.187240
 13
2.599080
 23
1.798720
  0
POLYLINE
  8
0
  6
CONTINUOUS
 66
     1
 40
0.000000
 41
0.000000
  0
VERTEX
  8
0
  6
CONTINUOUS
 10
1.927200
 20
2.358840
  0
VERTEX
  8
0
  6
CONTINUOUS
 10
2.582800
 20
1.970320
  0
VERTEX
  8
0
  6
CONTINUOUS
 10
2.599080
 20
1.798720
  0
VERTEX
  8
0
  6
CONTINUOUS
 10
1.943480
 20
2.187240
  0
VERTEX
  8
0
  6
CONTINUOUS
 10
1.927200
 20
2.358840
  0
SEQEND
  8
0
  0
SOLID
  8
0
 62
    15
 10
2.395800
 20
3.460600
 11
3.051840
 21
3.072080
 12
2.299440
 22
3.430240
 13
2.955480
 23
3.042160
  0
POLYLINE
  8
0
  6
CONTINUOUS
 66
     1
 40
0.000000
 41
0.000000
  0
VERTEX
  8
0
  6
CONTINUOUS
 10
2.395800
 20
3.460600
  0
VERTEX
  8
0
  6
CONTINUOUS
 10
3.051840
 20
3.072080
  0
VERTEX
  8
0
  6
CONTINUOUS
 10
2.955480
 20
3.042160
  0
VERTEX
  8
0
  6
CONTINUOUS
 10
2.299440
 20
3.430240
  0
VERTEX
  8
0
  6
CONTINUOUS
 10
2.395800
 20
3.460600
  0
SEQEND
  8
0
  0
SOLID
  8
0
 62
    15
 10
2.299440
 20
3.430240
 11
2.955480
 21
3.042160
 12
2.215400
 22
3.399000
 13
2.871440
 23
3.010920
  0
POLYLINE
  8
0
  6
CONTINUOUS
 66
     1
 40
0.000000
 41
0.000000
  0
VERTEX
  8
0
  6
CONTINUOUS
 10
2.299440
 20
3.430240
  0
VERTEX
  8
0
  6
CONTINUOUS
 10
2.955480
 20
3.042160
  0
VERTEX
  8
0
  6
CONTINUOUS
 10
2.871440
 20
3.010920
  0
VERTEX
  8
0
  6
CONTINUOUS
 10
2.215400
 20
3.399000
  0
VERTEX
  8
0
  6
CONTINUOUS
 10
2.299440
 20
3.430240
  0
SEQEND
  8
0
  0
SOLID
  8
0
 62
    15
 10
2.215400
 20
3.399000
 11
2.871440
 21
3.010920
 12
2.142800
 22
3.366000
 13
2.798840
 23
2.977920
  0
POLYLINE
  8
0
  6
CONTINUOUS
 66
     1
 40
0.000000
 41
0.000000
  0
VERTEX
  8
0
  6
CONTINUOUS
 10
2.215400
 20
3.399000
  0
VERTEX
  8
0
  6
CONTINUOUS
 10
2.871440
 20
3.010920
  0
VERTEX
  8
0
  6
CONTINUOUS
 10
2.798840
 20
2.977920
  0
VERTEX
  8
0
  6
CONTINUOUS
 10
2.142800
 20
3.366000
  0
VERTEX
  8
0
  6
CONTINUOUS
 10
2.215400
 20
3.399000
  0
SEQEND
  8
0
  0
SOLID
  8
0
 62
    15
 10
2.142800
 20
3.366000
 11
2.798840
 21
2.977920
 12
2.081200
 22
3.329480
 13
2.737240
 23
2.940960
  0
POLYLINE
  8
0
  6
CONTINUOUS
 66
     1
 40
0.000000
 41
0.000000
  0
VERTEX
  8
0
  6
CONTINUOUS
 10
2.142800
 20
3.366000
  0
VERTEX
  8
0
  6
CONTINUOUS
 10
2.798840
 20
2.977920
  0
VERTEX
  8
0
  6
CONTINUOUS
 10
2.737240
 20
2.940960
  0
VERTEX
  8
0
  6
CONTINUOUS
 10
2.081200
 20
3.329480
  0
VERTEX
  8
0
  6
CONTINUOUS
 10
2.142800
 20
3.366000
  0
SEQEND
  8
0
  0
SOLID
  8
0
 62
    15
 10
2.081200
 20
3.329480
 11
2.737240
 21
2.940960
 12
2.029720
 22
3.288120
 13
2.685760
 23
2.900040
  0
POLYLINE
  8
0
  6
CONTINUOUS
 66
     1
 40
0.000000
 41
0.000000
  0
VERTEX
  8
0
  6
CONTINUOUS
 10
2.081200
 20
3.329480
  0
VERTEX
  8
0
  6
CONTINUOUS
 10
2.737240
 20
2.940960
  0
VERTEX
  8
0
  6
CONTINUOUS
 10
2.685760
 20
2.900040
  0
VERTEX
  8
0
  6
CONTINUOUS
 10
2.029720
 20
3.288120
  0
VERTEX
  8
0
  6
CONTINUOUS
 10
2.081200
 20
3.329480
  0
SEQEND
  8
0
  0
SOLID
  8
0
 62
    15
 10
2.029720
 20
3.288120
 11
2.685760
 21
2.900040
 12
1.987920
 22
3.241480
 13
2.643520
 23
2.852960
  0
POLYLINE
  8
0
  6
CONTINUOUS
 66
     1
 40
0.000000
 41
0.000000
  0
VERTEX
  8
0
  6
CONTINUOUS
 10
2.029720
 20
3.288120
  0
VERTEX
  8
0
  6
CONTINUOUS
 10
2.685760
 20
2.900040
  0
VERTEX
  8
0
  6
CONTINUOUS
 10
2.643520
 20
2.852960
  0
VERTEX
  8
0
  6
CONTINUOUS
 10
1.987920
 20
3.241480
  0
VERTEX
  8
0
  6
CONTINUOUS
 10
2.029720
 20
3.288120
  0
SEQEND
  8
0
  0
SOLID
  8
0
 62
    15
 10
1.987920
 20
3.241480
 11
2.643520
 21
2.852960
 12
1.954480
 22
3.187360
 13
2.610520
 23
2.799280
  0
POLYLINE
  8
0
  6
CONTINUOUS
 66
     1
 40
0.000000
 41
0.000000
  0
VERTEX
  8
0
  6
CONTINUOUS
 10
1.987920
 20
3.241480
  0
VERTEX
  8
0
  6
CONTINUOUS
 10
2.643520
 20
2.852960
  0
VERTEX
  8
0
  6
CONTINUOUS
 10
2.610520
 20
2.799280
  0
VERTEX
  8
0
  6
CONTINUOUS
 10
1.954480
 20
3.187360
  0
VERTEX
  8
0
  6
CONTINUOUS
 10
1.987920
 20
3.241480
  0
SEQEND
  8
0
  0
SOLID
  8
0
 62
    15
 10
1.954480
 20
3.187360
 11
2.610520
 21
2.799280
 12
1.929400
 22
3.125320
 13
2.585440
 23
2.736800
  0
POLYLINE
  8
0
  6
CONTINUOUS
 66
     1
 40
0.000000
 41
0.000000
  0
VERTEX
  8
0
  6
CONTINUOUS
 10
1.954480
 20
3.187360
  0
VERTEX
  8
0
  6
CONTINUOUS
 10
2.610520
 20
2.799280
  0
VERTEX
  8
0
  6
CONTINUOUS
 10
2.585440
 20
2.736800
  0
VERTEX
  8
0
  6
CONTINUOUS
 10
1.929400
 20
3.125320
  0
VERTEX
  8
0
  6
CONTINUOUS
 10
1.954480
 20
3.187360
  0
SEQEND
  8
0
  0
SOLID
  8
0
 62
    15
 10
1.929400
 20
3.125320
 11
2.585440
 21
2.736800
 12
1.912240
 22
3.053600
 13
2.567840
 23
2.665520
  0
POLYLINE
  8
0
  6
CONTINUOUS
 66
     1
 40
0.000000
 41
0.000000
  0
VERTEX
  8
0
  6
CONTINUOUS
 10
1.929400
 20
3.125320
  0
VERTEX
  8
0
  6
CONTINUOUS
 10
2.585440
 20
2.736800
  0
VERTEX
  8
0
  6
CONTINUOUS
 10
2.567840
 20
2.665520
  0
VERTEX
  8
0
  6
CONTINUOUS
 10
1.912240
 20
3.053600
  0
VERTEX
  8
0
  6
CONTINUOUS
 10
1.929400
 20
3.125320
  0
SEQEND
  8
0
  0
SOLID
  8
0
 62
    15
 10
1.912240
 20
3.053600
 11
2.567840
 21
2.665520
 12
1.901680
 22
2.971320
 13
2.557280
 23
2.583240
  0
POLYLINE
  8
0
  6
CONTINUOUS
 66
     1
 40
0.000000
 41
0.000000
  0
VERTEX
  8
0
  6
CONTINUOUS
 10
1.912240
 20
3.053600
  0
VERTEX
  8
0
  6
CONTINUOUS
 10
2.567840
 20
2.665520
  0
VERTEX
  8
0
  6
CONTINUOUS
 10
2.557280
 20
2.583240
  0
VERTEX
  8
0
  6
CONTINUOUS
 10
1.901680
 20
2.971320
  0
VERTEX
  8
0
  6
CONTINUOUS
 10
1.912240
 20
3.053600
  0
SEQEND
  8
0
  0
SOLID
  8
0
 62
    15
 10
1.901680
 20
2.971320
 11
2.557280
 21
2.583240
 12
1.896840
 22
2.877600
 13
2.552880
 23
2.489080
  0
POLYLINE
  8
0
  6
CONTINUOUS
 66
     1
 40
0.000000
 41
0.000000
  0
VERTEX
  8
0
  6
CONTINUOUS
 10
1.901680
 20
2.971320
  0
VERTEX
  8
0
  6
CONTINUOUS
 10
2.557280
 20
2.583240
  0
VERTEX
  8
0
  6
CONTINUOUS
 10
2.552880
 20
2.489080
  0
VERTEX
  8
0
  6
CONTINUOUS
 10
1.896840
 20
2.877600
  0
VERTEX
  8
0
  6
CONTINUOUS
 10
1.901680
 20
2.971320
  0
SEQEND
  8
0
  0
SOLID
  8
0
 62
    15
 10
1.896840
 20
2.877600
 11
2.552880
 21
2.489080
 12
1.898160
 22
2.770240
 13
2.553760
 23
2.382160
  0
POLYLINE
  8
0
  6
CONTINUOUS
 66
     1
 40
0.000000
 41
0.000000
  0
VERTEX
  8
0
  6
CONTINUOUS
 10
1.896840
 20
2.877600
  0
VERTEX
  8
0
  6
CONTINUOUS
 10
2.552880
 20
2.489080
  0
VERTEX
  8
0
  6
CONTINUOUS
 10
2.553760
 20
2.382160
  0
VERTEX
  8
0
  6
CONTINUOUS
 10
1.898160
 20
2.770240
  0
VERTEX
  8
0
  6
CONTINUOUS
 10
1.896840
 20
2.877600
  0
SEQEND
  8
0
  0
SOLID
  8
0
 62
    15
 10
1.898160
 20
2.770240
 11
2.553760
 21
2.382160
 12
1.903880
 22
2.649240
 13
2.559480
 23
2.260720
  0
POLYLINE
  8
0
  6
CONTINUOUS
 66
     1
 40
0.000000
 41
0.000000
  0
VERTEX
  8
0
  6
CONTINUOUS
 10
1.898160
 20
2.770240
  0
VERTEX
  8
0
  6
CONTINUOUS
 10
2.553760
 20
2.382160
  0
VERTEX
  8
0
  6
CONTINUOUS
 10
2.559480
 20
2.260720
  0
VERTEX
  8
0
  6
CONTINUOUS
 10
1.903880
 20
2.649240
  0
VERTEX
  8
0
  6
CONTINUOUS
 10
1.898160
 20
2.770240
  0
SEQEND
  8
0
  0
SOLID
  8
0
 62
    15
 10
1.903880
 20
2.649240
 11
2.559480
 21
2.260720
 12
1.913560
 22
2.512400
 13
2.569600
 23
2.123880
  0
POLYLINE
  8
0
  6
CONTINUOUS
 66
     1
 40
0.000000
 41
0.000000
  0
VERTEX
  8
0
  6
CONTINUOUS
 10
1.903880
 20
2.649240
  0
VERTEX
  8
0
  6
CONTINUOUS
 10
2.559480
 20
2.260720
  0
VERTEX
  8
0
  6
CONTINUOUS
 10
2.569600
 20
2.123880
  0
VERTEX
  8
0
  6
CONTINUOUS
 10
1.913560
 20
2.512400
  0
VERTEX
  8
0
  6
CONTINUOUS
 10
1.903880
 20
2.649240
  0
SEQEND
  8
0
  0
SOLID
  8
0
 62
    15
 10
1.913560
 20
2.512400
 11
2.569600
 21
2.123880
 12
1.927200
 22
2.358840
 13
2.582800
 23
1.970320
  0
POLYLINE
  8
0
  6
CONTINUOUS
 66
     1
 40
0.000000
 41
0.000000
  0
VERTEX
  8
0
  6
CONTINUOUS
 10
1.913560
 20
2.512400
  0
VERTEX
  8
0
  6
CONTINUOUS
 10
2.569600
 20
2.123880
  0
VERTEX
  8
0
  6
CONTINUOUS
 10
2.582800
 20
1.970320
  0
VERTEX
  8
0
  6
CONTINUOUS
 10
1.927200
 20
2.358840
  0
VERTEX
  8
0
  6
CONTINUOUS
 10
1.913560
 20
2.512400
  0
SEQEND
  8
0
  0
SOLID
  8
0
 62
    15
 10
2.395800
 20
5.209160
 11
3.051840
 21
4.821080
 12
2.395800
 22
3.460600
 13
3.051840
 23
3.072080
  0
POLYLINE
  8
0
  6
CONTINUOUS
 66
     1
 40
0.000000
 41
0.000000
  0
VERTEX
  8
0
  6
CONTINUOUS
 10
2.395800
 20
5.209160
  0
VERTEX
  8
0
  6
CONTINUOUS
 10
3.051840
 20
4.821080
  0
VERTEX
  8
0
  6
CONTINUOUS
 10
3.051840
 20
3.072080
  0
VERTEX
  8
0
  6
CONTINUOUS
 10
2.395800
 20
3.460600
  0
VERTEX
  8
0
  6
CONTINUOUS
 10
2.395800
 20
5.209160
  0
SEQEND
  8
0
  0
SOLID
  8
0
 62
    15
 10
2.147640
 20
2.115080
 11
2.803680
 21
1.727000
 12
2.201760
 22
2.068440
 13
2.857360
 23
1.679920
  0
POLYLINE
  8
0
  6
CONTINUOUS
 66
     1
 40
0.000000
 41
0.000000
  0
VERTEX
  8
0
  6
CONTINUOUS
 10
2.147640
 20
2.115080
  0
VERTEX
  8
0
  6
CONTINUOUS
 10
2.803680
 20
1.727000
  0
VERTEX
  8
0
  6
CONTINUOUS
 10
2.857360
 20
1.679920
  0
VERTEX
  8
0
  6
CONTINUOUS
 10
2.201760
 20
2.068440
  0
VERTEX
  8
0
  6
CONTINUOUS
 10
2.147640
 20
2.115080
  0
SEQEND
  8
0
  0
SOLID
  8
0
 62
    15
 10
2.201760
 20
2.068440
 11
2.857360
 21
1.679920
 12
2.246200
 22
2.012120
 13
2.901800
 23
1.624040
  0
POLYLINE
  8
0
  6
CONTINUOUS
 66
     1
 40
0.000000
 41
0.000000
  0
VERTEX
  8
0
  6
CONTINUOUS
 10
2.201760
 20
2.068440
  0
VERTEX
  8
0
  6
CONTINUOUS
 10
2.857360
 20
1.679920
  0
VERTEX
  8
0
  6
CONTINUOUS
 10
2.901800
 20
1.624040
  0
VERTEX
  8
0
  6
CONTINUOUS
 10
2.246200
 20
2.012120
  0
VERTEX
  8
0
  6
CONTINUOUS
 10
2.201760
 20
2.068440
  0
SEQEND
  8
0
  0
SOLID
  8
0
 62
    15
 10
2.246200
 20
2.012120
 11
2.901800
 21
1.624040
 12
2.279200
 22
1.948320
 13
2.935240
 23
1.560240
  0
POLYLINE
  8
0
  6
CONTINUOUS
 66
     1
 40
0.000000
 41
0.000000
  0
VERTEX
  8
0
  6
CONTINUOUS
 10
2.246200
 20
2.012120
  0
VERTEX
  8
0
  6
CONTINUOUS
 10
2.901800
 20
1.624040
  0
VERTEX
  8
0
  6
CONTINUOUS
 10
2.935240
 20
1.560240
  0
VERTEX
  8
0
  6
CONTINUOUS
 10
2.279200
 20
1.948320
  0
VERTEX
  8
0
  6
CONTINUOUS
 10
2.246200
 20
2.012120
  0
SEQEND
  8
0
  0
SOLID
  8
0
 62
    15
 10
2.279200
 20
1.948320
 11
2.935240
 21
1.560240
 12
2.300320
 22
1.878360
 13
2.956360
 23
1.489840
  0
POLYLINE
  8
0
  6
CONTINUOUS
 66
     1
 40
0.000000
 41
0.000000
  0
VERTEX
  8
0
  6
CONTINUOUS
 10
2.279200
 20
1.948320
  0
VERTEX
  8
0
  6
CONTINUOUS
 10
2.935240
 20
1.560240
  0
VERTEX
  8
0
  6
CONTINUOUS
 10
2.956360
 20
1.489840
  0
VERTEX
  8
0
  6
CONTINUOUS
 10
2.300320
 20
1.878360
  0
VERTEX
  8
0
  6
CONTINUOUS
 10
2.279200
 20
1.948320
  0
SEQEND
  8
0
  0
SOLID
  8
0
 62
    15
 10
2.300320
 20
1.878360
 11
2.956360
 21
1.489840
 12
2.307800
 22
1.803120
 13
2.963840
 23
1.414600
  0
POLYLINE
  8
0
  6
CONTINUOUS
 66
     1
 40
0.000000
 41
0.000000
  0
VERTEX
  8
0
  6
CONTINUOUS
 10
2.300320
 20
1.878360
  0
VERTEX
  8
0
  6
CONTINUOUS
 10
2.956360
 20
1.489840
  0
VERTEX
  8
0
  6
CONTINUOUS
 10
2.963840
 20
1.414600
  0
VERTEX
  8
0
  6
CONTINUOUS
 10
2.307800
 20
1.803120
  0
VERTEX
  8
0
  6
CONTINUOUS
 10
2.300320
 20
1.878360
  0
SEQEND
  8
0
  0
SOLID
  8
0
 62
    15
 10
2.307800
 20
1.803120
 11
2.963840
 21
1.414600
 12
2.301200
 22
1.732280
 13
2.956800
 23
1.343760
  0
POLYLINE
  8
0
  6
CONTINUOUS
 66
     1
 40
0.000000
 41
0.000000
  0
VERTEX
  8
0
  6
CONTINUOUS
 10
2.307800
 20
1.803120
  0
VERTEX
  8
0
  6
CONTINUOUS
 10
2.963840
 20
1.414600
  0
VERTEX
  8
0
  6
CONTINUOUS
 10
2.956800
 20
1.343760
  0
VERTEX
  8
0
  6
CONTINUOUS
 10
2.301200
 20
1.732280
  0
VERTEX
  8
0
  6
CONTINUOUS
 10
2.307800
 20
1.803120
  0
SEQEND
  8
0
  0
SOLID
  8
0
 62
    15
 10
2.301200
 20
1.732280
 11
2.956800
 21
1.343760
 12
2.282280
 22
1.665400
 13
2.938320
 23
1.277320
  0
POLYLINE
  8
0
  6
CONTINUOUS
 66
     1
 40
0.000000
 41
0.000000
  0
VERTEX
  8
0
  6
CONTINUOUS
 10
2.301200
 20
1.732280
  0
VERTEX
  8
0
  6
CONTINUOUS
 10
2.956800
 20
1.343760
  0
VERTEX
  8
0
  6
CONTINUOUS
 10
2.938320
 20
1.277320
  0
VERTEX
  8
0
  6
CONTINUOUS
 10
2.282280
 20
1.665400
  0
VERTEX
  8
0
  6
CONTINUOUS
 10
2.301200
 20
1.732280
  0
SEQEND
  8
0
  0
SOLID
  8
0
 62
    15
 10
2.282280
 20
1.665400
 11
2.938320
 21
1.277320
 12
2.252360
 22
1.604240
 13
2.908400
 23
1.216160
  0
POLYLINE
  8
0
  6
CONTINUOUS
 66
     1
 40
0.000000
 41
0.000000
  0
VERTEX
  8
0
  6
CONTINUOUS
 10
2.282280
 20
1.665400
  0
VERTEX
  8
0
  6
CONTINUOUS
 10
2.938320
 20
1.277320
  0
VERTEX
  8
0
  6
CONTINUOUS
 10
2.908400
 20
1.216160
  0
VERTEX
  8
0
  6
CONTINUOUS
 10
2.252360
 20
1.604240
  0
VERTEX
  8
0
  6
CONTINUOUS
 10
2.282280
 20
1.665400
  0
SEQEND
  8
0
  0
SOLID
  8
0
 62
    15
 10
2.252360
 20
1.604240
 11
2.908400
 21
1.216160
 12
2.212320
 22
1.549680
 13
2.868360
 23
1.161600
  0
POLYLINE
  8
0
  6
CONTINUOUS
 66
     1
 40
0.000000
 41
0.000000
  0
VERTEX
  8
0
  6
CONTINUOUS
 10
2.252360
 20
1.604240
  0
VERTEX
  8
0
  6
CONTINUOUS
 10
2.908400
 20
1.216160
  0
VERTEX
  8
0
  6
CONTINUOUS
 10
2.868360
 20
1.161600
  0
VERTEX
  8
0
  6
CONTINUOUS
 10
2.212320
 20
1.549680
  0
VERTEX
  8
0
  6
CONTINUOUS
 10
2.252360
 20
1.604240
  0
SEQEND
  8
0
  0
SOLID
  8
0
 62
    15
 10
2.212320
 20
1.549680
 11
2.868360
 21
1.161600
 12
2.163920
 22
1.503040
 13
2.819520
 23
1.114960
  0
POLYLINE
  8
0
  6
CONTINUOUS
 66
     1
 40
0.000000
 41
0.000000
  0
VERTEX
  8
0
  6
CONTINUOUS
 10
2.212320
 20
1.549680
  0
VERTEX
  8
0
  6
CONTINUOUS
 10
2.868360
 20
1.161600
  0
VERTEX
  8
0
  6
CONTINUOUS
 10
2.819520
 20
1.114960
  0
VERTEX
  8
0
  6
CONTINUOUS
 10
2.163920
 20
1.503040
  0
VERTEX
  8
0
  6
CONTINUOUS
 10
2.212320
 20
1.549680
  0
SEQEND
  8
0
  0
SOLID
  8
0
 62
    15
 10
2.163920
 20
1.503040
 11
2.819520
 21
1.114960
 12
2.107600
 22
1.465640
 13
2.763640
 23
1.077120
  0
POLYLINE
  8
0
  6
CONTINUOUS
 66
     1
 40
0.000000
 41
0.000000
  0
VERTEX
  8
0
  6
CONTINUOUS
 10
2.163920
 20
1.503040
  0
VERTEX
  8
0
  6
CONTINUOUS
 10
2.819520
 20
1.114960
  0
VERTEX
  8
0
  6
CONTINUOUS
 10
2.763640
 20
1.077120
  0
VERTEX
  8
0
  6
CONTINUOUS
 10
2.107600
 20
1.465640
  0
VERTEX
  8
0
  6
CONTINUOUS
 10
2.163920
 20
1.503040
  0
SEQEND
  8
0
  0
SOLID
  8
0
 62
    15
 10
2.107600
 20
1.465640
 11
2.763640
 21
1.077120
 12
2.045120
 22
1.438360
 13
2.700720
 23
1.049840
  0
POLYLINE
  8
0
  6
CONTINUOUS
 66
     1
 40
0.000000
 41
0.000000
  0
VERTEX
  8
0
  6
CONTINUOUS
 10
2.107600
 20
1.465640
  0
VERTEX
  8
0
  6
CONTINUOUS
 10
2.763640
 20
1.077120
  0
VERTEX
  8
0
  6
CONTINUOUS
 10
2.700720
 20
1.049840
  0
VERTEX
  8
0
  6
CONTINUOUS
 10
2.045120
 20
1.438360
  0
VERTEX
  8
0
  6
CONTINUOUS
 10
2.107600
 20
1.465640
  0
SEQEND
  8
0
  0
SOLID
  8
0
 62
    15
 10
2.045120
 20
1.438360
 11
2.700720
 21
1.049840
 12
1.977360
 22
1.422080
 13
2.632960
 23
1.034000
  0
POLYLINE
  8
0
  6
CONTINUOUS
 66
     1
 40
0.000000
 41
0.000000
  0
VERTEX
  8
0
  6
CONTINUOUS
 10
2.045120
 20
1.438360
  0
VERTEX
  8
0
  6
CONTINUOUS
 10
2.700720
 20
1.049840
  0
VERTEX
  8
0
  6
CONTINUOUS
 10
2.632960
 20
1.034000
  0
VERTEX
  8
0
  6
CONTINUOUS
 10
1.977360
 20
1.422080
  0
VERTEX
  8
0
  6
CONTINUOUS
 10
2.045120
 20
1.438360
  0
SEQEND
  8
0
  0
SOLID
  8
0
 62
    15
 10
1.977360
 20
1.422080
 11
2.632960
 21
1.034000
 12
1.977360
 22
0.967120
 13
2.632960
 23
0.579040
  0
POLYLINE
  8
0
  6
CONTINUOUS
 66
     1
 40
0.000000
 41
0.000000
  0
VERTEX
  8
0
  6
CONTINUOUS
 10
1.977360
 20
1.422080
  0
VERTEX
  8
0
  6
CONTINUOUS
 10
2.632960
 20
1.034000
  0
VERTEX
  8
0
  6
CONTINUOUS
 10
2.632960
 20
0.579040
  0
VERTEX
  8
0
  6
CONTINUOUS
 10
1.977360
 20
0.967120
  0
VERTEX
  8
0
  6
CONTINUOUS
 10
1.977360
 20
1.422080
  0
SEQEND
  8
0
  0
SOLID
  8
0
 62
    15
 10
1.977360
 20
0.967120
 11
2.632960
 21
0.579040
 12
1.233760
 22
0.907280
 13
1.889360
 23
0.518760
  0
POLYLINE
  8
0
  6
CONTINUOUS
 66
     1
 40
0.000000
 41
0.000000
  0
VERTEX
  8
0
  6
CONTINUOUS
 10
1.977360
 20
0.967120
  0
VERTEX
  8
0
  6
CONTINUOUS
 10
2.632960
 20
0.579040
  0
VERTEX
  8
0
  6
CONTINUOUS
 10
1.889360
 20
0.518760
  0
VERTEX
  8
0
  6
CONTINUOUS
 10
1.233760
 20
0.907280
  0
VERTEX
  8
0
  6
CONTINUOUS
 10
1.977360
 20
0.967120
  0
SEQEND
  8
0
  0
SOLID
  8
0
 62
    15
 10
1.233760
 20
0.907280
 11
1.889360
 21
0.518760
 12
1.233760
 22
0.907280
 13
1.233320
 23
0.907280
  0
POLYLINE
  8
0
  6
CONTINUOUS
 66
     1
 40
0.000000
 41
0.000000
  0
VERTEX
  8
0
  6
CONTINUOUS
 10
1.233760
 20
0.907280
  0
VERTEX
  8
0
  6
CONTINUOUS
 10
1.889360
 20
0.518760
  0
VERTEX
  8
0
  6
CONTINUOUS
 10
1.233320
 20
0.907280
  0
VERTEX
  8
0
  6
CONTINUOUS
 10
1.233760
 20
0.907280
  0
SEQEND
  8
0
  0
POLYLINE
  8
0
  6
CONTINUOUS
 66
     1
 40
0.000000
 41
0.000000
  0
VERTEX
  8
0
  6
CONTINUOUS
 10
1.233320
 20
0.907280
  0
VERTEX
  8
0
  6
CONTINUOUS
 10
1.233320
 20
5.209160
  0
VERTEX
  8
0
  6
CONTINUOUS
 10
2.395800
 20
5.209160
  0
VERTEX
  8
0
  6
CONTINUOUS
 10
2.395800
 20
3.460600
  0
VERTEX
  8
0
  6
CONTINUOUS
 10
2.299440
 20
3.430240
  0
VERTEX
  8
0
  6
CONTINUOUS
 10
2.215400
 20
3.399000
  0
VERTEX
  8
0
  6
CONTINUOUS
 10
2.142800
 20
3.366000
  0
VERTEX
  8
0
  6
CONTINUOUS
 10
2.081200
 20
3.329480
  0
VERTEX
  8
0
  6
CONTINUOUS
 10
2.029720
 20
3.288120
  0
VERTEX
  8
0
  6
CONTINUOUS
 10
1.987920
 20
3.241480
  0
VERTEX
  8
0
  6
CONTINUOUS
 10
1.954480
 20
3.187360
  0
VERTEX
  8
0
  6
CONTINUOUS
 10
1.929400
 20
3.125320
  0
VERTEX
  8
0
  6
CONTINUOUS
 10
1.912240
 20
3.053600
  0
VERTEX
  8
0
  6
CONTINUOUS
 10
1.901680
 20
2.971320
  0
VERTEX
  8
0
  6
CONTINUOUS
 10
1.896840
 20
2.877600
  0
VERTEX
  8
0
  6
CONTINUOUS
 10
1.898160
 20
2.770240
  0
VERTEX
  8
0
  6
CONTINUOUS
 10
1.903880
 20
2.649240
  0
VERTEX
  8
0
  6
CONTINUOUS
 10
1.913560
 20
2.512400
  0
VERTEX
  8
0
  6
CONTINUOUS
 10
1.927200
 20
2.358840
  0
VERTEX
  8
0
  6
CONTINUOUS
 10
1.943480
 20
2.187240
  0
VERTEX
  8
0
  6
CONTINUOUS
 10
2.017400
 20
2.176240
  0
VERTEX
  8
0
  6
CONTINUOUS
 10
2.086040
 20
2.151600
  0
VERTEX
  8
0
  6
CONTINUOUS
 10
2.147640
 20
2.115080
  0
VERTEX
  8
0
  6
CONTINUOUS
 10
2.201760
 20
2.068440
  0
VERTEX
  8
0
  6
CONTINUOUS
 10
2.246200
 20
2.012120
  0
VERTEX
  8
0
  6
CONTINUOUS
 10
2.279200
 20
1.948320
  0
VERTEX
  8
0
  6
CONTINUOUS
 10
2.300320
 20
1.878360
  0
VERTEX
  8
0
  6
CONTINUOUS
 10
2.307800
 20
1.803120
  0
VERTEX
  8
0
  6
CONTINUOUS
 10
2.301200
 20
1.732280
  0
VERTEX
  8
0
  6
CONTINUOUS
 10
2.282280
 20
1.665400
  0
VERTEX
  8
0
  6
CONTINUOUS
 10
2.252360
 20
1.604240
  0
VERTEX
  8
0
  6
CONTINUOUS
 10
2.212320
 20
1.549680
  0
VERTEX
  8
0
  6
CONTINUOUS
 10
2.163920
 20
1.503040
  0
VERTEX
  8
0
  6
CONTINUOUS
 10
2.107600
 20
1.465640
  0
VERTEX
  8
0
  6
CONTINUOUS
 10
2.045120
 20
1.438360
  0
VERTEX
  8
0
  6
CONTINUOUS
 10
1.977360
 20
1.422080
  0
VERTEX
  8
0
  6
CONTINUOUS
 10
1.977360
 20
0.967120
  0
VERTEX
  8
0
  6
CONTINUOUS
 10
1.233760
 20
0.907280
  0
VERTEX
  8
0
  6
CONTINUOUS
 10
1.233320
 20
0.907280
  0
SEQEND
  8
0
  0
SOLID
  8
0
 62
    15
 10
5.892920
 20
6.952000
 11
6.556880
 21
6.553360
 12
5.744200
 22
6.554680
 13
6.407720
 23
6.156480
  0
POLYLINE
  8
0
  6
CONTINUOUS
 66
     1
 40
0.000000
 41
0.000000
  0
VERTEX
  8
0
  6
CONTINUOUS
 10
5.892920
 20
6.952000
  0
VERTEX
  8
0
  6
CONTINUOUS
 10
6.556880
 20
6.553360
  0
VERTEX
  8
0
  6
CONTINUOUS
 10
6.407720
 20
6.156480
  0
VERTEX
  8
0
  6
CONTINUOUS
 10
5.744200
 20
6.554680
  0
VERTEX
  8
0
  6
CONTINUOUS
 10
5.892920
 20
6.952000
  0
SEQEND
  8
0
  0
SOLID
  8
0
 62
    15
 10
7.181680
 20
9.661520
 11
7.845640
 21
9.263320
 12
7.171120
 22
9.582760
 13
7.834640
 23
9.184120
  0
POLYLINE
  8
0
  6
CONTINUOUS
 66
     1
 40
0.000000
 41
0.000000
  0
VERTEX
  8
0
  6
CONTINUOUS
 10
7.181680
 20
9.661520
  0
VERTEX
  8
0
  6
CONTINUOUS
 10
7.845640
 20
9.263320
  0
VERTEX
  8
0
  6
CONTINUOUS
 10
7.834640
 20
9.184120
  0
VERTEX
  8
0
  6
CONTINUOUS
 10
7.171120
 20
9.582760
  0
VERTEX
  8
0
  6
CONTINUOUS
 10
7.181680
 20
9.661520
  0
SEQEND
  8
0
  0
SOLID
  8
0
 62
    15
 10
7.171120
 20
9.582760
 11
7.834640
 21
9.184120
 12
7.155280
 22
9.533920
 13
7.818800
 23
9.135280
  0
POLYLINE
  8
0
  6
CONTINUOUS
 66
     1
 40
0.000000
 41
0.000000
  0
VERTEX
  8
0
  6
CONTINUOUS
 10
7.171120
 20
9.582760
  0
VERTEX
  8
0
  6
CONTINUOUS
 10
7.834640
 20
9.184120
  0
VERTEX
  8
0
  6
CONTINUOUS
 10
7.818800
 20
9.135280
  0
VERTEX
  8
0
  6
CONTINUOUS
 10
7.155280
 20
9.533920
  0
VERTEX
  8
0
  6
CONTINUOUS
 10
7.171120
 20
9.582760
  0
SEQEND
  8
0
  0
SOLID
  8
0
 62
    15
 10
7.155280
 20
9.533920
 11
7.818800
 21
9.135280
 12
7.096320
 22
9.481560
 13
7.759840
 23
9.082920
  0
POLYLINE
  8
0
  6
CONTINUOUS
 66
     1
 40
0.000000
 41
0.000000
  0
VERTEX
  8
0
  6
CONTINUOUS
 10
7.155280
 20
9.533920
  0
VERTEX
  8
0
  6
CONTINUOUS
 10
7.818800
 20
9.135280
  0
VERTEX
  8
0
  6
CONTINUOUS
 10
7.759840
 20
9.082920
  0
VERTEX
  8
0
  6
CONTINUOUS
 10
7.096320
 20
9.481560
  0
VERTEX
  8
0
  6
CONTINUOUS
 10
7.155280
 20
9.533920
  0
SEQEND
  8
0
  0
SOLID
  8
0
 62
    15
 10
7.096320
 20
9.481560
 11
7.759840
 21
9.082920
 12
6.914600
 22
9.401480
 13
7.578560
 23
9.002840
  0
POLYLINE
  8
0
  6
CONTINUOUS
 66
     1
 40
0.000000
 41
0.000000
  0
VERTEX
  8
0
  6
CONTINUOUS
 10
7.096320
 20
9.481560
  0
VERTEX
  8
0
  6
CONTINUOUS
 10
7.759840
 20
9.082920
  0
VERTEX
  8
0
  6
CONTINUOUS
 10
7.578560
 20
9.002840
  0
VERTEX
  8
0
  6
CONTINUOUS
 10
6.914600
 20
9.401480
  0
VERTEX
  8
0
  6
CONTINUOUS
 10
7.096320
 20
9.481560
  0
SEQEND
  8
0
  0
SOLID
  8
0
 62
    15
 10
6.914600
 20
9.401480
 11
7.578560
 21
9.002840
 12
6.789200
 22
9.293680
 13
7.453160
 23
8.895480
  0
POLYLINE
  8
0
  6
CONTINUOUS
 66
     1
 40
0.000000
 41
0.000000
  0
VERTEX
  8
0
  6
CONTINUOUS
 10
6.914600
 20
9.401480
  0
VERTEX
  8
0
  6
CONTINUOUS
 10
7.578560
 20
9.002840
  0
VERTEX
  8
0
  6
CONTINUOUS
 10
7.453160
 20
8.895480
  0
VERTEX
  8
0
  6
CONTINUOUS
 10
6.789200
 20
9.293680
  0
VERTEX
  8
0
  6
CONTINUOUS
 10
6.914600
 20
9.401480
  0
SEQEND
  8
0
  0
SOLID
  8
0
 62
    15
 10
6.789200
 20
9.293680
 11
7.453160
 21
8.895480
 12
6.713520
 22
9.165200
 13
7.377040
 23
8.766560
  0
POLYLINE
  8
0
  6
CONTINUOUS
 66
     1
 40
0.000000
 41
0.000000
  0
VERTEX
  8
0
  6
CONTINUOUS
 10
6.789200
 20
9.293680
  0
VERTEX
  8
0
  6
CONTINUOUS
 10
7.453160
 20
8.895480
  0
VERTEX
  8
0
  6
CONTINUOUS
 10
7.377040
 20
8.766560
  0
VERTEX
  8
0
  6
CONTINUOUS
 10
6.713520
 20
9.165200
  0
VERTEX
  8
0
  6
CONTINUOUS
 10
6.789200
 20
9.293680
  0
SEQEND
  8
0
  0
SOLID
  8
0
 62
    15
 10
6.713520
 20
9.165200
 11
7.377040
 21
8.766560
 12
6.680520
 22
9.020880
 13
7.344480
 23
8.622680
  0
POLYLINE
  8
0
  6
CONTINUOUS
 66
     1
 40
0.000000
 41
0.000000
  0
VERTEX
  8
0
  6
CONTINUOUS
 10
6.713520
 20
9.165200
  0
VERTEX
  8
0
  6
CONTINUOUS
 10
7.377040
 20
8.766560
  0
VERTEX
  8
0
  6
CONTINUOUS
 10
7.344480
 20
8.622680
  0
VERTEX
  8
0
  6
CONTINUOUS
 10
6.680520
 20
9.020880
  0
VERTEX
  8
0
  6
CONTINUOUS
 10
6.713520
 20
9.165200
  0
SEQEND
  8
0
  0
SOLID
  8
0
 62
    15
 10
6.680520
 20
9.020880
 11
7.344480
 21
8.622680
 12
6.625520
 22
8.015920
 13
7.289040
 23
7.617280
  0
POLYLINE
  8
0
  6
CONTINUOUS
 66
     1
 40
0.000000
 41
0.000000
  0
VERTEX
  8
0
  6
CONTINUOUS
 10
6.680520
 20
9.020880
  0
VERTEX
  8
0
  6
CONTINUOUS
 10
7.344480
 20
8.622680
  0
VERTEX
  8
0
  6
CONTINUOUS
 10
7.289040
 20
7.617280
  0
VERTEX
  8
0
  6
CONTINUOUS
 10
6.625520
 20
8.015920
  0
VERTEX
  8
0
  6
CONTINUOUS
 10
6.680520
 20
9.020880
  0
SEQEND
  8
0
  0
SOLID
  8
0
 62
    15
 10
6.625520
 20
8.015920
 11
7.289040
 21
7.617280
 12
6.184200
 22
7.953440
 13
6.847720
 23
7.555240
  0
POLYLINE
  8
0
  6
CONTINUOUS
 66
     1
 40
0.000000
 41
0.000000
  0
VERTEX
  8
0
  6
CONTINUOUS
 10
6.625520
 20
8.015920
  0
VERTEX
  8
0
  6
CONTINUOUS
 10
7.289040
 20
7.617280
  0
VERTEX
  8
0
  6
CONTINUOUS
 10
6.847720
 20
7.555240
  0
VERTEX
  8
0
  6
CONTINUOUS
 10
6.184200
 20
7.953440
  0
VERTEX
  8
0
  6
CONTINUOUS
 10
6.625520
 20
8.015920
  0
SEQEND
  8
0
  0
SOLID
  8
0
 62
    15
 10
6.184200
 20
7.953440
 11
6.847720
 21
7.555240
 12
6.109400
 22
7.928360
 13
6.773360
 23
7.529720
  0
POLYLINE
  8
0
  6
CONTINUOUS
 66
     1
 40
0.000000
 41
0.000000
  0
VERTEX
  8
0
  6
CONTINUOUS
 10
6.184200
 20
7.953440
  0
VERTEX
  8
0
  6
CONTINUOUS
 10
6.847720
 20
7.555240
  0
VERTEX
  8
0
  6
CONTINUOUS
 10
6.773360
 20
7.529720
  0
VERTEX
  8
0
  6
CONTINUOUS
 10
6.109400
 20
7.928360
  0
VERTEX
  8
0
  6
CONTINUOUS
 10
6.184200
 20
7.953440
  0
SEQEND
  8
0
  0
SOLID
  8
0
 62
    15
 10
6.109400
 20
7.928360
 11
6.773360
 21
7.529720
 12
6.076400
 22
7.881280
 13
6.739920
 23
7.483080
  0
POLYLINE
  8
0
  6
CONTINUOUS
 66
     1
 40
0.000000
 41
0.000000
  0
VERTEX
  8
0
  6
CONTINUOUS
 10
6.109400
 20
7.928360
  0
VERTEX
  8
0
  6
CONTINUOUS
 10
6.773360
 20
7.529720
  0
VERTEX
  8
0
  6
CONTINUOUS
 10
6.739920
 20
7.483080
  0
VERTEX
  8
0
  6
CONTINUOUS
 10
6.076400
 20
7.881280
  0
VERTEX
  8
0
  6
CONTINUOUS
 10
6.109400
 20
7.928360
  0
SEQEND
  8
0
  0
SOLID
  8
0
 62
    15
 10
6.076400
 20
7.881280
 11
6.739920
 21
7.483080
 12
6.005120
 22
7.393320
 13
6.668640
 23
6.995120
  0
POLYLINE
  8
0
  6
CONTINUOUS
 66
     1
 40
0.000000
 41
0.000000
  0
VERTEX
  8
0
  6
CONTINUOUS
 10
6.076400
 20
7.881280
  0
VERTEX
  8
0
  6
CONTINUOUS
 10
6.739920
 20
7.483080
  0
VERTEX
  8
0
  6
CONTINUOUS
 10
6.668640
 20
6.995120
  0
VERTEX
  8
0
  6
CONTINUOUS
 10
6.005120
 20
7.393320
  0
VERTEX
  8
0
  6
CONTINUOUS
 10
6.076400
 20
7.881280
  0
SEQEND
  8
0
  0
SOLID
  8
0
 62
    15
 10
6.005120
 20
7.393320
 11
6.668640
 21
6.995120
 12
5.892920
 22
6.952000
 13
6.556880
 23
6.553360
  0
POLYLINE
  8
0
  6
CONTINUOUS
 66
     1
 40
0.000000
 41
0.000000
  0
VERTEX
  8
0
  6
CONTINUOUS
 10
6.005120
 20
7.393320
  0
VERTEX
  8
0
  6
CONTINUOUS
 10
6.668640
 20
6.995120
  0
VERTEX
  8
0
  6
CONTINUOUS
 10
6.556880
 20
6.553360
  0
VERTEX
  8
0
  6
CONTINUOUS
 10
5.892920
 20
6.952000
  0
VERTEX
  8
0
  6
CONTINUOUS
 10
6.005120
 20
7.393320
  0
SEQEND
  8
0
  0
SOLID
  8
0
 62
    15
 10
7.181680
 20
10.477280
 11
7.845640
 21
10.078640
 12
7.181680
 22
9.661520
 13
7.845640
 23
9.263320
  0
POLYLINE
  8
0
  6
CONTINUOUS
 66
     1
 40
0.000000
 41
0.000000
  0
VERTEX
  8
0
  6
CONTINUOUS
 10
7.181680
 20
10.477280
  0
VERTEX
  8
0
  6
CONTINUOUS
 10
7.845640
 20
10.078640
  0
VERTEX
  8
0
  6
CONTINUOUS
 10
7.845640
 20
9.263320
  0
VERTEX
  8
0
  6
CONTINUOUS
 10
7.181680
 20
9.661520
  0
VERTEX
  8
0
  6
CONTINUOUS
 10
7.181680
 20
10.477280
  0
SEQEND
  8
0
  0
SOLID
  8
0
 62
    15
 10
5.744200
 20
6.554680
 11
6.407720
 21
6.156480
 12
5.562920
 22
6.200040
 13
6.226440
 23
5.801840
  0
POLYLINE
  8
0
  6
CONTINUOUS
 66
     1
 40
0.000000
 41
0.000000
  0
VERTEX
  8
0
  6
CONTINUOUS
 10
5.744200
 20
6.554680
  0
VERTEX
  8
0
  6
CONTINUOUS
 10
6.407720
 20
6.156480
  0
VERTEX
  8
0
  6
CONTINUOUS
 10
6.226440
 20
5.801840
  0
VERTEX
  8
0
  6
CONTINUOUS
 10
5.562920
 20
6.200040
  0
VERTEX
  8
0
  6
CONTINUOUS
 10
5.744200
 20
6.554680
  0
SEQEND
  8
0
  0
SOLID
  8
0
 62
    15
 10
5.562920
 20
6.200040
 11
6.226440
 21
5.801840
 12
5.353040
 22
5.885880
 13
6.017000
 23
5.487680
  0
POLYLINE
  8
0
  6
CONTINUOUS
 66
     1
 40
0.000000
 41
0.000000
  0
VERTEX
  8
0
  6
CONTINUOUS
 10
5.562920
 20
6.200040
  0
VERTEX
  8
0
  6
CONTINUOUS
 10
6.226440
 20
5.801840
  0
VERTEX
  8
0
  6
CONTINUOUS
 10
6.017000
 20
5.487680
  0
VERTEX
  8
0
  6
CONTINUOUS
 10
5.353040
 20
5.885880
  0
VERTEX
  8
0
  6
CONTINUOUS
 10
5.562920
 20
6.200040
  0
SEQEND
  8
0
  0
SOLID
  8
0
 62
    15
 10
5.353040
 20
5.885880
 11
6.017000
 21
5.487680
 12
5.119400
 22
5.610440
 13
5.783360
 23
5.211800
  0
POLYLINE
  8
0
  6
CONTINUOUS
 66
     1
 40
0.000000
 41
0.000000
  0
VERTEX
  8
0
  6
CONTINUOUS
 10
5.353040
 20
5.885880
  0
VERTEX
  8
0
  6
CONTINUOUS
 10
6.017000
 20
5.487680
  0
VERTEX
  8
0
  6
CONTINUOUS
 10
5.783360
 20
5.211800
  0
VERTEX
  8
0
  6
CONTINUOUS
 10
5.119400
 20
5.610440
  0
VERTEX
  8
0
  6
CONTINUOUS
 10
5.353040
 20
5.885880
  0
SEQEND
  8
0
  0
SOLID
  8
0
 62
    15
 10
5.119400
 20
5.610440
 11
5.783360
 21
5.211800
 12
4.865960
 22
5.370640
 13
5.529920
 23
4.972440
  0
POLYLINE
  8
0
  6
CONTINUOUS
 66
     1
 40
0.000000
 41
0.000000
  0
VERTEX
  8
0
  6
CONTINUOUS
 10
5.119400
 20
5.610440
  0
VERTEX
  8
0
  6
CONTINUOUS
 10
5.783360
 20
5.211800
  0
VERTEX
  8
0
  6
CONTINUOUS
 10
5.529920
 20
4.972440
  0
VERTEX
  8
0
  6
CONTINUOUS
 10
4.865960
 20
5.370640
  0
VERTEX
  8
0
  6
CONTINUOUS
 10
5.119400
 20
5.610440
  0
SEQEND
  8
0
  0
SOLID
  8
0
 62
    15
 10
4.865960
 20
5.370640
 11
5.529920
 21
4.972440
 12
4.597120
 22
5.165600
 13
5.261080
 23
4.766960
  0
POLYLINE
  8
0
  6
CONTINUOUS
 66
     1
 40
0.000000
 41
0.000000
  0
VERTEX
  8
0
  6
CONTINUOUS
 10
4.865960
 20
5.370640
  0
VERTEX
  8
0
  6
CONTINUOUS
 10
5.529920
 20
4.972440
  0
VERTEX
  8
0
  6
CONTINUOUS
 10
5.261080
 20
4.766960
  0
VERTEX
  8
0
  6
CONTINUOUS
 10
4.597120
 20
5.165600
  0
VERTEX
  8
0
  6
CONTINUOUS
 10
4.865960
 20
5.370640
  0
SEQEND
  8
0
  0
SOLID
  8
0
 62
    15
 10
4.597120
 20
5.165600
 11
5.261080
 21
4.766960
 12
4.317280
 22
4.992680
 13
4.980800
 23
4.594040
  0
POLYLINE
  8
0
  6
CONTINUOUS
 66
     1
 40
0.000000
 41
0.000000
  0
VERTEX
  8
0
  6
CONTINUOUS
 10
4.597120
 20
5.165600
  0
VERTEX
  8
0
  6
CONTINUOUS
 10
5.261080
 20
4.766960
  0
VERTEX
  8
0
  6
CONTINUOUS
 10
4.980800
 20
4.594040
  0
VERTEX
  8
0
  6
CONTINUOUS
 10
4.317280
 20
4.992680
  0
VERTEX
  8
0
  6
CONTINUOUS
 10
4.597120
 20
5.165600
  0
SEQEND
  8
0
  0
SOLID
  8
0
 62
    15
 10
4.317280
 20
4.992680
 11
4.980800
 21
4.594040
 12
4.029960
 22
4.849680
 13
4.693920
 23
4.451480
  0
POLYLINE
  8
0
  6
CONTINUOUS
 66
     1
 40
0.000000
 41
0.000000
  0
VERTEX
  8
0
  6
CONTINUOUS
 10
4.317280
 20
4.992680
  0
VERTEX
  8
0
  6
CONTINUOUS
 10
4.980800
 20
4.594040
  0
VERTEX
  8
0
  6
CONTINUOUS
 10
4.693920
 20
4.451480
  0
VERTEX
  8
0
  6
CONTINUOUS
 10
4.029960
 20
4.849680
  0
VERTEX
  8
0
  6
CONTINUOUS
 10
4.317280
 20
4.992680
  0
SEQEND
  8
0
  0
SOLID
  8
0
 62
    15
 10
4.029960
 20
4.849680
 11
4.693920
 21
4.451480
 12
3.740000
 22
4.735280
 13
4.403960
 23
4.336640
  0
POLYLINE
  8
0
  6
CONTINUOUS
 66
     1
 40
0.000000
 41
0.000000
  0
VERTEX
  8
0
  6
CONTINUOUS
 10
4.029960
 20
4.849680
  0
VERTEX
  8
0
  6
CONTINUOUS
 10
4.693920
 20
4.451480
  0
VERTEX
  8
0
  6
CONTINUOUS
 10
4.403960
 20
4.336640
  0
VERTEX
  8
0
  6
CONTINUOUS
 10
3.740000
 20
4.735280
  0
VERTEX
  8
0
  6
CONTINUOUS
 10
4.029960
 20
4.849680
  0
SEQEND
  8
0
  0
SOLID
  8
0
 62
    15
 10
3.740000
 20
4.735280
 11
4.403960
 21
4.336640
 12
3.451800
 22
4.646840
 13
4.115760
 23
4.248200
  0
POLYLINE
  8
0
  6
CONTINUOUS
 66
     1
 40
0.000000
 41
0.000000
  0
VERTEX
  8
0
  6
CONTINUOUS
 10
3.740000
 20
4.735280
  0
VERTEX
  8
0
  6
CONTINUOUS
 10
4.403960
 20
4.336640
  0
VERTEX
  8
0
  6
CONTINUOUS
 10
4.115760
 20
4.248200
  0
VERTEX
  8
0
  6
CONTINUOUS
 10
3.451800
 20
4.646840
  0
VERTEX
  8
0
  6
CONTINUOUS
 10
3.740000
 20
4.735280
  0
SEQEND
  8
0
  0
SOLID
  8
0
 62
    15
 10
3.169320
 20
4.582160
 11
3.832840
 21
4.183960
 12
2.896520
 22
4.539920
 13
3.560480
 23
4.141280
  0
POLYLINE
  8
0
  6
CONTINUOUS
 66
     1
 40
0.000000
 41
0.000000
  0
VERTEX
  8
0
  6
CONTINUOUS
 10
3.169320
 20
4.582160
  0
VERTEX
  8
0
  6
CONTINUOUS
 10
3.832840
 20
4.183960
  0
VERTEX
  8
0
  6
CONTINUOUS
 10
3.560480
 20
4.141280
  0
VERTEX
  8
0
  6
CONTINUOUS
 10
2.896520
 20
4.539920
  0
VERTEX
  8
0
  6
CONTINUOUS
 10
3.169320
 20
4.582160
  0
SEQEND
  8
0
  0
SOLID
  8
0
 62
    15
 10
3.451800
 20
4.646840
 11
4.115760
 21
4.248200
 12
3.169320
 22
4.582160
 13
3.832840
 23
4.183960
  0
POLYLINE
  8
0
  6
CONTINUOUS
 66
     1
 40
0.000000
 41
0.000000
  0
VERTEX
  8
0
  6
CONTINUOUS
 10
3.451800
 20
4.646840
  0
VERTEX
  8
0
  6
CONTINUOUS
 10
4.115760
 20
4.248200
  0
VERTEX
  8
0
  6
CONTINUOUS
 10
3.832840
 20
4.183960
  0
VERTEX
  8
0
  6
CONTINUOUS
 10
3.169320
 20
4.582160
  0
VERTEX
  8
0
  6
CONTINUOUS
 10
3.451800
 20
4.646840
  0
SEQEND
  8
0
  0
SOLID
  8
0
 62
    15
 10
2.896520
 20
4.539920
 11
3.560480
 21
4.141280
 12
2.638240
 22
4.517480
 13
3.302200
 23
4.118840
  0
POLYLINE
  8
0
  6
CONTINUOUS
 66
     1
 40
0.000000
 41
0.000000
  0
VERTEX
  8
0
  6
CONTINUOUS
 10
2.896520
 20
4.539920
  0
VERTEX
  8
0
  6
CONTINUOUS
 10
3.560480
 20
4.141280
  0
VERTEX
  8
0
  6
CONTINUOUS
 10
3.302200
 20
4.118840
  0
VERTEX
  8
0
  6
CONTINUOUS
 10
2.638240
 20
4.517480
  0
VERTEX
  8
0
  6
CONTINUOUS
 10
2.896520
 20
4.539920
  0
SEQEND
  8
0
  0
SOLID
  8
0
 62
    15
 10
2.638240
 20
4.517480
 11
3.302200
 21
4.118840
 12
2.398440
 22
4.513080
 13
3.062400
 23
4.114440
  0
POLYLINE
  8
0
  6
CONTINUOUS
 66
     1
 40
0.000000
 41
0.000000
  0
VERTEX
  8
0
  6
CONTINUOUS
 10
2.638240
 20
4.517480
  0
VERTEX
  8
0
  6
CONTINUOUS
 10
3.302200
 20
4.118840
  0
VERTEX
  8
0
  6
CONTINUOUS
 10
3.062400
 20
4.114440
  0
VERTEX
  8
0
  6
CONTINUOUS
 10
2.398440
 20
4.513080
  0
VERTEX
  8
0
  6
CONTINUOUS
 10
2.638240
 20
4.517480
  0
SEQEND
  8
0
  0
POLYLINE
  8
0
  6
CONTINUOUS
 66
     1
 40
0.000000
 41
0.000000
  0
VERTEX
  8
0
  6
CONTINUOUS
 10
6.194320
 20
10.477280
  0
VERTEX
  8
0
  6
CONTINUOUS
 10
7.181680
 20
10.477280
  0
VERTEX
  8
0
  6
CONTINUOUS
 10
7.181680
 20
9.661520
  0
VERTEX
  8
0
  6
CONTINUOUS
 10
7.171120
 20
9.582760
  0
VERTEX
  8
0
  6
CONTINUOUS
 10
7.155280
 20
9.533920
  0
VERTEX
  8
0
  6
CONTINUOUS
 10
7.096320
 20
9.481560
  0
VERTEX
  8
0
  6
CONTINUOUS
 10
6.914600
 20
9.401480
  0
VERTEX
  8
0
  6
CONTINUOUS
 10
6.789200
 20
9.293680
  0
VERTEX
  8
0
  6
CONTINUOUS
 10
6.713520
 20
9.165200
  0
VERTEX
  8
0
  6
CONTINUOUS
 10
6.680520
 20
9.020880
  0
VERTEX
  8
0
  6
CONTINUOUS
 10
6.625520
 20
8.015920
  0
VERTEX
  8
0
  6
CONTINUOUS
 10
6.184200
 20
7.953440
  0
VERTEX
  8
0
  6
CONTINUOUS
 10
6.109400
 20
7.928360
  0
VERTEX
  8
0
  6
CONTINUOUS
 10
6.076400
 20
7.881280
  0
VERTEX
  8
0
  6
CONTINUOUS
 10
6.005120
 20
7.393320
  0
VERTEX
  8
0
  6
CONTINUOUS
 10
5.892920
 20
6.952000
  0
VERTEX
  8
0
  6
CONTINUOUS
 10
5.744200
 20
6.554680
  0
VERTEX
  8
0
  6
CONTINUOUS
 10
5.562920
 20
6.200040
  0
VERTEX
  8
0
  6
CONTINUOUS
 10
5.353040
 20
5.885880
  0
VERTEX
  8
0
  6
CONTINUOUS
 10
5.119400
 20
5.610440
  0
VERTEX
  8
0
  6
CONTINUOUS
 10
4.865960
 20
5.370640
  0
VERTEX
  8
0
  6
CONTINUOUS
 10
4.597120
 20
5.165600
  0
VERTEX
  8
0
  6
CONTINUOUS
 10
4.317280
 20
4.992680
  0
VERTEX
  8
0
  6
CONTINUOUS
 10
4.029960
 20
4.849680
  0
VERTEX
  8
0
  6
CONTINUOUS
 10
3.740000
 20
4.735280
  0
VERTEX
  8
0
  6
CONTINUOUS
 10
3.451800
 20
4.646840
  0
VERTEX
  8
0
  6
CONTINUOUS
 10
3.169320
 20
4.582160
  0
VERTEX
  8
0
  6
CONTINUOUS
 10
2.896520
 20
4.539920
  0
VERTEX
  8
0
  6
CONTINUOUS
 10
2.638240
 20
4.517480
  0
VERTEX
  8
0
  6
CONTINUOUS
 10
2.398440
 20
4.513080
  0
VERTEX
  8
0
  6
CONTINUOUS
 10
2.398440
 20
5.286600
  0
VERTEX
  8
0
  6
CONTINUOUS
 10
6.194320
 20
10.477280
  0
SEQEND
  8
0
  0
TEXT
  8
0
 10
5.065280
 20
4.090680
 40
0.137854
  1
BA  1145
 41
1.000000
  7
SN0
 71
     0
 72
     5
 11
5.750456
 21
4.090680
  0
TEXT
  8
0
 10
4.835600
 20
3.899280
 40
0.137854
  1
2-1/16" x 7-5/8"
 41
1.000000
  7
SN0
 71
     0
 72
     5
 11
5.981378
 21
3.899280
  0
TEXT
  8
0
 10
3.413960
 20
0.768680
 40
0.137854
  1
BA  1146
 41
1.000000
  7
SN0
 71
     0
 72
     5
 11
4.099136
 21
0.768680
  0
TEXT
  8
0
 10
3.138080
 20
0.577280
 40
0.137854
  1
1-3/16" x 4-5/16"
 41
1.000000
  7
SN0
 71
     0
 72
     5
 11
4.376477
 21
0.577280
  0
ENDSEC
  0
EOF
