  0
SECTION
  2
HEADER
  9
$ACADVER
  1
AC1006
  9
$EXTMIN
 10
0.888800
 20
1.279080
  9
$EXTMAX
 10
7.340080
 20
9.986240
  9
$LTSCALE
 40
0.044000
  9
$PDMODE
 70
    35
  9
$PDSIZE
 40
0.035200
  0
ENDSEC
  0
SECTION
  2
TABLES
  0
TABLE
  2
LTYPE
 70
     9
  0
LTYPE
  2
CONTINUOUS
 70
    64
  3
Solid line
 72
    65
 73
     0
 40
0.000000
  0
LTYPE
  2
DASHED
 70
    64
  3
__ __ __ __ __ __ __ __ __ __ __ __ __ __ __
 72
    65
 73
     2
 40
0.000330
 49
0.000220
 49
-0.000110
  0
LTYPE
  2
HIDDEN
 70
    64
  3
 _ _ _ _ _ _ _ _ _ _ _ _ _ _ _ _ _ _ _ _ _ _
 72
    65
 73
     2
 40
0.000165
 49
0.000110
 49
-0.000055
  0
LTYPE
  2
CENTER
 70
    64
  3
____ _ ____ _ ____ _ ____ _ ____ _ ____ _ ____
 72
    65
 73
     4
 40
0.000880
 49
0.000550
 49
-0.000110
 49
0.000110
 49
-0.000110
  0
LTYPE
  2
PHANTOM
 70
    64
  3
_____ _ _ _____ _ _ _____ _ _ _____ _ _ ____
 72
    65
 73
     6
 40
0.001100
 49
0.000550
 49
-0.000110
 49
0.000110
 49
-0.000110
 49
0.000110
 49
-0.000110
  0
LTYPE
  2
DOT
 70
    64
  3
...............................................
 72
    65
 73
     2
 40
0.000110
 49
0.000000
 49
-0.000110
  0
LTYPE
  2
DASHDOT
 70
    64
  3
__ . __ . __ . __ . __ . __ . __ . __ . __ . __
 72
    65
 73
     4
 40
0.000440
 49
0.000220
 49
-0.000110
 49
0.000000
 49
-0.000110
  0
LTYPE
  2
BORDER
 70
    64
  3
__ __ . __ __ . __ __ . __ __ . __ __ . __ __
 72
    65
 73
     6
 40
0.000770
 49
0.000220
 49
-0.000110
 49
0.000220
 49
-0.000110
 49
0.000000
 49
-0.000110
  0
LTYPE
  2
DIVIDE
 70
    64
  3
__ . . __ . . __ . . __ . . __ . . __ . . __
 72
    65
 73
     6
 40
0.000550
 49
0.000220
 49
-0.000110
 49
0.000000
 49
-0.000110
 49
0.000000
 49
-0.000110
  0
LTYPE
  2
DOTDOT
 70
    64
  3
 . .  . .  . .  . .  . .  . . 
 72
    65
 73
     5
 40
0.000242
 49
-0.000110
 49
0.000000
 49
-0.000110
 49
0.000000
 49
-0.000110
  0
ENDTAB
  0
TABLE
  2
STYLE
 70
     2
  0
STYLE
 70
     0
  2
SN0
 40
0.000000
 41
0.000440
 50
0.000000
 71
     0
 42
0.000000
  3
ROMAND
  0
STYLE
 70
    68
  2
SV0
 40
0.000000
 41
0.000440
 50
0.000000
 71
     0
 42
0.000000
  3
ROMAND
  0
ENDTAB
  0
TABLE
  2
LAYER
 70
     3
  0
LAYER
  2
FOREGROUND
 70
    64
 62
     7
  6
CONTINUOUS
  0
LAYER
  2
BACKGROUND
 70
    65
 62
    -7
  6
CONTINUOUS
  0
LAYER
  2
0
 70
    64
 62
     7
  6
CONTINUOUS
  0
ENDTAB
  0
ENDSEC
  0
SECTION
  2
ENTITIES
  0
POLYLINE
  8
FOREGROUND
  6
CONTINUOUS
 66
     1
 40
0.000000
 41
0.000000
  0
VERTEX
  8
FOREGROUND
  6
CONTINUOUS
 10
0.000000
 20
11.265320
  0
VERTEX
  8
FOREGROUND
  6
CONTINUOUS
 10
8.499920
 20
11.265320
  0
VERTEX
  8
FOREGROUND
  6
CONTINUOUS
 10
8.499920
 20
0.265320
  0
VERTEX
  8
FOREGROUND
  6
CONTINUOUS
 10
0.000000
 20
0.265320
  0
VERTEX
  8
FOREGROUND
  6
CONTINUOUS
 10
0.000000
 20
11.265320
  0
SEQEND
  8
0
  0
POLYLINE
  8
FOREGROUND
  6
CONTINUOUS
 66
     1
 40
0.000000
 41
0.000000
  0
VERTEX
  8
FOREGROUND
  6
CONTINUOUS
 10
0.000000
 20
11.265320
  0
VERTEX
  8
FOREGROUND
  6
CONTINUOUS
 10
8.499920
 20
11.265320
  0
VERTEX
  8
FOREGROUND
  6
CONTINUOUS
 10
8.499920
 20
0.265320
  0
VERTEX
  8
FOREGROUND
  6
CONTINUOUS
 10
0.000000
 20
0.265320
  0
VERTEX
  8
FOREGROUND
  6
CONTINUOUS
 10
0.000000
 20
11.265320
  0
SEQEND
  8
0
  0
SOLID
  8
0
 62
    15
 10
3.977600
 20
6.020960
 11
4.626600
 21
6.418720
 12
4.018080
 22
5.976960
 13
4.667080
 23
6.374280
  0
POLYLINE
  8
0
  6
CONTINUOUS
 66
     1
 40
0.000000
 41
0.000000
  0
VERTEX
  8
0
  6
CONTINUOUS
 10
3.977600
 20
6.020960
  0
VERTEX
  8
0
  6
CONTINUOUS
 10
4.626600
 20
6.418720
  0
VERTEX
  8
0
  6
CONTINUOUS
 10
4.667080
 20
6.374280
  0
VERTEX
  8
0
  6
CONTINUOUS
 10
4.018080
 20
5.976960
  0
VERTEX
  8
0
  6
CONTINUOUS
 10
3.977600
 20
6.020960
  0
SEQEND
  8
0
  0
SOLID
  8
0
 62
    15
 10
3.627360
 20
8.344600
 11
4.276360
 21
8.741920
 12
3.642320
 22
8.342400
 13
4.291320
 23
8.739720
  0
POLYLINE
  8
0
  6
CONTINUOUS
 66
     1
 40
0.000000
 41
0.000000
  0
VERTEX
  8
0
  6
CONTINUOUS
 10
3.627360
 20
8.344600
  0
VERTEX
  8
0
  6
CONTINUOUS
 10
4.276360
 20
8.741920
  0
VERTEX
  8
0
  6
CONTINUOUS
 10
4.291320
 20
8.739720
  0
VERTEX
  8
0
  6
CONTINUOUS
 10
3.642320
 20
8.342400
  0
VERTEX
  8
0
  6
CONTINUOUS
 10
3.627360
 20
8.344600
  0
SEQEND
  8
0
  0
SOLID
  8
0
 62
    15
 10
3.642320
 20
8.342400
 11
4.291320
 21
8.739720
 12
3.654640
 22
8.336680
 13
4.303640
 23
8.734000
  0
POLYLINE
  8
0
  6
CONTINUOUS
 66
     1
 40
0.000000
 41
0.000000
  0
VERTEX
  8
0
  6
CONTINUOUS
 10
3.642320
 20
8.342400
  0
VERTEX
  8
0
  6
CONTINUOUS
 10
4.291320
 20
8.739720
  0
VERTEX
  8
0
  6
CONTINUOUS
 10
4.303640
 20
8.734000
  0
VERTEX
  8
0
  6
CONTINUOUS
 10
3.654640
 20
8.336680
  0
VERTEX
  8
0
  6
CONTINUOUS
 10
3.642320
 20
8.342400
  0
SEQEND
  8
0
  0
SOLID
  8
0
 62
    15
 10
3.654640
 20
8.336680
 11
4.303640
 21
8.734000
 12
3.674440
 22
8.319080
 13
4.323440
 23
8.716840
  0
POLYLINE
  8
0
  6
CONTINUOUS
 66
     1
 40
0.000000
 41
0.000000
  0
VERTEX
  8
0
  6
CONTINUOUS
 10
3.654640
 20
8.336680
  0
VERTEX
  8
0
  6
CONTINUOUS
 10
4.303640
 20
8.734000
  0
VERTEX
  8
0
  6
CONTINUOUS
 10
4.323440
 20
8.716840
  0
VERTEX
  8
0
  6
CONTINUOUS
 10
3.674440
 20
8.319080
  0
VERTEX
  8
0
  6
CONTINUOUS
 10
3.654640
 20
8.336680
  0
SEQEND
  8
0
  0
SOLID
  8
0
 62
    15
 10
3.674440
 20
8.319080
 11
4.323440
 21
8.716840
 12
3.690280
 22
8.301040
 13
4.339280
 23
8.698360
  0
POLYLINE
  8
0
  6
CONTINUOUS
 66
     1
 40
0.000000
 41
0.000000
  0
VERTEX
  8
0
  6
CONTINUOUS
 10
3.674440
 20
8.319080
  0
VERTEX
  8
0
  6
CONTINUOUS
 10
4.323440
 20
8.716840
  0
VERTEX
  8
0
  6
CONTINUOUS
 10
4.339280
 20
8.698360
  0
VERTEX
  8
0
  6
CONTINUOUS
 10
3.690280
 20
8.301040
  0
VERTEX
  8
0
  6
CONTINUOUS
 10
3.674440
 20
8.319080
  0
SEQEND
  8
0
  0
SOLID
  8
0
 62
    15
 10
3.690280
 20
8.301040
 11
4.339280
 21
8.698360
 12
3.706560
 22
8.290920
 13
4.355560
 23
8.688240
  0
POLYLINE
  8
0
  6
CONTINUOUS
 66
     1
 40
0.000000
 41
0.000000
  0
VERTEX
  8
0
  6
CONTINUOUS
 10
3.690280
 20
8.301040
  0
VERTEX
  8
0
  6
CONTINUOUS
 10
4.339280
 20
8.698360
  0
VERTEX
  8
0
  6
CONTINUOUS
 10
4.355560
 20
8.688240
  0
VERTEX
  8
0
  6
CONTINUOUS
 10
3.706560
 20
8.290920
  0
VERTEX
  8
0
  6
CONTINUOUS
 10
3.690280
 20
8.301040
  0
SEQEND
  8
0
  0
SOLID
  8
0
 62
    15
 10
3.706560
 20
8.290920
 11
4.355560
 21
8.688240
 12
3.718440
 22
8.288720
 13
4.367440
 23
8.686040
  0
POLYLINE
  8
0
  6
CONTINUOUS
 66
     1
 40
0.000000
 41
0.000000
  0
VERTEX
  8
0
  6
CONTINUOUS
 10
3.706560
 20
8.290920
  0
VERTEX
  8
0
  6
CONTINUOUS
 10
4.355560
 20
8.688240
  0
VERTEX
  8
0
  6
CONTINUOUS
 10
4.367440
 20
8.686040
  0
VERTEX
  8
0
  6
CONTINUOUS
 10
3.718440
 20
8.288720
  0
VERTEX
  8
0
  6
CONTINUOUS
 10
3.706560
 20
8.290920
  0
SEQEND
  8
0
  0
SOLID
  8
0
 62
    15
 10
3.718440
 20
8.288720
 11
4.367440
 21
8.686040
 12
3.735160
 22
8.284760
 13
4.384160
 23
8.682520
  0
POLYLINE
  8
0
  6
CONTINUOUS
 66
     1
 40
0.000000
 41
0.000000
  0
VERTEX
  8
0
  6
CONTINUOUS
 10
3.718440
 20
8.288720
  0
VERTEX
  8
0
  6
CONTINUOUS
 10
4.367440
 20
8.686040
  0
VERTEX
  8
0
  6
CONTINUOUS
 10
4.384160
 20
8.682520
  0
VERTEX
  8
0
  6
CONTINUOUS
 10
3.735160
 20
8.284760
  0
VERTEX
  8
0
  6
CONTINUOUS
 10
3.718440
 20
8.288720
  0
SEQEND
  8
0
  0
SOLID
  8
0
 62
    15
 10
3.735160
 20
8.284760
 11
4.384160
 21
8.682520
 12
3.774320
 22
8.272880
 13
4.423320
 23
8.670640
  0
POLYLINE
  8
0
  6
CONTINUOUS
 66
     1
 40
0.000000
 41
0.000000
  0
VERTEX
  8
0
  6
CONTINUOUS
 10
3.735160
 20
8.284760
  0
VERTEX
  8
0
  6
CONTINUOUS
 10
4.384160
 20
8.682520
  0
VERTEX
  8
0
  6
CONTINUOUS
 10
4.423320
 20
8.670640
  0
VERTEX
  8
0
  6
CONTINUOUS
 10
3.774320
 20
8.272880
  0
VERTEX
  8
0
  6
CONTINUOUS
 10
3.735160
 20
8.284760
  0
SEQEND
  8
0
  0
SOLID
  8
0
 62
    15
 10
3.774320
 20
8.272880
 11
4.423320
 21
8.670640
 12
3.793240
 22
8.264080
 13
4.442240
 23
8.661400
  0
POLYLINE
  8
0
  6
CONTINUOUS
 66
     1
 40
0.000000
 41
0.000000
  0
VERTEX
  8
0
  6
CONTINUOUS
 10
3.774320
 20
8.272880
  0
VERTEX
  8
0
  6
CONTINUOUS
 10
4.423320
 20
8.670640
  0
VERTEX
  8
0
  6
CONTINUOUS
 10
4.442240
 20
8.661400
  0
VERTEX
  8
0
  6
CONTINUOUS
 10
3.793240
 20
8.264080
  0
VERTEX
  8
0
  6
CONTINUOUS
 10
3.774320
 20
8.272880
  0
SEQEND
  8
0
  0
SOLID
  8
0
 62
    15
 10
3.793240
 20
8.264080
 11
4.442240
 21
8.661400
 12
3.809080
 22
8.252640
 13
4.458520
 23
8.650400
  0
POLYLINE
  8
0
  6
CONTINUOUS
 66
     1
 40
0.000000
 41
0.000000
  0
VERTEX
  8
0
  6
CONTINUOUS
 10
3.793240
 20
8.264080
  0
VERTEX
  8
0
  6
CONTINUOUS
 10
4.442240
 20
8.661400
  0
VERTEX
  8
0
  6
CONTINUOUS
 10
4.458520
 20
8.650400
  0
VERTEX
  8
0
  6
CONTINUOUS
 10
3.809080
 20
8.252640
  0
VERTEX
  8
0
  6
CONTINUOUS
 10
3.793240
 20
8.264080
  0
SEQEND
  8
0
  0
SOLID
  8
0
 62
    15
 10
3.809080
 20
8.252640
 11
4.458520
 21
8.650400
 12
3.820080
 22
8.239000
 13
4.469080
 23
8.636320
  0
POLYLINE
  8
0
  6
CONTINUOUS
 66
     1
 40
0.000000
 41
0.000000
  0
VERTEX
  8
0
  6
CONTINUOUS
 10
3.809080
 20
8.252640
  0
VERTEX
  8
0
  6
CONTINUOUS
 10
4.458520
 20
8.650400
  0
VERTEX
  8
0
  6
CONTINUOUS
 10
4.469080
 20
8.636320
  0
VERTEX
  8
0
  6
CONTINUOUS
 10
3.820080
 20
8.239000
  0
VERTEX
  8
0
  6
CONTINUOUS
 10
3.809080
 20
8.252640
  0
SEQEND
  8
0
  0
SOLID
  8
0
 62
    15
 10
3.820080
 20
8.239000
 11
4.469080
 21
8.636320
 12
3.824480
 22
8.222280
 13
4.473480
 23
8.619600
  0
POLYLINE
  8
0
  6
CONTINUOUS
 66
     1
 40
0.000000
 41
0.000000
  0
VERTEX
  8
0
  6
CONTINUOUS
 10
3.820080
 20
8.239000
  0
VERTEX
  8
0
  6
CONTINUOUS
 10
4.469080
 20
8.636320
  0
VERTEX
  8
0
  6
CONTINUOUS
 10
4.473480
 20
8.619600
  0
VERTEX
  8
0
  6
CONTINUOUS
 10
3.824480
 20
8.222280
  0
VERTEX
  8
0
  6
CONTINUOUS
 10
3.820080
 20
8.239000
  0
SEQEND
  8
0
  0
SOLID
  8
0
 62
    15
 10
3.824480
 20
8.222280
 11
4.473480
 21
8.619600
 12
3.824480
 22
7.872920
 13
4.473480
 23
8.270240
  0
POLYLINE
  8
0
  6
CONTINUOUS
 66
     1
 40
0.000000
 41
0.000000
  0
VERTEX
  8
0
  6
CONTINUOUS
 10
3.824480
 20
8.222280
  0
VERTEX
  8
0
  6
CONTINUOUS
 10
4.473480
 20
8.619600
  0
VERTEX
  8
0
  6
CONTINUOUS
 10
4.473480
 20
8.270240
  0
VERTEX
  8
0
  6
CONTINUOUS
 10
3.824480
 20
7.872920
  0
VERTEX
  8
0
  6
CONTINUOUS
 10
3.824480
 20
8.222280
  0
SEQEND
  8
0
  0
SOLID
  8
0
 62
    15
 10
3.824480
 20
7.872920
 11
4.473480
 21
8.270240
 12
3.880360
 22
7.838160
 13
4.529360
 23
8.235920
  0
POLYLINE
  8
0
  6
CONTINUOUS
 66
     1
 40
0.000000
 41
0.000000
  0
VERTEX
  8
0
  6
CONTINUOUS
 10
3.824480
 20
7.872920
  0
VERTEX
  8
0
  6
CONTINUOUS
 10
4.473480
 20
8.270240
  0
VERTEX
  8
0
  6
CONTINUOUS
 10
4.529360
 20
8.235920
  0
VERTEX
  8
0
  6
CONTINUOUS
 10
3.880360
 20
7.838160
  0
VERTEX
  8
0
  6
CONTINUOUS
 10
3.824480
 20
7.872920
  0
SEQEND
  8
0
  0
SOLID
  8
0
 62
    15
 10
3.880360
 20
7.838160
 11
4.529360
 21
8.235920
 12
3.931840
 22
7.795920
 13
4.580840
 23
8.193680
  0
POLYLINE
  8
0
  6
CONTINUOUS
 66
     1
 40
0.000000
 41
0.000000
  0
VERTEX
  8
0
  6
CONTINUOUS
 10
3.880360
 20
7.838160
  0
VERTEX
  8
0
  6
CONTINUOUS
 10
4.529360
 20
8.235920
  0
VERTEX
  8
0
  6
CONTINUOUS
 10
4.580840
 20
8.193680
  0
VERTEX
  8
0
  6
CONTINUOUS
 10
3.931840
 20
7.795920
  0
VERTEX
  8
0
  6
CONTINUOUS
 10
3.880360
 20
7.838160
  0
SEQEND
  8
0
  0
SOLID
  8
0
 62
    15
 10
3.931840
 20
7.795920
 11
4.580840
 21
8.193680
 12
3.978040
 22
7.747080
 13
4.627040
 23
8.144400
  0
POLYLINE
  8
0
  6
CONTINUOUS
 66
     1
 40
0.000000
 41
0.000000
  0
VERTEX
  8
0
  6
CONTINUOUS
 10
3.931840
 20
7.795920
  0
VERTEX
  8
0
  6
CONTINUOUS
 10
4.580840
 20
8.193680
  0
VERTEX
  8
0
  6
CONTINUOUS
 10
4.627040
 20
8.144400
  0
VERTEX
  8
0
  6
CONTINUOUS
 10
3.978040
 20
7.747080
  0
VERTEX
  8
0
  6
CONTINUOUS
 10
3.931840
 20
7.795920
  0
SEQEND
  8
0
  0
SOLID
  8
0
 62
    15
 10
3.978040
 20
7.747080
 11
4.627040
 21
8.144400
 12
4.018520
 22
7.692080
 13
4.667520
 23
8.089400
  0
POLYLINE
  8
0
  6
CONTINUOUS
 66
     1
 40
0.000000
 41
0.000000
  0
VERTEX
  8
0
  6
CONTINUOUS
 10
3.978040
 20
7.747080
  0
VERTEX
  8
0
  6
CONTINUOUS
 10
4.627040
 20
8.144400
  0
VERTEX
  8
0
  6
CONTINUOUS
 10
4.667520
 20
8.089400
  0
VERTEX
  8
0
  6
CONTINUOUS
 10
4.018520
 20
7.692080
  0
VERTEX
  8
0
  6
CONTINUOUS
 10
3.978040
 20
7.747080
  0
SEQEND
  8
0
  0
SOLID
  8
0
 62
    15
 10
4.018520
 20
7.692080
 11
4.667520
 21
8.089400
 12
4.052840
 22
7.632240
 13
4.701840
 23
8.029560
  0
POLYLINE
  8
0
  6
CONTINUOUS
 66
     1
 40
0.000000
 41
0.000000
  0
VERTEX
  8
0
  6
CONTINUOUS
 10
4.018520
 20
7.692080
  0
VERTEX
  8
0
  6
CONTINUOUS
 10
4.667520
 20
8.089400
  0
VERTEX
  8
0
  6
CONTINUOUS
 10
4.701840
 20
8.029560
  0
VERTEX
  8
0
  6
CONTINUOUS
 10
4.052840
 20
7.632240
  0
VERTEX
  8
0
  6
CONTINUOUS
 10
4.018520
 20
7.692080
  0
SEQEND
  8
0
  0
SOLID
  8
0
 62
    15
 10
4.052840
 20
7.632240
 11
4.701840
 21
8.029560
 12
4.080560
 22
7.568000
 13
4.729560
 23
7.965320
  0
POLYLINE
  8
0
  6
CONTINUOUS
 66
     1
 40
0.000000
 41
0.000000
  0
VERTEX
  8
0
  6
CONTINUOUS
 10
4.052840
 20
7.632240
  0
VERTEX
  8
0
  6
CONTINUOUS
 10
4.701840
 20
8.029560
  0
VERTEX
  8
0
  6
CONTINUOUS
 10
4.729560
 20
7.965320
  0
VERTEX
  8
0
  6
CONTINUOUS
 10
4.080560
 20
7.568000
  0
VERTEX
  8
0
  6
CONTINUOUS
 10
4.052840
 20
7.632240
  0
SEQEND
  8
0
  0
SOLID
  8
0
 62
    15
 10
4.080560
 20
7.568000
 11
4.729560
 21
7.965320
 12
4.101240
 22
7.500680
 13
4.750240
 23
7.898000
  0
POLYLINE
  8
0
  6
CONTINUOUS
 66
     1
 40
0.000000
 41
0.000000
  0
VERTEX
  8
0
  6
CONTINUOUS
 10
4.080560
 20
7.568000
  0
VERTEX
  8
0
  6
CONTINUOUS
 10
4.729560
 20
7.965320
  0
VERTEX
  8
0
  6
CONTINUOUS
 10
4.750240
 20
7.898000
  0
VERTEX
  8
0
  6
CONTINUOUS
 10
4.101240
 20
7.500680
  0
VERTEX
  8
0
  6
CONTINUOUS
 10
4.080560
 20
7.568000
  0
SEQEND
  8
0
  0
SOLID
  8
0
 62
    15
 10
4.101240
 20
7.500680
 11
4.750240
 21
7.898000
 12
4.114440
 22
7.430720
 13
4.763440
 23
7.828040
  0
POLYLINE
  8
0
  6
CONTINUOUS
 66
     1
 40
0.000000
 41
0.000000
  0
VERTEX
  8
0
  6
CONTINUOUS
 10
4.101240
 20
7.500680
  0
VERTEX
  8
0
  6
CONTINUOUS
 10
4.750240
 20
7.898000
  0
VERTEX
  8
0
  6
CONTINUOUS
 10
4.763440
 20
7.828040
  0
VERTEX
  8
0
  6
CONTINUOUS
 10
4.114440
 20
7.430720
  0
VERTEX
  8
0
  6
CONTINUOUS
 10
4.101240
 20
7.500680
  0
SEQEND
  8
0
  0
SOLID
  8
0
 62
    15
 10
4.114440
 20
7.430720
 11
4.763440
 21
7.828040
 12
4.120160
 22
7.359440
 13
4.769160
 23
7.757200
  0
POLYLINE
  8
0
  6
CONTINUOUS
 66
     1
 40
0.000000
 41
0.000000
  0
VERTEX
  8
0
  6
CONTINUOUS
 10
4.114440
 20
7.430720
  0
VERTEX
  8
0
  6
CONTINUOUS
 10
4.763440
 20
7.828040
  0
VERTEX
  8
0
  6
CONTINUOUS
 10
4.769160
 20
7.757200
  0
VERTEX
  8
0
  6
CONTINUOUS
 10
4.120160
 20
7.359440
  0
VERTEX
  8
0
  6
CONTINUOUS
 10
4.114440
 20
7.430720
  0
SEQEND
  8
0
  0
SOLID
  8
0
 62
    15
 10
4.120160
 20
7.359440
 11
4.769160
 21
7.757200
 12
4.117080
 22
7.287720
 13
4.766080
 23
7.685480
  0
POLYLINE
  8
0
  6
CONTINUOUS
 66
     1
 40
0.000000
 41
0.000000
  0
VERTEX
  8
0
  6
CONTINUOUS
 10
4.120160
 20
7.359440
  0
VERTEX
  8
0
  6
CONTINUOUS
 10
4.769160
 20
7.757200
  0
VERTEX
  8
0
  6
CONTINUOUS
 10
4.766080
 20
7.685480
  0
VERTEX
  8
0
  6
CONTINUOUS
 10
4.117080
 20
7.287720
  0
VERTEX
  8
0
  6
CONTINUOUS
 10
4.120160
 20
7.359440
  0
SEQEND
  8
0
  0
SOLID
  8
0
 62
    15
 10
4.117080
 20
7.287720
 11
4.766080
 21
7.685480
 12
4.105640
 22
7.216440
 13
4.754640
 23
7.614200
  0
POLYLINE
  8
0
  6
CONTINUOUS
 66
     1
 40
0.000000
 41
0.000000
  0
VERTEX
  8
0
  6
CONTINUOUS
 10
4.117080
 20
7.287720
  0
VERTEX
  8
0
  6
CONTINUOUS
 10
4.766080
 20
7.685480
  0
VERTEX
  8
0
  6
CONTINUOUS
 10
4.754640
 20
7.614200
  0
VERTEX
  8
0
  6
CONTINUOUS
 10
4.105640
 20
7.216440
  0
VERTEX
  8
0
  6
CONTINUOUS
 10
4.117080
 20
7.287720
  0
SEQEND
  8
0
  0
SOLID
  8
0
 62
    15
 10
4.105640
 20
7.216440
 11
4.754640
 21
7.614200
 12
4.084520
 22
7.146480
 13
4.733960
 23
7.543800
  0
POLYLINE
  8
0
  6
CONTINUOUS
 66
     1
 40
0.000000
 41
0.000000
  0
VERTEX
  8
0
  6
CONTINUOUS
 10
4.105640
 20
7.216440
  0
VERTEX
  8
0
  6
CONTINUOUS
 10
4.754640
 20
7.614200
  0
VERTEX
  8
0
  6
CONTINUOUS
 10
4.733960
 20
7.543800
  0
VERTEX
  8
0
  6
CONTINUOUS
 10
4.084520
 20
7.146480
  0
VERTEX
  8
0
  6
CONTINUOUS
 10
4.105640
 20
7.216440
  0
SEQEND
  8
0
  0
SOLID
  8
0
 62
    15
 10
4.084520
 20
7.146480
 11
4.733960
 21
7.543800
 12
4.054160
 22
7.078720
 13
4.703160
 23
7.476040
  0
POLYLINE
  8
0
  6
CONTINUOUS
 66
     1
 40
0.000000
 41
0.000000
  0
VERTEX
  8
0
  6
CONTINUOUS
 10
4.084520
 20
7.146480
  0
VERTEX
  8
0
  6
CONTINUOUS
 10
4.733960
 20
7.543800
  0
VERTEX
  8
0
  6
CONTINUOUS
 10
4.703160
 20
7.476040
  0
VERTEX
  8
0
  6
CONTINUOUS
 10
4.054160
 20
7.078720
  0
VERTEX
  8
0
  6
CONTINUOUS
 10
4.084520
 20
7.146480
  0
SEQEND
  8
0
  0
SOLID
  8
0
 62
    15
 10
4.054160
 20
7.078720
 11
4.703160
 21
7.476040
 12
4.013680
 22
7.014040
 13
4.662680
 23
7.411360
  0
POLYLINE
  8
0
  6
CONTINUOUS
 66
     1
 40
0.000000
 41
0.000000
  0
VERTEX
  8
0
  6
CONTINUOUS
 10
4.054160
 20
7.078720
  0
VERTEX
  8
0
  6
CONTINUOUS
 10
4.703160
 20
7.476040
  0
VERTEX
  8
0
  6
CONTINUOUS
 10
4.662680
 20
7.411360
  0
VERTEX
  8
0
  6
CONTINUOUS
 10
4.013680
 20
7.014040
  0
VERTEX
  8
0
  6
CONTINUOUS
 10
4.054160
 20
7.078720
  0
SEQEND
  8
0
  0
SOLID
  8
0
 62
    15
 10
4.013680
 20
7.014040
 11
4.662680
 21
7.411360
 12
3.962640
 22
6.953320
 13
4.611640
 23
7.350640
  0
POLYLINE
  8
0
  6
CONTINUOUS
 66
     1
 40
0.000000
 41
0.000000
  0
VERTEX
  8
0
  6
CONTINUOUS
 10
4.013680
 20
7.014040
  0
VERTEX
  8
0
  6
CONTINUOUS
 10
4.662680
 20
7.411360
  0
VERTEX
  8
0
  6
CONTINUOUS
 10
4.611640
 20
7.350640
  0
VERTEX
  8
0
  6
CONTINUOUS
 10
3.962640
 20
6.953320
  0
VERTEX
  8
0
  6
CONTINUOUS
 10
4.013680
 20
7.014040
  0
SEQEND
  8
0
  0
SOLID
  8
0
 62
    15
 10
3.962640
 20
6.953320
 11
4.611640
 21
7.350640
 12
3.901040
 22
6.897000
 13
4.550040
 23
7.294320
  0
POLYLINE
  8
0
  6
CONTINUOUS
 66
     1
 40
0.000000
 41
0.000000
  0
VERTEX
  8
0
  6
CONTINUOUS
 10
3.962640
 20
6.953320
  0
VERTEX
  8
0
  6
CONTINUOUS
 10
4.611640
 20
7.350640
  0
VERTEX
  8
0
  6
CONTINUOUS
 10
4.550040
 20
7.294320
  0
VERTEX
  8
0
  6
CONTINUOUS
 10
3.901040
 20
6.897000
  0
VERTEX
  8
0
  6
CONTINUOUS
 10
3.962640
 20
6.953320
  0
SEQEND
  8
0
  0
SOLID
  8
0
 62
    15
 10
3.901040
 20
6.897000
 11
4.550040
 21
7.294320
 12
4.018520
 22
6.779520
 13
4.667520
 23
7.176840
  0
POLYLINE
  8
0
  6
CONTINUOUS
 66
     1
 40
0.000000
 41
0.000000
  0
VERTEX
  8
0
  6
CONTINUOUS
 10
3.901040
 20
6.897000
  0
VERTEX
  8
0
  6
CONTINUOUS
 10
4.550040
 20
7.294320
  0
VERTEX
  8
0
  6
CONTINUOUS
 10
4.667520
 20
7.176840
  0
VERTEX
  8
0
  6
CONTINUOUS
 10
4.018520
 20
6.779520
  0
VERTEX
  8
0
  6
CONTINUOUS
 10
3.901040
 20
6.897000
  0
SEQEND
  8
0
  0
SOLID
  8
0
 62
    15
 10
4.018520
 20
6.779520
 11
4.667520
 21
7.176840
 12
3.960000
 22
6.707800
 13
4.609000
 23
7.105120
  0
POLYLINE
  8
0
  6
CONTINUOUS
 66
     1
 40
0.000000
 41
0.000000
  0
VERTEX
  8
0
  6
CONTINUOUS
 10
4.018520
 20
6.779520
  0
VERTEX
  8
0
  6
CONTINUOUS
 10
4.667520
 20
7.176840
  0
VERTEX
  8
0
  6
CONTINUOUS
 10
4.609000
 20
7.105120
  0
VERTEX
  8
0
  6
CONTINUOUS
 10
3.960000
 20
6.707800
  0
VERTEX
  8
0
  6
CONTINUOUS
 10
4.018520
 20
6.779520
  0
SEQEND
  8
0
  0
SOLID
  8
0
 62
    15
 10
3.960000
 20
6.707800
 11
4.609000
 21
7.105120
 12
3.914240
 22
6.636520
 13
4.563240
 23
7.033840
  0
POLYLINE
  8
0
  6
CONTINUOUS
 66
     1
 40
0.000000
 41
0.000000
  0
VERTEX
  8
0
  6
CONTINUOUS
 10
3.960000
 20
6.707800
  0
VERTEX
  8
0
  6
CONTINUOUS
 10
4.609000
 20
7.105120
  0
VERTEX
  8
0
  6
CONTINUOUS
 10
4.563240
 20
7.033840
  0
VERTEX
  8
0
  6
CONTINUOUS
 10
3.914240
 20
6.636520
  0
VERTEX
  8
0
  6
CONTINUOUS
 10
3.960000
 20
6.707800
  0
SEQEND
  8
0
  0
SOLID
  8
0
 62
    15
 10
3.914240
 20
6.636520
 11
4.563240
 21
7.033840
 12
3.880360
 22
6.565680
 13
4.529360
 23
6.963000
  0
POLYLINE
  8
0
  6
CONTINUOUS
 66
     1
 40
0.000000
 41
0.000000
  0
VERTEX
  8
0
  6
CONTINUOUS
 10
3.914240
 20
6.636520
  0
VERTEX
  8
0
  6
CONTINUOUS
 10
4.563240
 20
7.033840
  0
VERTEX
  8
0
  6
CONTINUOUS
 10
4.529360
 20
6.963000
  0
VERTEX
  8
0
  6
CONTINUOUS
 10
3.880360
 20
6.565680
  0
VERTEX
  8
0
  6
CONTINUOUS
 10
3.914240
 20
6.636520
  0
SEQEND
  8
0
  0
SOLID
  8
0
 62
    15
 10
3.880360
 20
6.565680
 11
4.529360
 21
6.963000
 12
3.857480
 22
6.496160
 13
4.506480
 23
6.893480
  0
POLYLINE
  8
0
  6
CONTINUOUS
 66
     1
 40
0.000000
 41
0.000000
  0
VERTEX
  8
0
  6
CONTINUOUS
 10
3.880360
 20
6.565680
  0
VERTEX
  8
0
  6
CONTINUOUS
 10
4.529360
 20
6.963000
  0
VERTEX
  8
0
  6
CONTINUOUS
 10
4.506480
 20
6.893480
  0
VERTEX
  8
0
  6
CONTINUOUS
 10
3.857480
 20
6.496160
  0
VERTEX
  8
0
  6
CONTINUOUS
 10
3.880360
 20
6.565680
  0
SEQEND
  8
0
  0
SOLID
  8
0
 62
    15
 10
3.857480
 20
6.496160
 11
4.506480
 21
6.893480
 12
3.845160
 22
6.428400
 13
4.494160
 23
6.825720
  0
POLYLINE
  8
0
  6
CONTINUOUS
 66
     1
 40
0.000000
 41
0.000000
  0
VERTEX
  8
0
  6
CONTINUOUS
 10
3.857480
 20
6.496160
  0
VERTEX
  8
0
  6
CONTINUOUS
 10
4.506480
 20
6.893480
  0
VERTEX
  8
0
  6
CONTINUOUS
 10
4.494160
 20
6.825720
  0
VERTEX
  8
0
  6
CONTINUOUS
 10
3.845160
 20
6.428400
  0
VERTEX
  8
0
  6
CONTINUOUS
 10
3.857480
 20
6.496160
  0
SEQEND
  8
0
  0
SOLID
  8
0
 62
    15
 10
3.845160
 20
6.428400
 11
4.494160
 21
6.825720
 12
3.842080
 22
6.361960
 13
4.491080
 23
6.759280
  0
POLYLINE
  8
0
  6
CONTINUOUS
 66
     1
 40
0.000000
 41
0.000000
  0
VERTEX
  8
0
  6
CONTINUOUS
 10
3.845160
 20
6.428400
  0
VERTEX
  8
0
  6
CONTINUOUS
 10
4.494160
 20
6.825720
  0
VERTEX
  8
0
  6
CONTINUOUS
 10
4.491080
 20
6.759280
  0
VERTEX
  8
0
  6
CONTINUOUS
 10
3.842080
 20
6.361960
  0
VERTEX
  8
0
  6
CONTINUOUS
 10
3.845160
 20
6.428400
  0
SEQEND
  8
0
  0
SOLID
  8
0
 62
    15
 10
3.842080
 20
6.361960
 11
4.491080
 21
6.759280
 12
3.847800
 22
6.297720
 13
4.496800
 23
6.695040
  0
POLYLINE
  8
0
  6
CONTINUOUS
 66
     1
 40
0.000000
 41
0.000000
  0
VERTEX
  8
0
  6
CONTINUOUS
 10
3.842080
 20
6.361960
  0
VERTEX
  8
0
  6
CONTINUOUS
 10
4.491080
 20
6.759280
  0
VERTEX
  8
0
  6
CONTINUOUS
 10
4.496800
 20
6.695040
  0
VERTEX
  8
0
  6
CONTINUOUS
 10
3.847800
 20
6.297720
  0
VERTEX
  8
0
  6
CONTINUOUS
 10
3.842080
 20
6.361960
  0
SEQEND
  8
0
  0
SOLID
  8
0
 62
    15
 10
3.847800
 20
6.297720
 11
4.496800
 21
6.695040
 12
3.861000
 22
6.236120
 13
4.510000
 23
6.633440
  0
POLYLINE
  8
0
  6
CONTINUOUS
 66
     1
 40
0.000000
 41
0.000000
  0
VERTEX
  8
0
  6
CONTINUOUS
 10
3.847800
 20
6.297720
  0
VERTEX
  8
0
  6
CONTINUOUS
 10
4.496800
 20
6.695040
  0
VERTEX
  8
0
  6
CONTINUOUS
 10
4.510000
 20
6.633440
  0
VERTEX
  8
0
  6
CONTINUOUS
 10
3.861000
 20
6.236120
  0
VERTEX
  8
0
  6
CONTINUOUS
 10
3.847800
 20
6.297720
  0
SEQEND
  8
0
  0
SOLID
  8
0
 62
    15
 10
3.861000
 20
6.236120
 11
4.510000
 21
6.633440
 12
3.881680
 22
6.177160
 13
4.530680
 23
6.574920
  0
POLYLINE
  8
0
  6
CONTINUOUS
 66
     1
 40
0.000000
 41
0.000000
  0
VERTEX
  8
0
  6
CONTINUOUS
 10
3.861000
 20
6.236120
  0
VERTEX
  8
0
  6
CONTINUOUS
 10
4.510000
 20
6.633440
  0
VERTEX
  8
0
  6
CONTINUOUS
 10
4.530680
 20
6.574920
  0
VERTEX
  8
0
  6
CONTINUOUS
 10
3.881680
 20
6.177160
  0
VERTEX
  8
0
  6
CONTINUOUS
 10
3.861000
 20
6.236120
  0
SEQEND
  8
0
  0
SOLID
  8
0
 62
    15
 10
3.881680
 20
6.177160
 11
4.530680
 21
6.574920
 12
3.908520
 22
6.121720
 13
4.557520
 23
6.519040
  0
POLYLINE
  8
0
  6
CONTINUOUS
 66
     1
 40
0.000000
 41
0.000000
  0
VERTEX
  8
0
  6
CONTINUOUS
 10
3.881680
 20
6.177160
  0
VERTEX
  8
0
  6
CONTINUOUS
 10
4.530680
 20
6.574920
  0
VERTEX
  8
0
  6
CONTINUOUS
 10
4.557520
 20
6.519040
  0
VERTEX
  8
0
  6
CONTINUOUS
 10
3.908520
 20
6.121720
  0
VERTEX
  8
0
  6
CONTINUOUS
 10
3.881680
 20
6.177160
  0
SEQEND
  8
0
  0
SOLID
  8
0
 62
    15
 10
3.908520
 20
6.121720
 11
4.557520
 21
6.519040
 12
3.940640
 22
6.069360
 13
4.589640
 23
6.466680
  0
POLYLINE
  8
0
  6
CONTINUOUS
 66
     1
 40
0.000000
 41
0.000000
  0
VERTEX
  8
0
  6
CONTINUOUS
 10
3.908520
 20
6.121720
  0
VERTEX
  8
0
  6
CONTINUOUS
 10
4.557520
 20
6.519040
  0
VERTEX
  8
0
  6
CONTINUOUS
 10
4.589640
 20
6.466680
  0
VERTEX
  8
0
  6
CONTINUOUS
 10
3.940640
 20
6.069360
  0
VERTEX
  8
0
  6
CONTINUOUS
 10
3.908520
 20
6.121720
  0
SEQEND
  8
0
  0
SOLID
  8
0
 62
    15
 10
3.940640
 20
6.069360
 11
4.589640
 21
6.466680
 12
3.977600
 22
6.020960
 13
4.626600
 23
6.418720
  0
POLYLINE
  8
0
  6
CONTINUOUS
 66
     1
 40
0.000000
 41
0.000000
  0
VERTEX
  8
0
  6
CONTINUOUS
 10
3.940640
 20
6.069360
  0
VERTEX
  8
0
  6
CONTINUOUS
 10
4.589640
 20
6.466680
  0
VERTEX
  8
0
  6
CONTINUOUS
 10
4.626600
 20
6.418720
  0
VERTEX
  8
0
  6
CONTINUOUS
 10
3.977600
 20
6.020960
  0
VERTEX
  8
0
  6
CONTINUOUS
 10
3.940640
 20
6.069360
  0
SEQEND
  8
0
  0
SOLID
  8
0
 62
    15
 10
3.386240
 20
8.344600
 11
4.035240
 21
8.741920
 12
3.627360
 22
8.344600
 13
4.276360
 23
8.741920
  0
POLYLINE
  8
0
  6
CONTINUOUS
 66
     1
 40
0.000000
 41
0.000000
  0
VERTEX
  8
0
  6
CONTINUOUS
 10
3.386240
 20
8.344600
  0
VERTEX
  8
0
  6
CONTINUOUS
 10
4.035240
 20
8.741920
  0
VERTEX
  8
0
  6
CONTINUOUS
 10
4.276360
 20
8.741920
  0
VERTEX
  8
0
  6
CONTINUOUS
 10
3.627360
 20
8.344600
  0
VERTEX
  8
0
  6
CONTINUOUS
 10
3.386240
 20
8.344600
  0
SEQEND
  8
0
  0
SOLID
  8
0
 62
    15
 10
4.018080
 20
5.976960
 11
4.667080
 21
6.374280
 12
4.061640
 22
5.937360
 13
4.710640
 23
6.334680
  0
POLYLINE
  8
0
  6
CONTINUOUS
 66
     1
 40
0.000000
 41
0.000000
  0
VERTEX
  8
0
  6
CONTINUOUS
 10
4.018080
 20
5.976960
  0
VERTEX
  8
0
  6
CONTINUOUS
 10
4.667080
 20
6.374280
  0
VERTEX
  8
0
  6
CONTINUOUS
 10
4.710640
 20
6.334680
  0
VERTEX
  8
0
  6
CONTINUOUS
 10
4.061640
 20
5.937360
  0
VERTEX
  8
0
  6
CONTINUOUS
 10
4.018080
 20
5.976960
  0
SEQEND
  8
0
  0
SOLID
  8
0
 62
    15
 10
4.061640
 20
5.937360
 11
4.710640
 21
6.334680
 12
4.107400
 22
5.902600
 13
4.756400
 23
6.299920
  0
POLYLINE
  8
0
  6
CONTINUOUS
 66
     1
 40
0.000000
 41
0.000000
  0
VERTEX
  8
0
  6
CONTINUOUS
 10
4.061640
 20
5.937360
  0
VERTEX
  8
0
  6
CONTINUOUS
 10
4.710640
 20
6.334680
  0
VERTEX
  8
0
  6
CONTINUOUS
 10
4.756400
 20
6.299920
  0
VERTEX
  8
0
  6
CONTINUOUS
 10
4.107400
 20
5.902600
  0
VERTEX
  8
0
  6
CONTINUOUS
 10
4.061640
 20
5.937360
  0
SEQEND
  8
0
  0
SOLID
  8
0
 62
    15
 10
4.107400
 20
5.902600
 11
4.756400
 21
6.299920
 12
4.154480
 22
5.873120
 13
4.803480
 23
6.270440
  0
POLYLINE
  8
0
  6
CONTINUOUS
 66
     1
 40
0.000000
 41
0.000000
  0
VERTEX
  8
0
  6
CONTINUOUS
 10
4.107400
 20
5.902600
  0
VERTEX
  8
0
  6
CONTINUOUS
 10
4.756400
 20
6.299920
  0
VERTEX
  8
0
  6
CONTINUOUS
 10
4.803480
 20
6.270440
  0
VERTEX
  8
0
  6
CONTINUOUS
 10
4.154480
 20
5.873120
  0
VERTEX
  8
0
  6
CONTINUOUS
 10
4.107400
 20
5.902600
  0
SEQEND
  8
0
  0
SOLID
  8
0
 62
    15
 10
4.154480
 20
5.873120
 11
4.803480
 21
6.270440
 12
4.154480
 22
4.836480
 13
4.803480
 23
5.233800
  0
POLYLINE
  8
0
  6
CONTINUOUS
 66
     1
 40
0.000000
 41
0.000000
  0
VERTEX
  8
0
  6
CONTINUOUS
 10
4.154480
 20
5.873120
  0
VERTEX
  8
0
  6
CONTINUOUS
 10
4.803480
 20
6.270440
  0
VERTEX
  8
0
  6
CONTINUOUS
 10
4.803480
 20
5.233800
  0
VERTEX
  8
0
  6
CONTINUOUS
 10
4.154480
 20
4.836480
  0
VERTEX
  8
0
  6
CONTINUOUS
 10
4.154480
 20
5.873120
  0
SEQEND
  8
0
  0
SOLID
  8
0
 62
    15
 10
4.154480
 20
4.836480
 11
4.803480
 21
5.233800
 12
4.153600
 22
4.817560
 13
4.802600
 23
5.214880
  0
POLYLINE
  8
0
  6
CONTINUOUS
 66
     1
 40
0.000000
 41
0.000000
  0
VERTEX
  8
0
  6
CONTINUOUS
 10
4.154480
 20
4.836480
  0
VERTEX
  8
0
  6
CONTINUOUS
 10
4.803480
 20
5.233800
  0
VERTEX
  8
0
  6
CONTINUOUS
 10
4.802600
 20
5.214880
  0
VERTEX
  8
0
  6
CONTINUOUS
 10
4.153600
 20
4.817560
  0
VERTEX
  8
0
  6
CONTINUOUS
 10
4.154480
 20
4.836480
  0
SEQEND
  8
0
  0
SOLID
  8
0
 62
    15
 10
4.153600
 20
4.817560
 11
4.802600
 21
5.214880
 12
4.149200
 22
4.796880
 13
4.798200
 23
5.194200
  0
POLYLINE
  8
0
  6
CONTINUOUS
 66
     1
 40
0.000000
 41
0.000000
  0
VERTEX
  8
0
  6
CONTINUOUS
 10
4.153600
 20
4.817560
  0
VERTEX
  8
0
  6
CONTINUOUS
 10
4.802600
 20
5.214880
  0
VERTEX
  8
0
  6
CONTINUOUS
 10
4.798200
 20
5.194200
  0
VERTEX
  8
0
  6
CONTINUOUS
 10
4.149200
 20
4.796880
  0
VERTEX
  8
0
  6
CONTINUOUS
 10
4.153600
 20
4.817560
  0
SEQEND
  8
0
  0
SOLID
  8
0
 62
    15
 10
4.149200
 20
4.796880
 11
4.798200
 21
5.194200
 12
4.130720
 22
4.754640
 13
4.779720
 23
5.151960
  0
POLYLINE
  8
0
  6
CONTINUOUS
 66
     1
 40
0.000000
 41
0.000000
  0
VERTEX
  8
0
  6
CONTINUOUS
 10
4.149200
 20
4.796880
  0
VERTEX
  8
0
  6
CONTINUOUS
 10
4.798200
 20
5.194200
  0
VERTEX
  8
0
  6
CONTINUOUS
 10
4.779720
 20
5.151960
  0
VERTEX
  8
0
  6
CONTINUOUS
 10
4.130720
 20
4.754640
  0
VERTEX
  8
0
  6
CONTINUOUS
 10
4.149200
 20
4.796880
  0
SEQEND
  8
0
  0
SOLID
  8
0
 62
    15
 10
4.130720
 20
4.754640
 11
4.779720
 21
5.151960
 12
4.116200
 22
4.735280
 13
4.765200
 23
5.132600
  0
POLYLINE
  8
0
  6
CONTINUOUS
 66
     1
 40
0.000000
 41
0.000000
  0
VERTEX
  8
0
  6
CONTINUOUS
 10
4.130720
 20
4.754640
  0
VERTEX
  8
0
  6
CONTINUOUS
 10
4.779720
 20
5.151960
  0
VERTEX
  8
0
  6
CONTINUOUS
 10
4.765200
 20
5.132600
  0
VERTEX
  8
0
  6
CONTINUOUS
 10
4.116200
 20
4.735280
  0
VERTEX
  8
0
  6
CONTINUOUS
 10
4.130720
 20
4.754640
  0
SEQEND
  8
0
  0
SOLID
  8
0
 62
    15
 10
4.053280
 20
4.696120
 11
4.702280
 21
5.093440
 12
4.053280
 22
4.683800
 13
4.702280
 23
5.081120
  0
POLYLINE
  8
0
  6
CONTINUOUS
 66
     1
 40
0.000000
 41
0.000000
  0
VERTEX
  8
0
  6
CONTINUOUS
 10
4.053280
 20
4.696120
  0
VERTEX
  8
0
  6
CONTINUOUS
 10
4.702280
 20
5.093440
  0
VERTEX
  8
0
  6
CONTINUOUS
 10
4.702280
 20
5.081120
  0
VERTEX
  8
0
  6
CONTINUOUS
 10
4.053280
 20
4.683800
  0
VERTEX
  8
0
  6
CONTINUOUS
 10
4.053280
 20
4.696120
  0
SEQEND
  8
0
  0
SOLID
  8
0
 62
    15
 10
4.098600
 20
4.718120
 11
4.747600
 21
5.115440
 12
4.077920
 22
4.704920
 13
4.726920
 23
5.102240
  0
POLYLINE
  8
0
  6
CONTINUOUS
 66
     1
 40
0.000000
 41
0.000000
  0
VERTEX
  8
0
  6
CONTINUOUS
 10
4.098600
 20
4.718120
  0
VERTEX
  8
0
  6
CONTINUOUS
 10
4.747600
 20
5.115440
  0
VERTEX
  8
0
  6
CONTINUOUS
 10
4.726920
 20
5.102240
  0
VERTEX
  8
0
  6
CONTINUOUS
 10
4.077920
 20
4.704920
  0
VERTEX
  8
0
  6
CONTINUOUS
 10
4.098600
 20
4.718120
  0
SEQEND
  8
0
  0
SOLID
  8
0
 62
    15
 10
4.116200
 20
4.735280
 11
4.765200
 21
5.132600
 12
4.098600
 22
4.718120
 13
4.747600
 23
5.115440
  0
POLYLINE
  8
0
  6
CONTINUOUS
 66
     1
 40
0.000000
 41
0.000000
  0
VERTEX
  8
0
  6
CONTINUOUS
 10
4.116200
 20
4.735280
  0
VERTEX
  8
0
  6
CONTINUOUS
 10
4.765200
 20
5.132600
  0
VERTEX
  8
0
  6
CONTINUOUS
 10
4.747600
 20
5.115440
  0
VERTEX
  8
0
  6
CONTINUOUS
 10
4.098600
 20
4.718120
  0
VERTEX
  8
0
  6
CONTINUOUS
 10
4.116200
 20
4.735280
  0
SEQEND
  8
0
  0
SOLID
  8
0
 62
    15
 10
4.053280
 20
4.683800
 11
4.702280
 21
5.081120
 12
4.075280
 22
4.674560
 13
4.724280
 23
5.071880
  0
POLYLINE
  8
0
  6
CONTINUOUS
 66
     1
 40
0.000000
 41
0.000000
  0
VERTEX
  8
0
  6
CONTINUOUS
 10
4.053280
 20
4.683800
  0
VERTEX
  8
0
  6
CONTINUOUS
 10
4.702280
 20
5.081120
  0
VERTEX
  8
0
  6
CONTINUOUS
 10
4.724280
 20
5.071880
  0
VERTEX
  8
0
  6
CONTINUOUS
 10
4.075280
 20
4.674560
  0
VERTEX
  8
0
  6
CONTINUOUS
 10
4.053280
 20
4.683800
  0
SEQEND
  8
0
  0
SOLID
  8
0
 62
    15
 10
4.075280
 20
4.674560
 11
4.724280
 21
5.071880
 12
4.094200
 22
4.661800
 13
4.743200
 23
5.059120
  0
POLYLINE
  8
0
  6
CONTINUOUS
 66
     1
 40
0.000000
 41
0.000000
  0
VERTEX
  8
0
  6
CONTINUOUS
 10
4.075280
 20
4.674560
  0
VERTEX
  8
0
  6
CONTINUOUS
 10
4.724280
 20
5.071880
  0
VERTEX
  8
0
  6
CONTINUOUS
 10
4.743200
 20
5.059120
  0
VERTEX
  8
0
  6
CONTINUOUS
 10
4.094200
 20
4.661800
  0
VERTEX
  8
0
  6
CONTINUOUS
 10
4.075280
 20
4.674560
  0
SEQEND
  8
0
  0
SOLID
  8
0
 62
    15
 10
4.094200
 20
4.661800
 11
4.743200
 21
5.059120
 12
4.110480
 22
4.645520
 13
4.759480
 23
5.042840
  0
POLYLINE
  8
0
  6
CONTINUOUS
 66
     1
 40
0.000000
 41
0.000000
  0
VERTEX
  8
0
  6
CONTINUOUS
 10
4.094200
 20
4.661800
  0
VERTEX
  8
0
  6
CONTINUOUS
 10
4.743200
 20
5.059120
  0
VERTEX
  8
0
  6
CONTINUOUS
 10
4.759480
 20
5.042840
  0
VERTEX
  8
0
  6
CONTINUOUS
 10
4.110480
 20
4.645520
  0
VERTEX
  8
0
  6
CONTINUOUS
 10
4.094200
 20
4.661800
  0
SEQEND
  8
0
  0
SOLID
  8
0
 62
    15
 10
4.110480
 20
4.645520
 11
4.759480
 21
5.042840
 12
4.124120
 22
4.626600
 13
4.773120
 23
5.023920
  0
POLYLINE
  8
0
  6
CONTINUOUS
 66
     1
 40
0.000000
 41
0.000000
  0
VERTEX
  8
0
  6
CONTINUOUS
 10
4.110480
 20
4.645520
  0
VERTEX
  8
0
  6
CONTINUOUS
 10
4.759480
 20
5.042840
  0
VERTEX
  8
0
  6
CONTINUOUS
 10
4.773120
 20
5.023920
  0
VERTEX
  8
0
  6
CONTINUOUS
 10
4.124120
 20
4.626600
  0
VERTEX
  8
0
  6
CONTINUOUS
 10
4.110480
 20
4.645520
  0
SEQEND
  8
0
  0
SOLID
  8
0
 62
    15
 10
4.124120
 20
4.626600
 11
4.773120
 21
5.023920
 12
4.142160
 22
4.581720
 13
4.791160
 23
4.979480
  0
POLYLINE
  8
0
  6
CONTINUOUS
 66
     1
 40
0.000000
 41
0.000000
  0
VERTEX
  8
0
  6
CONTINUOUS
 10
4.124120
 20
4.626600
  0
VERTEX
  8
0
  6
CONTINUOUS
 10
4.773120
 20
5.023920
  0
VERTEX
  8
0
  6
CONTINUOUS
 10
4.791160
 20
4.979480
  0
VERTEX
  8
0
  6
CONTINUOUS
 10
4.142160
 20
4.581720
  0
VERTEX
  8
0
  6
CONTINUOUS
 10
4.124120
 20
4.626600
  0
SEQEND
  8
0
  0
SOLID
  8
0
 62
    15
 10
4.142160
 20
4.581720
 11
4.791160
 21
4.979480
 12
4.148760
 22
4.532440
 13
4.797760
 23
4.929760
  0
POLYLINE
  8
0
  6
CONTINUOUS
 66
     1
 40
0.000000
 41
0.000000
  0
VERTEX
  8
0
  6
CONTINUOUS
 10
4.142160
 20
4.581720
  0
VERTEX
  8
0
  6
CONTINUOUS
 10
4.791160
 20
4.979480
  0
VERTEX
  8
0
  6
CONTINUOUS
 10
4.797760
 20
4.929760
  0
VERTEX
  8
0
  6
CONTINUOUS
 10
4.148760
 20
4.532440
  0
VERTEX
  8
0
  6
CONTINUOUS
 10
4.142160
 20
4.581720
  0
SEQEND
  8
0
  0
SOLID
  8
0
 62
    15
 10
4.148760
 20
4.532440
 11
4.797760
 21
4.929760
 12
4.143480
 22
4.481840
 13
4.792480
 23
4.879160
  0
POLYLINE
  8
0
  6
CONTINUOUS
 66
     1
 40
0.000000
 41
0.000000
  0
VERTEX
  8
0
  6
CONTINUOUS
 10
4.148760
 20
4.532440
  0
VERTEX
  8
0
  6
CONTINUOUS
 10
4.797760
 20
4.929760
  0
VERTEX
  8
0
  6
CONTINUOUS
 10
4.792480
 20
4.879160
  0
VERTEX
  8
0
  6
CONTINUOUS
 10
4.143480
 20
4.481840
  0
VERTEX
  8
0
  6
CONTINUOUS
 10
4.148760
 20
4.532440
  0
SEQEND
  8
0
  0
SOLID
  8
0
 62
    15
 10
4.143480
 20
4.481840
 11
4.792480
 21
4.879160
 12
4.125880
 22
4.433880
 13
4.774880
 23
4.831640
  0
POLYLINE
  8
0
  6
CONTINUOUS
 66
     1
 40
0.000000
 41
0.000000
  0
VERTEX
  8
0
  6
CONTINUOUS
 10
4.143480
 20
4.481840
  0
VERTEX
  8
0
  6
CONTINUOUS
 10
4.792480
 20
4.879160
  0
VERTEX
  8
0
  6
CONTINUOUS
 10
4.774880
 20
4.831640
  0
VERTEX
  8
0
  6
CONTINUOUS
 10
4.125880
 20
4.433880
  0
VERTEX
  8
0
  6
CONTINUOUS
 10
4.143480
 20
4.481840
  0
SEQEND
  8
0
  0
SOLID
  8
0
 62
    15
 10
4.125880
 20
4.433880
 11
4.774880
 21
4.831640
 12
4.112240
 22
4.412760
 13
4.761240
 23
4.810080
  0
POLYLINE
  8
0
  6
CONTINUOUS
 66
     1
 40
0.000000
 41
0.000000
  0
VERTEX
  8
0
  6
CONTINUOUS
 10
4.125880
 20
4.433880
  0
VERTEX
  8
0
  6
CONTINUOUS
 10
4.774880
 20
4.831640
  0
VERTEX
  8
0
  6
CONTINUOUS
 10
4.761240
 20
4.810080
  0
VERTEX
  8
0
  6
CONTINUOUS
 10
4.112240
 20
4.412760
  0
VERTEX
  8
0
  6
CONTINUOUS
 10
4.125880
 20
4.433880
  0
SEQEND
  8
0
  0
SOLID
  8
0
 62
    15
 10
4.053280
 20
4.363920
 11
4.702280
 21
4.761240
 12
4.053280
 22
4.351600
 13
4.702280
 23
4.749360
  0
POLYLINE
  8
0
  6
CONTINUOUS
 66
     1
 40
0.000000
 41
0.000000
  0
VERTEX
  8
0
  6
CONTINUOUS
 10
4.053280
 20
4.363920
  0
VERTEX
  8
0
  6
CONTINUOUS
 10
4.702280
 20
4.761240
  0
VERTEX
  8
0
  6
CONTINUOUS
 10
4.702280
 20
4.749360
  0
VERTEX
  8
0
  6
CONTINUOUS
 10
4.053280
 20
4.351600
  0
VERTEX
  8
0
  6
CONTINUOUS
 10
4.053280
 20
4.363920
  0
SEQEND
  8
0
  0
SOLID
  8
0
 62
    15
 10
4.095960
 20
4.393400
 11
4.744960
 21
4.790720
 12
4.076160
 22
4.377120
 13
4.725160
 23
4.774440
  0
POLYLINE
  8
0
  6
CONTINUOUS
 66
     1
 40
0.000000
 41
0.000000
  0
VERTEX
  8
0
  6
CONTINUOUS
 10
4.095960
 20
4.393400
  0
VERTEX
  8
0
  6
CONTINUOUS
 10
4.744960
 20
4.790720
  0
VERTEX
  8
0
  6
CONTINUOUS
 10
4.725160
 20
4.774440
  0
VERTEX
  8
0
  6
CONTINUOUS
 10
4.076160
 20
4.377120
  0
VERTEX
  8
0
  6
CONTINUOUS
 10
4.095960
 20
4.393400
  0
SEQEND
  8
0
  0
SOLID
  8
0
 62
    15
 10
4.112240
 20
4.412760
 11
4.761240
 21
4.810080
 12
4.095960
 22
4.393400
 13
4.744960
 23
4.790720
  0
POLYLINE
  8
0
  6
CONTINUOUS
 66
     1
 40
0.000000
 41
0.000000
  0
VERTEX
  8
0
  6
CONTINUOUS
 10
4.112240
 20
4.412760
  0
VERTEX
  8
0
  6
CONTINUOUS
 10
4.761240
 20
4.810080
  0
VERTEX
  8
0
  6
CONTINUOUS
 10
4.744960
 20
4.790720
  0
VERTEX
  8
0
  6
CONTINUOUS
 10
4.095960
 20
4.393400
  0
VERTEX
  8
0
  6
CONTINUOUS
 10
4.112240
 20
4.412760
  0
SEQEND
  8
0
  0
SOLID
  8
0
 62
    15
 10
4.053280
 20
4.351600
 11
4.702280
 21
4.749360
 12
4.075280
 22
4.339280
 13
4.724280
 23
4.737040
  0
POLYLINE
  8
0
  6
CONTINUOUS
 66
     1
 40
0.000000
 41
0.000000
  0
VERTEX
  8
0
  6
CONTINUOUS
 10
4.053280
 20
4.351600
  0
VERTEX
  8
0
  6
CONTINUOUS
 10
4.702280
 20
4.749360
  0
VERTEX
  8
0
  6
CONTINUOUS
 10
4.724280
 20
4.737040
  0
VERTEX
  8
0
  6
CONTINUOUS
 10
4.075280
 20
4.339280
  0
VERTEX
  8
0
  6
CONTINUOUS
 10
4.053280
 20
4.351600
  0
SEQEND
  8
0
  0
SOLID
  8
0
 62
    15
 10
4.075280
 20
4.339280
 11
4.724280
 21
4.737040
 12
4.094640
 22
4.323880
 13
4.743640
 23
4.721640
  0
POLYLINE
  8
0
  6
CONTINUOUS
 66
     1
 40
0.000000
 41
0.000000
  0
VERTEX
  8
0
  6
CONTINUOUS
 10
4.075280
 20
4.339280
  0
VERTEX
  8
0
  6
CONTINUOUS
 10
4.724280
 20
4.737040
  0
VERTEX
  8
0
  6
CONTINUOUS
 10
4.743640
 20
4.721640
  0
VERTEX
  8
0
  6
CONTINUOUS
 10
4.094640
 20
4.323880
  0
VERTEX
  8
0
  6
CONTINUOUS
 10
4.075280
 20
4.339280
  0
SEQEND
  8
0
  0
SOLID
  8
0
 62
    15
 10
4.094640
 20
4.323880
 11
4.743640
 21
4.721640
 12
4.110920
 22
4.306280
 13
4.759920
 23
4.703600
  0
POLYLINE
  8
0
  6
CONTINUOUS
 66
     1
 40
0.000000
 41
0.000000
  0
VERTEX
  8
0
  6
CONTINUOUS
 10
4.094640
 20
4.323880
  0
VERTEX
  8
0
  6
CONTINUOUS
 10
4.743640
 20
4.721640
  0
VERTEX
  8
0
  6
CONTINUOUS
 10
4.759920
 20
4.703600
  0
VERTEX
  8
0
  6
CONTINUOUS
 10
4.110920
 20
4.306280
  0
VERTEX
  8
0
  6
CONTINUOUS
 10
4.094640
 20
4.323880
  0
SEQEND
  8
0
  0
SOLID
  8
0
 62
    15
 10
4.110920
 20
4.306280
 11
4.759920
 21
4.703600
 12
4.124120
 22
4.286040
 13
4.773120
 23
4.683360
  0
POLYLINE
  8
0
  6
CONTINUOUS
 66
     1
 40
0.000000
 41
0.000000
  0
VERTEX
  8
0
  6
CONTINUOUS
 10
4.110920
 20
4.306280
  0
VERTEX
  8
0
  6
CONTINUOUS
 10
4.759920
 20
4.703600
  0
VERTEX
  8
0
  6
CONTINUOUS
 10
4.773120
 20
4.683360
  0
VERTEX
  8
0
  6
CONTINUOUS
 10
4.124120
 20
4.286040
  0
VERTEX
  8
0
  6
CONTINUOUS
 10
4.110920
 20
4.306280
  0
SEQEND
  8
0
  0
SOLID
  8
0
 62
    15
 10
4.124120
 20
4.286040
 11
4.773120
 21
4.683360
 12
4.142160
 22
4.240280
 13
4.791160
 23
4.637600
  0
POLYLINE
  8
0
  6
CONTINUOUS
 66
     1
 40
0.000000
 41
0.000000
  0
VERTEX
  8
0
  6
CONTINUOUS
 10
4.124120
 20
4.286040
  0
VERTEX
  8
0
  6
CONTINUOUS
 10
4.773120
 20
4.683360
  0
VERTEX
  8
0
  6
CONTINUOUS
 10
4.791160
 20
4.637600
  0
VERTEX
  8
0
  6
CONTINUOUS
 10
4.142160
 20
4.240280
  0
VERTEX
  8
0
  6
CONTINUOUS
 10
4.124120
 20
4.286040
  0
SEQEND
  8
0
  0
SOLID
  8
0
 62
    15
 10
4.142160
 20
4.240280
 11
4.791160
 21
4.637600
 12
4.148760
 22
4.191000
 13
4.797760
 23
4.588320
  0
POLYLINE
  8
0
  6
CONTINUOUS
 66
     1
 40
0.000000
 41
0.000000
  0
VERTEX
  8
0
  6
CONTINUOUS
 10
4.142160
 20
4.240280
  0
VERTEX
  8
0
  6
CONTINUOUS
 10
4.791160
 20
4.637600
  0
VERTEX
  8
0
  6
CONTINUOUS
 10
4.797760
 20
4.588320
  0
VERTEX
  8
0
  6
CONTINUOUS
 10
4.148760
 20
4.191000
  0
VERTEX
  8
0
  6
CONTINUOUS
 10
4.142160
 20
4.240280
  0
SEQEND
  8
0
  0
SOLID
  8
0
 62
    15
 10
4.148760
 20
4.191000
 11
4.797760
 21
4.588320
 12
4.143920
 22
4.141280
 13
4.792920
 23
4.538600
  0
POLYLINE
  8
0
  6
CONTINUOUS
 66
     1
 40
0.000000
 41
0.000000
  0
VERTEX
  8
0
  6
CONTINUOUS
 10
4.148760
 20
4.191000
  0
VERTEX
  8
0
  6
CONTINUOUS
 10
4.797760
 20
4.588320
  0
VERTEX
  8
0
  6
CONTINUOUS
 10
4.792920
 20
4.538600
  0
VERTEX
  8
0
  6
CONTINUOUS
 10
4.143920
 20
4.141280
  0
VERTEX
  8
0
  6
CONTINUOUS
 10
4.148760
 20
4.191000
  0
SEQEND
  8
0
  0
SOLID
  8
0
 62
    15
 10
4.143920
 20
4.141280
 11
4.792920
 21
4.538600
 12
4.128080
 22
4.094640
 13
4.777080
 23
4.491960
  0
POLYLINE
  8
0
  6
CONTINUOUS
 66
     1
 40
0.000000
 41
0.000000
  0
VERTEX
  8
0
  6
CONTINUOUS
 10
4.143920
 20
4.141280
  0
VERTEX
  8
0
  6
CONTINUOUS
 10
4.792920
 20
4.538600
  0
VERTEX
  8
0
  6
CONTINUOUS
 10
4.777080
 20
4.491960
  0
VERTEX
  8
0
  6
CONTINUOUS
 10
4.128080
 20
4.094640
  0
VERTEX
  8
0
  6
CONTINUOUS
 10
4.143920
 20
4.141280
  0
SEQEND
  8
0
  0
SOLID
  8
0
 62
    15
 10
4.101240
 20
4.053720
 11
4.750240
 21
4.451480
 12
4.083640
 22
4.037000
 13
4.732640
 23
4.434320
  0
POLYLINE
  8
0
  6
CONTINUOUS
 66
     1
 40
0.000000
 41
0.000000
  0
VERTEX
  8
0
  6
CONTINUOUS
 10
4.101240
 20
4.053720
  0
VERTEX
  8
0
  6
CONTINUOUS
 10
4.750240
 20
4.451480
  0
VERTEX
  8
0
  6
CONTINUOUS
 10
4.732640
 20
4.434320
  0
VERTEX
  8
0
  6
CONTINUOUS
 10
4.083640
 20
4.037000
  0
VERTEX
  8
0
  6
CONTINUOUS
 10
4.101240
 20
4.053720
  0
SEQEND
  8
0
  0
SOLID
  8
0
 62
    15
 10
4.128080
 20
4.094640
 11
4.777080
 21
4.491960
 12
4.101240
 22
4.053720
 13
4.750240
 23
4.451480
  0
POLYLINE
  8
0
  6
CONTINUOUS
 66
     1
 40
0.000000
 41
0.000000
  0
VERTEX
  8
0
  6
CONTINUOUS
 10
4.128080
 20
4.094640
  0
VERTEX
  8
0
  6
CONTINUOUS
 10
4.777080
 20
4.491960
  0
VERTEX
  8
0
  6
CONTINUOUS
 10
4.750240
 20
4.451480
  0
VERTEX
  8
0
  6
CONTINUOUS
 10
4.101240
 20
4.053720
  0
VERTEX
  8
0
  6
CONTINUOUS
 10
4.128080
 20
4.094640
  0
SEQEND
  8
0
  0
SOLID
  8
0
 62
    15
 10
4.063400
 20
4.022920
 11
4.712400
 21
4.420240
 12
4.063400
 22
4.012800
 13
4.712400
 23
4.410120
  0
POLYLINE
  8
0
  6
CONTINUOUS
 66
     1
 40
0.000000
 41
0.000000
  0
VERTEX
  8
0
  6
CONTINUOUS
 10
4.063400
 20
4.022920
  0
VERTEX
  8
0
  6
CONTINUOUS
 10
4.712400
 20
4.420240
  0
VERTEX
  8
0
  6
CONTINUOUS
 10
4.712400
 20
4.410120
  0
VERTEX
  8
0
  6
CONTINUOUS
 10
4.063400
 20
4.012800
  0
VERTEX
  8
0
  6
CONTINUOUS
 10
4.063400
 20
4.022920
  0
SEQEND
  8
0
  0
SOLID
  8
0
 62
    15
 10
4.083640
 20
4.037000
 11
4.732640
 21
4.434320
 12
4.063400
 22
4.022920
 13
4.712400
 23
4.420240
  0
POLYLINE
  8
0
  6
CONTINUOUS
 66
     1
 40
0.000000
 41
0.000000
  0
VERTEX
  8
0
  6
CONTINUOUS
 10
4.083640
 20
4.037000
  0
VERTEX
  8
0
  6
CONTINUOUS
 10
4.732640
 20
4.434320
  0
VERTEX
  8
0
  6
CONTINUOUS
 10
4.712400
 20
4.420240
  0
VERTEX
  8
0
  6
CONTINUOUS
 10
4.063400
 20
4.022920
  0
VERTEX
  8
0
  6
CONTINUOUS
 10
4.083640
 20
4.037000
  0
SEQEND
  8
0
  0
SOLID
  8
0
 62
    15
 10
4.063400
 20
4.012800
 11
4.712400
 21
4.410120
 12
4.076600
 22
4.009280
 13
4.725600
 23
4.406600
  0
POLYLINE
  8
0
  6
CONTINUOUS
 66
     1
 40
0.000000
 41
0.000000
  0
VERTEX
  8
0
  6
CONTINUOUS
 10
4.063400
 20
4.012800
  0
VERTEX
  8
0
  6
CONTINUOUS
 10
4.712400
 20
4.410120
  0
VERTEX
  8
0
  6
CONTINUOUS
 10
4.725600
 20
4.406600
  0
VERTEX
  8
0
  6
CONTINUOUS
 10
4.076600
 20
4.009280
  0
VERTEX
  8
0
  6
CONTINUOUS
 10
4.063400
 20
4.012800
  0
SEQEND
  8
0
  0
SOLID
  8
0
 62
    15
 10
4.076600
 20
4.009280
 11
4.725600
 21
4.406600
 12
4.091120
 22
4.000040
 13
4.740120
 23
4.397360
  0
POLYLINE
  8
0
  6
CONTINUOUS
 66
     1
 40
0.000000
 41
0.000000
  0
VERTEX
  8
0
  6
CONTINUOUS
 10
4.076600
 20
4.009280
  0
VERTEX
  8
0
  6
CONTINUOUS
 10
4.725600
 20
4.406600
  0
VERTEX
  8
0
  6
CONTINUOUS
 10
4.740120
 20
4.397360
  0
VERTEX
  8
0
  6
CONTINUOUS
 10
4.091120
 20
4.000040
  0
VERTEX
  8
0
  6
CONTINUOUS
 10
4.076600
 20
4.009280
  0
SEQEND
  8
0
  0
SOLID
  8
0
 62
    15
 10
4.091120
 20
4.000040
 11
4.740120
 21
4.397360
 12
4.120600
 22
3.968360
 13
4.769600
 23
4.365680
  0
POLYLINE
  8
0
  6
CONTINUOUS
 66
     1
 40
0.000000
 41
0.000000
  0
VERTEX
  8
0
  6
CONTINUOUS
 10
4.091120
 20
4.000040
  0
VERTEX
  8
0
  6
CONTINUOUS
 10
4.740120
 20
4.397360
  0
VERTEX
  8
0
  6
CONTINUOUS
 10
4.769600
 20
4.365680
  0
VERTEX
  8
0
  6
CONTINUOUS
 10
4.120600
 20
3.968360
  0
VERTEX
  8
0
  6
CONTINUOUS
 10
4.091120
 20
4.000040
  0
SEQEND
  8
0
  0
SOLID
  8
0
 62
    15
 10
4.120600
 20
3.968360
 11
4.769600
 21
4.365680
 12
4.144360
 22
3.926560
 13
4.793360
 23
4.323880
  0
POLYLINE
  8
0
  6
CONTINUOUS
 66
     1
 40
0.000000
 41
0.000000
  0
VERTEX
  8
0
  6
CONTINUOUS
 10
4.120600
 20
3.968360
  0
VERTEX
  8
0
  6
CONTINUOUS
 10
4.769600
 20
4.365680
  0
VERTEX
  8
0
  6
CONTINUOUS
 10
4.793360
 20
4.323880
  0
VERTEX
  8
0
  6
CONTINUOUS
 10
4.144360
 20
3.926560
  0
VERTEX
  8
0
  6
CONTINUOUS
 10
4.120600
 20
3.968360
  0
SEQEND
  8
0
  0
SOLID
  8
0
 62
    15
 10
4.144360
 20
3.926560
 11
4.793360
 21
4.323880
 12
4.152280
 22
3.904120
 13
4.801280
 23
4.301880
  0
POLYLINE
  8
0
  6
CONTINUOUS
 66
     1
 40
0.000000
 41
0.000000
  0
VERTEX
  8
0
  6
CONTINUOUS
 10
4.144360
 20
3.926560
  0
VERTEX
  8
0
  6
CONTINUOUS
 10
4.793360
 20
4.323880
  0
VERTEX
  8
0
  6
CONTINUOUS
 10
4.801280
 20
4.301880
  0
VERTEX
  8
0
  6
CONTINUOUS
 10
4.152280
 20
3.904120
  0
VERTEX
  8
0
  6
CONTINUOUS
 10
4.144360
 20
3.926560
  0
SEQEND
  8
0
  0
SOLID
  8
0
 62
    15
 10
4.152280
 20
3.904120
 11
4.801280
 21
4.301880
 12
4.155800
 22
3.882560
 13
4.804800
 23
4.279880
  0
POLYLINE
  8
0
  6
CONTINUOUS
 66
     1
 40
0.000000
 41
0.000000
  0
VERTEX
  8
0
  6
CONTINUOUS
 10
4.152280
 20
3.904120
  0
VERTEX
  8
0
  6
CONTINUOUS
 10
4.801280
 20
4.301880
  0
VERTEX
  8
0
  6
CONTINUOUS
 10
4.804800
 20
4.279880
  0
VERTEX
  8
0
  6
CONTINUOUS
 10
4.155800
 20
3.882560
  0
VERTEX
  8
0
  6
CONTINUOUS
 10
4.152280
 20
3.904120
  0
SEQEND
  8
0
  0
SOLID
  8
0
 62
    15
 10
4.155800
 20
3.882560
 11
4.804800
 21
4.279880
 12
4.155800
 22
1.907840
 13
4.804800
 23
2.305160
  0
POLYLINE
  8
0
  6
CONTINUOUS
 66
     1
 40
0.000000
 41
0.000000
  0
VERTEX
  8
0
  6
CONTINUOUS
 10
4.155800
 20
3.882560
  0
VERTEX
  8
0
  6
CONTINUOUS
 10
4.804800
 20
4.279880
  0
VERTEX
  8
0
  6
CONTINUOUS
 10
4.804800
 20
2.305160
  0
VERTEX
  8
0
  6
CONTINUOUS
 10
4.155800
 20
1.907840
  0
VERTEX
  8
0
  6
CONTINUOUS
 10
4.155800
 20
3.882560
  0
SEQEND
  8
0
  0
SOLID
  8
0
 62
    15
 10
3.386240
 20
1.907840
 11
4.035240
 21
2.305160
 12
3.386240
 22
1.907400
 13
4.035240
 23
2.304720
  0
POLYLINE
  8
0
  6
CONTINUOUS
 66
     1
 40
0.000000
 41
0.000000
  0
VERTEX
  8
0
  6
CONTINUOUS
 10
3.386240
 20
1.907840
  0
VERTEX
  8
0
  6
CONTINUOUS
 10
4.035240
 20
2.305160
  0
VERTEX
  8
0
  6
CONTINUOUS
 10
4.035240
 20
2.304720
  0
VERTEX
  8
0
  6
CONTINUOUS
 10
3.386240
 20
1.907400
  0
VERTEX
  8
0
  6
CONTINUOUS
 10
3.386240
 20
1.907840
  0
SEQEND
  8
0
  0
POLYLINE
  8
0
  6
CONTINUOUS
 66
     1
 40
0.000000
 41
0.000000
  0
VERTEX
  8
0
  6
CONTINUOUS
 10
3.386240
 20
1.907400
  0
VERTEX
  8
0
  6
CONTINUOUS
 10
3.386240
 20
8.344600
  0
VERTEX
  8
0
  6
CONTINUOUS
 10
3.627360
 20
8.344600
  0
VERTEX
  8
0
  6
CONTINUOUS
 10
3.642320
 20
8.342400
  0
VERTEX
  8
0
  6
CONTINUOUS
 10
3.654640
 20
8.336680
  0
VERTEX
  8
0
  6
CONTINUOUS
 10
3.674440
 20
8.319080
  0
VERTEX
  8
0
  6
CONTINUOUS
 10
3.690280
 20
8.301040
  0
VERTEX
  8
0
  6
CONTINUOUS
 10
3.706560
 20
8.290920
  0
VERTEX
  8
0
  6
CONTINUOUS
 10
3.735160
 20
8.284760
  0
VERTEX
  8
0
  6
CONTINUOUS
 10
3.774320
 20
8.272880
  0
VERTEX
  8
0
  6
CONTINUOUS
 10
3.793240
 20
8.264080
  0
VERTEX
  8
0
  6
CONTINUOUS
 10
3.809080
 20
8.252640
  0
VERTEX
  8
0
  6
CONTINUOUS
 10
3.820080
 20
8.239000
  0
VERTEX
  8
0
  6
CONTINUOUS
 10
3.824480
 20
8.222280
  0
VERTEX
  8
0
  6
CONTINUOUS
 10
3.824480
 20
7.872920
  0
VERTEX
  8
0
  6
CONTINUOUS
 10
3.880360
 20
7.838160
  0
VERTEX
  8
0
  6
CONTINUOUS
 10
3.931840
 20
7.795920
  0
VERTEX
  8
0
  6
CONTINUOUS
 10
3.978040
 20
7.747080
  0
VERTEX
  8
0
  6
CONTINUOUS
 10
4.018520
 20
7.692080
  0
VERTEX
  8
0
  6
CONTINUOUS
 10
4.052840
 20
7.632240
  0
VERTEX
  8
0
  6
CONTINUOUS
 10
4.080560
 20
7.568000
  0
VERTEX
  8
0
  6
CONTINUOUS
 10
4.101240
 20
7.500680
  0
VERTEX
  8
0
  6
CONTINUOUS
 10
4.114440
 20
7.430720
  0
VERTEX
  8
0
  6
CONTINUOUS
 10
4.120160
 20
7.359440
  0
VERTEX
  8
0
  6
CONTINUOUS
 10
4.117080
 20
7.287720
  0
VERTEX
  8
0
  6
CONTINUOUS
 10
4.105640
 20
7.216440
  0
VERTEX
  8
0
  6
CONTINUOUS
 10
4.084520
 20
7.146480
  0
VERTEX
  8
0
  6
CONTINUOUS
 10
4.054160
 20
7.078720
  0
VERTEX
  8
0
  6
CONTINUOUS
 10
4.013680
 20
7.014040
  0
VERTEX
  8
0
  6
CONTINUOUS
 10
3.962640
 20
6.953320
  0
VERTEX
  8
0
  6
CONTINUOUS
 10
3.901040
 20
6.897000
  0
VERTEX
  8
0
  6
CONTINUOUS
 10
4.018520
 20
6.779520
  0
VERTEX
  8
0
  6
CONTINUOUS
 10
3.960000
 20
6.707800
  0
VERTEX
  8
0
  6
CONTINUOUS
 10
3.914240
 20
6.636520
  0
VERTEX
  8
0
  6
CONTINUOUS
 10
3.880360
 20
6.565680
  0
VERTEX
  8
0
  6
CONTINUOUS
 10
3.857480
 20
6.496160
  0
VERTEX
  8
0
  6
CONTINUOUS
 10
3.845160
 20
6.428400
  0
VERTEX
  8
0
  6
CONTINUOUS
 10
3.842080
 20
6.361960
  0
VERTEX
  8
0
  6
CONTINUOUS
 10
3.847800
 20
6.297720
  0
VERTEX
  8
0
  6
CONTINUOUS
 10
3.861000
 20
6.236120
  0
VERTEX
  8
0
  6
CONTINUOUS
 10
3.881680
 20
6.177160
  0
VERTEX
  8
0
  6
CONTINUOUS
 10
3.908520
 20
6.121720
  0
VERTEX
  8
0
  6
CONTINUOUS
 10
3.940640
 20
6.069360
  0
VERTEX
  8
0
  6
CONTINUOUS
 10
3.977600
 20
6.020960
  0
VERTEX
  8
0
  6
CONTINUOUS
 10
4.018080
 20
5.976960
  0
VERTEX
  8
0
  6
CONTINUOUS
 10
4.061640
 20
5.937360
  0
VERTEX
  8
0
  6
CONTINUOUS
 10
4.107400
 20
5.902600
  0
VERTEX
  8
0
  6
CONTINUOUS
 10
4.154480
 20
5.873120
  0
VERTEX
  8
0
  6
CONTINUOUS
 10
4.154480
 20
4.836480
  0
VERTEX
  8
0
  6
CONTINUOUS
 10
4.153600
 20
4.817560
  0
VERTEX
  8
0
  6
CONTINUOUS
 10
4.149200
 20
4.796880
  0
VERTEX
  8
0
  6
CONTINUOUS
 10
4.130720
 20
4.754640
  0
VERTEX
  8
0
  6
CONTINUOUS
 10
4.116200
 20
4.735280
  0
VERTEX
  8
0
  6
CONTINUOUS
 10
4.098600
 20
4.718120
  0
VERTEX
  8
0
  6
CONTINUOUS
 10
4.077920
 20
4.704920
  0
VERTEX
  8
0
  6
CONTINUOUS
 10
4.053280
 20
4.696120
  0
VERTEX
  8
0
  6
CONTINUOUS
 10
4.053280
 20
4.683800
  0
VERTEX
  8
0
  6
CONTINUOUS
 10
4.075280
 20
4.674560
  0
VERTEX
  8
0
  6
CONTINUOUS
 10
4.094200
 20
4.661800
  0
VERTEX
  8
0
  6
CONTINUOUS
 10
4.110480
 20
4.645520
  0
VERTEX
  8
0
  6
CONTINUOUS
 10
4.124120
 20
4.626600
  0
VERTEX
  8
0
  6
CONTINUOUS
 10
4.142160
 20
4.581720
  0
VERTEX
  8
0
  6
CONTINUOUS
 10
4.148760
 20
4.532440
  0
VERTEX
  8
0
  6
CONTINUOUS
 10
4.143480
 20
4.481840
  0
VERTEX
  8
0
  6
CONTINUOUS
 10
4.125880
 20
4.433880
  0
VERTEX
  8
0
  6
CONTINUOUS
 10
4.112240
 20
4.412760
  0
VERTEX
  8
0
  6
CONTINUOUS
 10
4.095960
 20
4.393400
  0
VERTEX
  8
0
  6
CONTINUOUS
 10
4.076160
 20
4.377120
  0
VERTEX
  8
0
  6
CONTINUOUS
 10
4.053280
 20
4.363920
  0
VERTEX
  8
0
  6
CONTINUOUS
 10
4.053280
 20
4.351600
  0
VERTEX
  8
0
  6
CONTINUOUS
 10
4.075280
 20
4.339280
  0
VERTEX
  8
0
  6
CONTINUOUS
 10
4.094640
 20
4.323880
  0
VERTEX
  8
0
  6
CONTINUOUS
 10
4.110920
 20
4.306280
  0
VERTEX
  8
0
  6
CONTINUOUS
 10
4.124120
 20
4.286040
  0
VERTEX
  8
0
  6
CONTINUOUS
 10
4.142160
 20
4.240280
  0
VERTEX
  8
0
  6
CONTINUOUS
 10
4.148760
 20
4.191000
  0
VERTEX
  8
0
  6
CONTINUOUS
 10
4.143920
 20
4.141280
  0
VERTEX
  8
0
  6
CONTINUOUS
 10
4.128080
 20
4.094640
  0
VERTEX
  8
0
  6
CONTINUOUS
 10
4.101240
 20
4.053720
  0
VERTEX
  8
0
  6
CONTINUOUS
 10
4.083640
 20
4.037000
  0
VERTEX
  8
0
  6
CONTINUOUS
 10
4.063400
 20
4.022920
  0
VERTEX
  8
0
  6
CONTINUOUS
 10
4.063400
 20
4.012800
  0
VERTEX
  8
0
  6
CONTINUOUS
 10
4.076600
 20
4.009280
  0
VERTEX
  8
0
  6
CONTINUOUS
 10
4.091120
 20
4.000040
  0
VERTEX
  8
0
  6
CONTINUOUS
 10
4.120600
 20
3.968360
  0
VERTEX
  8
0
  6
CONTINUOUS
 10
4.144360
 20
3.926560
  0
VERTEX
  8
0
  6
CONTINUOUS
 10
4.152280
 20
3.904120
  0
VERTEX
  8
0
  6
CONTINUOUS
 10
4.155800
 20
3.882560
  0
VERTEX
  8
0
  6
CONTINUOUS
 10
4.155800
 20
1.907840
  0
VERTEX
  8
0
  6
CONTINUOUS
 10
3.386240
 20
1.907400
  0
SEQEND
  8
0
  0
TEXT
  8
0
 10
3.754520
 20
1.514040
 40
0.138086
  1
BA  1144
 41
1.000000
  7
SN0
 71
     0
 72
     5
 11
4.434985
 21
1.514040
  0
TEXT
  8
0
 10
3.552560
 20
1.322640
 40
0.138086
  1
3/4" x 6 - 7/16"
 41
1.000000
  7
SN0
 71
     0
 72
     5
 11
4.633554
 21
1.322640
  0
POLYLINE
  8
0
  6
CONTINUOUS
 66
     1
 40
0.014080
 41
0.014080
  0
VERTEX
  8
0
  6
CONTINUOUS
 10
0.896720
 20
9.209200
  0
VERTEX
  8
0
  6
CONTINUOUS
 10
0.896720
 20
9.978760
  0
VERTEX
  8
0
  6
CONTINUOUS
 10
2.871000
 20
9.978760
  0
VERTEX
  8
0
  6
CONTINUOUS
 10
2.893000
 20
9.974800
  0
VERTEX
  8
0
  6
CONTINUOUS
 10
2.915000
 20
9.967320
  0
VERTEX
  8
0
  6
CONTINUOUS
 10
2.947120
 20
9.950160
  0
VERTEX
  8
0
  6
CONTINUOUS
 10
2.974400
 20
9.929040
  0
VERTEX
  8
0
  6
CONTINUOUS
 10
2.993760
 20
9.906600
  0
VERTEX
  8
0
  6
CONTINUOUS
 10
3.000360
 20
9.892960
  0
VERTEX
  8
0
  6
CONTINUOUS
 10
3.001240
 20
9.886360
  0
VERTEX
  8
0
  6
CONTINUOUS
 10
3.011360
 20
9.886360
  0
VERTEX
  8
0
  6
CONTINUOUS
 10
3.025440
 20
9.906600
  0
VERTEX
  8
0
  6
CONTINUOUS
 10
3.051840
 20
9.932120
  0
VERTEX
  8
0
  6
CONTINUOUS
 10
3.083080
 20
9.951040
  0
VERTEX
  8
0
  6
CONTINUOUS
 10
3.117840
 20
9.963800
  0
VERTEX
  8
0
  6
CONTINUOUS
 10
3.154800
 20
9.970840
  0
VERTEX
  8
0
  6
CONTINUOUS
 10
3.179880
 20
9.971720
  0
VERTEX
  8
0
  6
CONTINUOUS
 10
3.216840
 20
9.967760
  0
VERTEX
  8
0
  6
CONTINUOUS
 10
3.240600
 20
9.961600
  0
VERTEX
  8
0
  6
CONTINUOUS
 10
3.274480
 20
9.947080
  0
VERTEX
  8
0
  6
CONTINUOUS
 10
3.303960
 20
9.925960
  0
VERTEX
  8
0
  6
CONTINUOUS
 10
3.320680
 20
9.908360
  0
VERTEX
  8
0
  6
CONTINUOUS
 10
3.334760
 20
9.887680
  0
VERTEX
  8
0
  6
CONTINUOUS
 10
3.340480
 20
9.876240
  0
VERTEX
  8
0
  6
CONTINUOUS
 10
3.352360
 20
9.876240
  0
VERTEX
  8
0
  6
CONTINUOUS
 10
3.365560
 20
9.899120
  0
VERTEX
  8
0
  6
CONTINUOUS
 10
3.381840
 20
9.918920
  0
VERTEX
  8
0
  6
CONTINUOUS
 10
3.401200
 20
9.935200
  0
VERTEX
  8
0
  6
CONTINUOUS
 10
3.422760
 20
9.948840
  0
VERTEX
  8
0
  6
CONTINUOUS
 10
3.445640
 20
9.958960
  0
VERTEX
  8
0
  6
CONTINUOUS
 10
3.482600
 20
9.968640
  0
VERTEX
  8
0
  6
CONTINUOUS
 10
3.508120
 20
9.971280
  0
VERTEX
  8
0
  6
CONTINUOUS
 10
3.533640
 20
9.971280
  0
VERTEX
  8
0
  6
CONTINUOUS
 10
3.570600
 20
9.965120
  0
VERTEX
  8
0
  6
CONTINUOUS
 10
3.593480
 20
9.957640
  0
VERTEX
  8
0
  6
CONTINUOUS
 10
3.615040
 20
9.947080
  0
VERTEX
  8
0
  6
CONTINUOUS
 10
3.633960
 20
9.933440
  0
VERTEX
  8
0
  6
CONTINUOUS
 10
3.650240
 20
9.917160
  0
VERTEX
  8
0
  6
CONTINUOUS
 10
3.663000
 20
9.898240
  0
VERTEX
  8
0
  6
CONTINUOUS
 10
3.672240
 20
9.876240
  0
VERTEX
  8
0
  6
CONTINUOUS
 10
3.684560
 20
9.876240
  0
VERTEX
  8
0
  6
CONTINUOUS
 10
3.693360
 20
9.900440
  0
VERTEX
  8
0
  6
CONTINUOUS
 10
3.707000
 20
9.921560
  0
VERTEX
  8
0
  6
CONTINUOUS
 10
3.723720
 20
9.939160
  0
VERTEX
  8
0
  6
CONTINUOUS
 10
3.753640
 20
9.959400
  0
VERTEX
  8
0
  6
CONTINUOUS
 10
3.785760
 20
9.972160
  0
VERTEX
  8
0
  6
CONTINUOUS
 10
3.815680
 20
9.977440
  0
VERTEX
  8
0
  6
CONTINUOUS
 10
4.861560
 20
9.977440
  0
VERTEX
  8
0
  6
CONTINUOUS
 10
4.891040
 20
9.930360
  0
VERTEX
  8
0
  6
CONTINUOUS
 10
4.925800
 20
9.884600
  0
VERTEX
  8
0
  6
CONTINUOUS
 10
4.965400
 20
9.841040
  0
VERTEX
  8
0
  6
CONTINUOUS
 10
5.009840
 20
9.800120
  0
VERTEX
  8
0
  6
CONTINUOUS
 10
5.057800
 20
9.763600
  0
VERTEX
  8
0
  6
CONTINUOUS
 10
5.110160
 20
9.731040
  0
VERTEX
  8
0
  6
CONTINUOUS
 10
5.137440
 20
9.716960
  0
VERTEX
  8
0
  6
CONTINUOUS
 10
5.195080
 20
9.693200
  0
VERTEX
  8
0
  6
CONTINUOUS
 10
5.255360
 20
9.676040
  0
VERTEX
  8
0
  6
CONTINUOUS
 10
5.286160
 20
9.670320
  0
VERTEX
  8
0
  6
CONTINUOUS
 10
5.350400
 20
9.664600
  0
VERTEX
  8
0
  6
CONTINUOUS
 10
5.383400
 20
9.665040
  0
VERTEX
  8
0
  6
CONTINUOUS
 10
5.416840
 20
9.667680
  0
VERTEX
  8
0
  6
CONTINUOUS
 10
5.467440
 20
9.676480
  0
VERTEX
  8
0
  6
CONTINUOUS
 10
5.519360
 20
9.690560
  0
VERTEX
  8
0
  6
CONTINUOUS
 10
5.554120
 20
9.703320
  0
VERTEX
  8
0
  6
CONTINUOUS
 10
5.606920
 20
9.727520
  0
VERTEX
  8
0
  6
CONTINUOUS
 10
5.660600
 20
9.758320
  0
VERTEX
  8
0
  6
CONTINUOUS
 10
5.714280
 20
9.796160
  0
VERTEX
  8
0
  6
CONTINUOUS
 10
5.767960
 20
9.841480
  0
VERTEX
  8
0
  6
CONTINUOUS
 10
5.885880
 20
9.723560
  0
VERTEX
  8
0
  6
CONTINUOUS
 10
5.927240
 20
9.771080
  0
VERTEX
  8
0
  6
CONTINUOUS
 10
5.971680
 20
9.812440
  0
VERTEX
  8
0
  6
CONTINUOUS
 10
6.018320
 20
9.847640
  0
VERTEX
  8
0
  6
CONTINUOUS
 10
6.067160
 20
9.877120
  0
VERTEX
  8
0
  6
CONTINUOUS
 10
6.117760
 20
9.900880
  0
VERTEX
  8
0
  6
CONTINUOUS
 10
6.170120
 20
9.918920
  0
VERTEX
  8
0
  6
CONTINUOUS
 10
6.205320
 20
9.928160
  0
VERTEX
  8
0
  6
CONTINUOUS
 10
6.240520
 20
9.935200
  0
VERTEX
  8
0
  6
CONTINUOUS
 10
6.276600
 20
9.940040
  0
VERTEX
  8
0
  6
CONTINUOUS
 10
6.312240
 20
9.942240
  0
VERTEX
  8
0
  6
CONTINUOUS
 10
6.348320
 20
9.942680
  0
VERTEX
  8
0
  6
CONTINUOUS
 10
6.383960
 20
9.940920
  0
VERTEX
  8
0
  6
CONTINUOUS
 10
6.419160
 20
9.937400
  0
VERTEX
  8
0
  6
CONTINUOUS
 10
6.454360
 20
9.931680
  0
VERTEX
  8
0
  6
CONTINUOUS
 10
6.489120
 20
9.924200
  0
VERTEX
  8
0
  6
CONTINUOUS
 10
6.556440
 20
9.903520
  0
VERTEX
  8
0
  6
CONTINUOUS
 10
6.589000
 20
9.890320
  0
VERTEX
  8
0
  6
CONTINUOUS
 10
6.620680
 20
9.875360
  0
VERTEX
  8
0
  6
CONTINUOUS
 10
6.651040
 20
9.859080
  0
VERTEX
  8
0
  6
CONTINUOUS
 10
6.680520
 20
9.841040
  0
VERTEX
  8
0
  6
CONTINUOUS
 10
6.708680
 20
9.821680
  0
VERTEX
  8
0
  6
CONTINUOUS
 10
6.735520
 20
9.801000
  0
VERTEX
  8
0
  6
CONTINUOUS
 10
6.761040
 20
9.778560
  0
VERTEX
  8
0
  6
CONTINUOUS
 10
6.784800
 20
9.754800
  0
VERTEX
  8
0
  6
CONTINUOUS
 10
6.806800
 20
9.729720
  0
VERTEX
  8
0
  6
CONTINUOUS
 10
6.827040
 20
9.703320
  0
VERTEX
  8
0
  6
CONTINUOUS
 10
6.845080
 20
9.675600
  0
VERTEX
  8
0
  6
CONTINUOUS
 10
6.861360
 20
9.647000
  0
VERTEX
  8
0
  6
CONTINUOUS
 10
7.210720
 20
9.647000
  0
VERTEX
  8
0
  6
CONTINUOUS
 10
7.219520
 20
9.646120
  0
VERTEX
  8
0
  6
CONTINUOUS
 10
7.234920
 20
9.638200
  0
VERTEX
  8
0
  6
CONTINUOUS
 10
7.247240
 20
9.624560
  0
VERTEX
  8
0
  6
CONTINUOUS
 10
7.257360
 20
9.606960
  0
VERTEX
  8
0
  6
CONTINUOUS
 10
7.268800
 20
9.577040
  0
VERTEX
  8
0
  6
CONTINUOUS
 10
7.280680
 20
9.525120
  0
VERTEX
  8
0
  6
CONTINUOUS
 10
7.289480
 20
9.513240
  0
VERTEX
  8
0
  6
CONTINUOUS
 10
7.317200
 20
9.488160
  0
VERTEX
  8
0
  6
CONTINUOUS
 10
7.328640
 20
9.471440
  0
VERTEX
  8
0
  6
CONTINUOUS
 10
7.332600
 20
9.457800
  0
VERTEX
  8
0
  6
CONTINUOUS
 10
7.333040
 20
9.209200
  0
VERTEX
  8
0
  6
CONTINUOUS
 10
0.895840
 20
9.209200
  0
VERTEX
  8
0
  6
CONTINUOUS
 10
0.896720
 20
9.209200
  0
SEQEND
  8
0
  0
TEXT
  8
0
 10
1.656600
 20
9.575720
 40
0.138086
  1
BA  1144
 41
1.000000
  7
SN0
 71
     0
 72
     5
 11
2.337065
 21
9.575720
  0
TEXT
  8
0
 10
1.454640
 20
9.383880
 40
0.138086
  1
3/4" x 6 - 7/16"
 41
1.000000
  7
SN0
 71
     0
 72
     5
 11
2.535634
 21
9.383880
  0
ENDSEC
  0
EOF
