  0
SECTION
  2
HEADER
  9
$ACADVER
  1
AC1006
  9
$EXTMIN
 10
1.893320
 20
0.784520
  9
$EXTMAX
 10
7.035160
 20
6.422680
  9
$LTSCALE
 40
0.044000
  9
$PDMODE
 70
    35
  9
$PDSIZE
 40
0.035200
  0
ENDSEC
  0
SECTION
  2
TABLES
  0
TABLE
  2
LTYPE
 70
     9
  0
LTYPE
  2
CONTINUOUS
 70
    64
  3
Solid line
 72
    65
 73
     0
 40
0.000000
  0
LTYPE
  2
DASHED
 70
    64
  3
__ __ __ __ __ __ __ __ __ __ __ __ __ __ __
 72
    65
 73
     2
 40
0.000330
 49
0.000220
 49
-0.000110
  0
LTYPE
  2
HIDDEN
 70
    64
  3
 _ _ _ _ _ _ _ _ _ _ _ _ _ _ _ _ _ _ _ _ _ _
 72
    65
 73
     2
 40
0.000165
 49
0.000110
 49
-0.000055
  0
LTYPE
  2
CENTER
 70
    64
  3
____ _ ____ _ ____ _ ____ _ ____ _ ____ _ ____
 72
    65
 73
     4
 40
0.000880
 49
0.000550
 49
-0.000110
 49
0.000110
 49
-0.000110
  0
LTYPE
  2
PHANTOM
 70
    64
  3
_____ _ _ _____ _ _ _____ _ _ _____ _ _ ____
 72
    65
 73
     6
 40
0.001100
 49
0.000550
 49
-0.000110
 49
0.000110
 49
-0.000110
 49
0.000110
 49
-0.000110
  0
LTYPE
  2
DOT
 70
    64
  3
...............................................
 72
    65
 73
     2
 40
0.000110
 49
0.000000
 49
-0.000110
  0
LTYPE
  2
DASHDOT
 70
    64
  3
__ . __ . __ . __ . __ . __ . __ . __ . __ . __
 72
    65
 73
     4
 40
0.000440
 49
0.000220
 49
-0.000110
 49
0.000000
 49
-0.000110
  0
LTYPE
  2
BORDER
 70
    64
  3
__ __ . __ __ . __ __ . __ __ . __ __ . __ __
 72
    65
 73
     6
 40
0.000770
 49
0.000220
 49
-0.000110
 49
0.000220
 49
-0.000110
 49
0.000000
 49
-0.000110
  0
LTYPE
  2
DIVIDE
 70
    64
  3
__ . . __ . . __ . . __ . . __ . . __ . . __
 72
    65
 73
     6
 40
0.000550
 49
0.000220
 49
-0.000110
 49
0.000000
 49
-0.000110
 49
0.000000
 49
-0.000110
  0
LTYPE
  2
DOTDOT
 70
    64
  3
 . .  . .  . .  . .  . .  . . 
 72
    65
 73
     5
 40
0.000242
 49
-0.000110
 49
0.000000
 49
-0.000110
 49
0.000000
 49
-0.000110
  0
ENDTAB
  0
TABLE
  2
STYLE
 70
     2
  0
STYLE
 70
     0
  2
SN0
 40
0.000000
 41
0.000440
 50
0.000000
 71
     0
 42
0.000000
  3
ROMAND
  0
STYLE
 70
    68
  2
SV0
 40
0.000000
 41
0.000440
 50
0.000000
 71
     0
 42
0.000000
  3
ROMAND
  0
ENDTAB
  0
TABLE
  2
LAYER
 70
     3
  0
LAYER
  2
FOREGROUND
 70
    64
 62
     7
  6
CONTINUOUS
  0
LAYER
  2
BACKGROUND
 70
    65
 62
    -7
  6
CONTINUOUS
  0
LAYER
  2
0
 70
    64
 62
     7
  6
CONTINUOUS
  0
ENDTAB
  0
ENDSEC
  0
SECTION
  2
ENTITIES
  0
POLYLINE
  8
FOREGROUND
  6
CONTINUOUS
 66
     1
 40
0.000000
 41
0.000000
  0
VERTEX
  8
FOREGROUND
  6
CONTINUOUS
 10
0.000000
 20
7.207200
  0
VERTEX
  8
FOREGROUND
  6
CONTINUOUS
 10
8.499920
 20
7.207200
  0
VERTEX
  8
FOREGROUND
  6
CONTINUOUS
 10
8.499920
 20
-3.792800
  0
VERTEX
  8
FOREGROUND
  6
CONTINUOUS
 10
0.000000
 20
-3.792800
  0
VERTEX
  8
FOREGROUND
  6
CONTINUOUS
 10
0.000000
 20
7.207200
  0
SEQEND
  8
0
  0
POLYLINE
  8
FOREGROUND
  6
CONTINUOUS
 66
     1
 40
0.000000
 41
0.000000
  0
VERTEX
  8
FOREGROUND
  6
CONTINUOUS
 10
0.000000
 20
7.207200
  0
VERTEX
  8
FOREGROUND
  6
CONTINUOUS
 10
8.499920
 20
7.207200
  0
VERTEX
  8
FOREGROUND
  6
CONTINUOUS
 10
8.499920
 20
-3.792800
  0
VERTEX
  8
FOREGROUND
  6
CONTINUOUS
 10
0.000000
 20
-3.792800
  0
VERTEX
  8
FOREGROUND
  6
CONTINUOUS
 10
0.000000
 20
7.207200
  0
SEQEND
  8
0
  0
POLYLINE
  8
0
  6
CONTINUOUS
 66
     1
 40
0.000000
 41
0.000000
  0
VERTEX
  8
0
  6
CONTINUOUS
 10
6.930440
 20
2.981880
  0
VERTEX
  8
0
  6
CONTINUOUS
 10
6.212360
 20
2.981880
  0
VERTEX
  8
0
  6
CONTINUOUS
 10
6.212360
 20
2.903560
  0
VERTEX
  8
0
  6
CONTINUOUS
 10
5.778520
 20
2.903560
  0
VERTEX
  8
0
  6
CONTINUOUS
 10
5.778520
 20
2.840640
  0
VERTEX
  8
0
  6
CONTINUOUS
 10
5.646520
 20
2.840200
  0
VERTEX
  8
0
  6
CONTINUOUS
 10
5.630680
 20
2.836240
  0
VERTEX
  8
0
  6
CONTINUOUS
 10
5.614840
 20
2.828760
  0
VERTEX
  8
0
  6
CONTINUOUS
 10
5.591520
 20
2.811600
  0
VERTEX
  8
0
  6
CONTINUOUS
 10
5.570400
 20
2.787840
  0
VERTEX
  8
0
  6
CONTINUOUS
 10
5.553680
 20
2.758800
  0
VERTEX
  8
0
  6
CONTINUOUS
 10
5.546200
 20
2.736800
  0
VERTEX
  8
0
  6
CONTINUOUS
 10
5.508360
 20
2.736800
  0
VERTEX
  8
0
  6
CONTINUOUS
 10
5.501760
 20
2.756600
  0
VERTEX
  8
0
  6
CONTINUOUS
 10
5.490320
 20
2.776400
  0
VERTEX
  8
0
  6
CONTINUOUS
 10
5.465240
 20
2.804560
  0
VERTEX
  8
0
  6
CONTINUOUS
 10
5.443680
 20
2.820840
  0
VERTEX
  8
0
  6
CONTINUOUS
 10
5.419040
 20
2.834480
  0
VERTEX
  8
0
  6
CONTINUOUS
 10
5.391320
 20
2.844160
  0
VERTEX
  8
0
  6
CONTINUOUS
 10
5.376800
 20
2.847680
  0
VERTEX
  8
0
  6
CONTINUOUS
 10
5.345560
 20
2.850320
  0
VERTEX
  8
0
  6
CONTINUOUS
 10
5.333680
 20
2.867920
  0
VERTEX
  8
0
  6
CONTINUOUS
 10
5.311680
 20
2.893440
  0
VERTEX
  8
0
  6
CONTINUOUS
 10
5.297160
 20
2.904440
  0
VERTEX
  8
0
  6
CONTINUOUS
 10
5.166040
 20
2.904880
  0
VERTEX
  8
0
  6
CONTINUOUS
 10
5.162960
 20
2.886840
  0
VERTEX
  8
0
  6
CONTINUOUS
 10
5.154600
 20
2.864400
  0
VERTEX
  8
0
  6
CONTINUOUS
 10
5.140960
 20
2.841520
  0
VERTEX
  8
0
  6
CONTINUOUS
 10
5.122920
 20
2.823480
  0
VERTEX
  8
0
  6
CONTINUOUS
 10
5.108840
 20
2.815560
  0
VERTEX
  8
0
  6
CONTINUOUS
 10
5.093000
 20
2.812480
  0
VERTEX
  8
0
  6
CONTINUOUS
 10
4.849240
 20
2.812480
  0
VERTEX
  8
0
  6
CONTINUOUS
 10
4.832520
 20
2.815560
  0
VERTEX
  8
0
  6
CONTINUOUS
 10
4.818000
 20
2.823920
  0
VERTEX
  8
0
  6
CONTINUOUS
 10
4.799960
 20
2.843280
  0
VERTEX
  8
0
  6
CONTINUOUS
 10
4.783680
 20
2.874080
  0
VERTEX
  8
0
  6
CONTINUOUS
 10
4.777520
 20
2.894760
  0
VERTEX
  8
0
  6
CONTINUOUS
 10
4.776200
 20
2.904880
  0
VERTEX
  8
0
  6
CONTINUOUS
 10
4.637600
 20
2.904440
  0
VERTEX
  8
0
  6
CONTINUOUS
 10
4.632760
 20
2.881120
  0
VERTEX
  8
0
  6
CONTINUOUS
 10
4.618680
 20
2.850320
  0
VERTEX
  8
0
  6
CONTINUOUS
 10
4.601960
 20
2.829640
  0
VERTEX
  8
0
  6
CONTINUOUS
 10
4.588760
 20
2.819080
  0
VERTEX
  8
0
  6
CONTINUOUS
 10
4.572920
 20
2.813360
  0
VERTEX
  8
0
  6
CONTINUOUS
 10
4.564120
 20
2.812480
  0
VERTEX
  8
0
  6
CONTINUOUS
 10
4.313760
 20
2.812480
  0
VERTEX
  8
0
  6
CONTINUOUS
 10
4.297480
 20
2.815560
  0
VERTEX
  8
0
  6
CONTINUOUS
 10
4.282960
 20
2.823920
  0
VERTEX
  8
0
  6
CONTINUOUS
 10
4.270200
 20
2.835800
  0
VERTEX
  8
0
  6
CONTINUOUS
 10
4.260080
 20
2.850320
  0
VERTEX
  8
0
  6
CONTINUOUS
 10
4.245560
 20
2.881120
  0
VERTEX
  8
0
  6
CONTINUOUS
 10
4.240280
 20
2.904440
  0
VERTEX
  8
0
  6
CONTINUOUS
 10
4.102560
 20
2.904440
  0
VERTEX
  8
0
  6
CONTINUOUS
 10
4.097720
 20
2.881120
  0
VERTEX
  8
0
  6
CONTINUOUS
 10
4.083200
 20
2.850320
  0
VERTEX
  8
0
  6
CONTINUOUS
 10
4.073080
 20
2.835800
  0
VERTEX
  8
0
  6
CONTINUOUS
 10
4.053280
 20
2.819080
  0
VERTEX
  8
0
  6
CONTINUOUS
 10
4.037880
 20
2.813360
  0
VERTEX
  8
0
  6
CONTINUOUS
 10
4.029080
 20
2.812480
  0
VERTEX
  8
0
  6
CONTINUOUS
 10
3.785760
 20
2.812480
  0
VERTEX
  8
0
  6
CONTINUOUS
 10
3.769920
 20
2.815560
  0
VERTEX
  8
0
  6
CONTINUOUS
 10
3.755840
 20
2.823040
  0
VERTEX
  8
0
  6
CONTINUOUS
 10
3.737800
 20
2.841520
  0
VERTEX
  8
0
  6
CONTINUOUS
 10
3.724160
 20
2.863960
  0
VERTEX
  8
0
  6
CONTINUOUS
 10
3.715360
 20
2.886400
  0
VERTEX
  8
0
  6
CONTINUOUS
 10
3.712280
 20
2.904440
  0
VERTEX
  8
0
  6
CONTINUOUS
 10
3.581160
 20
2.904000
  0
VERTEX
  8
0
  6
CONTINUOUS
 10
3.566640
 20
2.893000
  0
VERTEX
  8
0
  6
CONTINUOUS
 10
3.538040
 20
2.858680
  0
VERTEX
  8
0
  6
CONTINUOUS
 10
3.532760
 20
2.850320
  0
VERTEX
  8
0
  6
CONTINUOUS
 10
3.501960
 20
2.847680
  0
VERTEX
  8
0
  6
CONTINUOUS
 10
3.472920
 20
2.839760
  0
VERTEX
  8
0
  6
CONTINUOUS
 10
3.446960
 20
2.827880
  0
VERTEX
  8
0
  6
CONTINUOUS
 10
3.424080
 20
2.812920
  0
VERTEX
  8
0
  6
CONTINUOUS
 10
3.404280
 20
2.795320
  0
VERTEX
  8
0
  6
CONTINUOUS
 10
3.388440
 20
2.776400
  0
VERTEX
  8
0
  6
CONTINUOUS
 10
3.377000
 20
2.756160
  0
VERTEX
  8
0
  6
CONTINUOUS
 10
3.370400
 20
2.736360
  0
VERTEX
  8
0
  6
CONTINUOUS
 10
3.332560
 20
2.736360
  0
VERTEX
  8
0
  6
CONTINUOUS
 10
3.319800
 20
2.768480
  0
VERTEX
  8
0
  6
CONTINUOUS
 10
3.301760
 20
2.796200
  0
VERTEX
  8
0
  6
CONTINUOUS
 10
3.279320
 20
2.817760
  0
VERTEX
  8
0
  6
CONTINUOUS
 10
3.255560
 20
2.832720
  0
VERTEX
  8
0
  6
CONTINUOUS
 10
3.239720
 20
2.838440
  0
VERTEX
  8
0
  6
CONTINUOUS
 10
3.224320
 20
2.840640
  0
VERTEX
  8
0
  6
CONTINUOUS
 10
3.100240
 20
2.840640
  0
VERTEX
  8
0
  6
CONTINUOUS
 10
3.100240
 20
2.903560
  0
VERTEX
  8
0
  6
CONTINUOUS
 10
2.666400
 20
2.903560
  0
VERTEX
  8
0
  6
CONTINUOUS
 10
2.666400
 20
2.981880
  0
VERTEX
  8
0
  6
CONTINUOUS
 10
1.947880
 20
2.981880
  0
VERTEX
  8
0
  6
CONTINUOUS
 10
1.947880
 20
2.167880
  0
VERTEX
  8
0
  6
CONTINUOUS
 10
6.931760
 20
2.167880
  0
VERTEX
  8
0
  6
CONTINUOUS
 10
6.931760
 20
2.981440
  0
VERTEX
  8
0
  6
CONTINUOUS
 10
6.930440
 20
2.981880
  0
SEQEND
  8
0
  0
POLYLINE
  8
0
  6
CONTINUOUS
 66
     1
 40
0.000000
 41
0.000000
  0
VERTEX
  8
0
  6
CONTINUOUS
 10
6.876320
 20
1.598960
  0
VERTEX
  8
0
  6
CONTINUOUS
 10
6.158240
 20
1.598960
  0
VERTEX
  8
0
  6
CONTINUOUS
 10
6.158240
 20
1.521080
  0
VERTEX
  8
0
  6
CONTINUOUS
 10
5.724400
 20
1.521080
  0
VERTEX
  8
0
  6
CONTINUOUS
 10
5.724400
 20
1.457720
  0
VERTEX
  8
0
  6
CONTINUOUS
 10
5.592400
 20
1.457280
  0
VERTEX
  8
0
  6
CONTINUOUS
 10
5.576560
 20
1.453320
  0
VERTEX
  8
0
  6
CONTINUOUS
 10
5.560720
 20
1.445840
  0
VERTEX
  8
0
  6
CONTINUOUS
 10
5.537400
 20
1.428680
  0
VERTEX
  8
0
  6
CONTINUOUS
 10
5.516280
 20
1.404920
  0
VERTEX
  8
0
  6
CONTINUOUS
 10
5.499560
 20
1.375880
  0
VERTEX
  8
0
  6
CONTINUOUS
 10
5.492080
 20
1.353880
  0
VERTEX
  8
0
  6
CONTINUOUS
 10
5.453800
 20
1.353880
  0
VERTEX
  8
0
  6
CONTINUOUS
 10
5.447200
 20
1.373680
  0
VERTEX
  8
0
  6
CONTINUOUS
 10
5.435760
 20
1.393920
  0
VERTEX
  8
0
  6
CONTINUOUS
 10
5.420360
 20
1.412840
  0
VERTEX
  8
0
  6
CONTINUOUS
 10
5.400560
 20
1.430440
  0
VERTEX
  8
0
  6
CONTINUOUS
 10
5.377240
 20
1.445400
  0
VERTEX
  8
0
  6
CONTINUOUS
 10
5.351280
 20
1.457280
  0
VERTEX
  8
0
  6
CONTINUOUS
 10
5.322240
 20
1.465200
  0
VERTEX
  8
0
  6
CONTINUOUS
 10
5.291440
 20
1.467840
  0
VERTEX
  8
0
  6
CONTINUOUS
 10
5.279560
 20
1.485440
  0
VERTEX
  8
0
  6
CONTINUOUS
 10
5.250960
 20
1.516680
  0
VERTEX
  8
0
  6
CONTINUOUS
 10
5.241280
 20
1.521960
  0
VERTEX
  8
0
  6
CONTINUOUS
 10
5.111920
 20
1.521960
  0
VERTEX
  8
0
  6
CONTINUOUS
 10
5.108840
 20
1.503920
  0
VERTEX
  8
0
  6
CONTINUOUS
 10
5.100480
 20
1.481480
  0
VERTEX
  8
0
  6
CONTINUOUS
 10
5.086400
 20
1.459040
  0
VERTEX
  8
0
  6
CONTINUOUS
 10
5.068360
 20
1.440560
  0
VERTEX
  8
0
  6
CONTINUOUS
 10
5.054280
 20
1.433080
  0
VERTEX
  8
0
  6
CONTINUOUS
 10
5.038440
 20
1.430000
  0
VERTEX
  8
0
  6
CONTINUOUS
 10
4.795120
 20
1.430000
  0
VERTEX
  8
0
  6
CONTINUOUS
 10
4.778400
 20
1.433080
  0
VERTEX
  8
0
  6
CONTINUOUS
 10
4.763880
 20
1.441440
  0
VERTEX
  8
0
  6
CONTINUOUS
 10
4.745840
 20
1.460800
  0
VERTEX
  8
0
  6
CONTINUOUS
 10
4.729120
 20
1.491160
  0
VERTEX
  8
0
  6
CONTINUOUS
 10
4.722960
 20
1.511840
  0
VERTEX
  8
0
  6
CONTINUOUS
 10
4.721640
 20
1.521960
  0
VERTEX
  8
0
  6
CONTINUOUS
 10
4.583480
 20
1.521520
  0
VERTEX
  8
0
  6
CONTINUOUS
 10
4.578640
 20
1.498200
  0
VERTEX
  8
0
  6
CONTINUOUS
 10
4.564120
 20
1.467400
  0
VERTEX
  8
0
  6
CONTINUOUS
 10
4.554000
 20
1.452880
  0
VERTEX
  8
0
  6
CONTINUOUS
 10
4.534200
 20
1.436160
  0
VERTEX
  8
0
  6
CONTINUOUS
 10
4.518800
 20
1.430440
  0
VERTEX
  8
0
  6
CONTINUOUS
 10
4.510000
 20
1.429560
  0
VERTEX
  8
0
  6
CONTINUOUS
 10
4.259640
 20
1.429560
  0
VERTEX
  8
0
  6
CONTINUOUS
 10
4.243360
 20
1.432640
  0
VERTEX
  8
0
  6
CONTINUOUS
 10
4.228840
 20
1.441000
  0
VERTEX
  8
0
  6
CONTINUOUS
 10
4.216080
 20
1.452880
  0
VERTEX
  8
0
  6
CONTINUOUS
 10
4.205960
 20
1.467400
  0
VERTEX
  8
0
  6
CONTINUOUS
 10
4.191440
 20
1.498200
  0
VERTEX
  8
0
  6
CONTINUOUS
 10
4.186160
 20
1.521960
  0
VERTEX
  8
0
  6
CONTINUOUS
 10
4.048440
 20
1.521960
  0
VERTEX
  8
0
  6
CONTINUOUS
 10
4.043600
 20
1.498640
  0
VERTEX
  8
0
  6
CONTINUOUS
 10
4.037440
 20
1.483240
  0
VERTEX
  8
0
  6
CONTINUOUS
 10
4.024240
 20
1.460360
  0
VERTEX
  8
0
  6
CONTINUOUS
 10
4.006200
 20
1.441000
  0
VERTEX
  8
0
  6
CONTINUOUS
 10
3.991680
 20
1.432640
  0
VERTEX
  8
0
  6
CONTINUOUS
 10
3.974960
 20
1.429560
  0
VERTEX
  8
0
  6
CONTINUOUS
 10
3.731640
 20
1.429560
  0
VERTEX
  8
0
  6
CONTINUOUS
 10
3.715800
 20
1.432640
  0
VERTEX
  8
0
  6
CONTINUOUS
 10
3.708320
 20
1.435720
  0
VERTEX
  8
0
  6
CONTINUOUS
 10
3.688960
 20
1.452000
  0
VERTEX
  8
0
  6
CONTINUOUS
 10
3.678400
 20
1.466080
  0
VERTEX
  8
0
  6
CONTINUOUS
 10
3.669600
 20
1.481480
  0
VERTEX
  8
0
  6
CONTINUOUS
 10
3.661240
 20
1.503920
  0
VERTEX
  8
0
  6
CONTINUOUS
 10
3.658160
 20
1.521960
  0
VERTEX
  8
0
  6
CONTINUOUS
 10
3.527040
 20
1.521520
  0
VERTEX
  8
0
  6
CONTINUOUS
 10
3.512520
 20
1.510520
  0
VERTEX
  8
0
  6
CONTINUOUS
 10
3.483920
 20
1.476200
  0
VERTEX
  8
0
  6
CONTINUOUS
 10
3.478640
 20
1.467400
  0
VERTEX
  8
0
  6
CONTINUOUS
 10
3.447840
 20
1.464760
  0
VERTEX
  8
0
  6
CONTINUOUS
 10
3.418800
 20
1.456840
  0
VERTEX
  8
0
  6
CONTINUOUS
 10
3.392840
 20
1.444960
  0
VERTEX
  8
0
  6
CONTINUOUS
 10
3.369520
 20
1.430000
  0
VERTEX
  8
0
  6
CONTINUOUS
 10
3.341360
 20
1.403160
  0
VERTEX
  8
0
  6
CONTINUOUS
 10
3.327720
 20
1.383800
  0
VERTEX
  8
0
  6
CONTINUOUS
 10
3.318920
 20
1.363560
  0
VERTEX
  8
0
  6
CONTINUOUS
 10
3.316280
 20
1.353880
  0
VERTEX
  8
0
  6
CONTINUOUS
 10
3.278000
 20
1.353880
  0
VERTEX
  8
0
  6
CONTINUOUS
 10
3.270520
 20
1.375880
  0
VERTEX
  8
0
  6
CONTINUOUS
 10
3.253800
 20
1.404920
  0
VERTEX
  8
0
  6
CONTINUOUS
 10
3.232680
 20
1.428680
  0
VERTEX
  8
0
  6
CONTINUOUS
 10
3.209360
 20
1.445840
  0
VERTEX
  8
0
  6
CONTINUOUS
 10
3.193520
 20
1.453320
  0
VERTEX
  8
0
  6
CONTINUOUS
 10
3.177680
 20
1.457280
  0
VERTEX
  8
0
  6
CONTINUOUS
 10
3.045680
 20
1.457720
  0
VERTEX
  8
0
  6
CONTINUOUS
 10
3.045680
 20
1.521080
  0
VERTEX
  8
0
  6
CONTINUOUS
 10
2.611840
 20
1.521080
  0
VERTEX
  8
0
  6
CONTINUOUS
 10
2.611840
 20
1.598960
  0
VERTEX
  8
0
  6
CONTINUOUS
 10
1.893760
 20
1.598960
  0
VERTEX
  8
0
  6
CONTINUOUS
 10
1.893760
 20
0.784960
  0
VERTEX
  8
0
  6
CONTINUOUS
 10
6.877200
 20
0.784960
  0
VERTEX
  8
0
  6
CONTINUOUS
 10
6.877200
 20
1.598520
  0
VERTEX
  8
0
  6
CONTINUOUS
 10
6.876320
 20
1.598960
  0
SEQEND
  8
0
  0
SOLID
  8
0
 62
    15
 10
4.607240
 20
4.253480
 11
4.599760
 21
5.003240
 12
4.624400
 22
4.256560
 13
4.616920
 23
5.006320
  0
POLYLINE
  8
0
  6
CONTINUOUS
 66
     1
 40
0.000000
 41
0.000000
  0
VERTEX
  8
0
  6
CONTINUOUS
 10
4.607240
 20
4.253480
  0
VERTEX
  8
0
  6
CONTINUOUS
 10
4.599760
 20
5.003240
  0
VERTEX
  8
0
  6
CONTINUOUS
 10
4.616920
 20
5.006320
  0
VERTEX
  8
0
  6
CONTINUOUS
 10
4.624400
 20
4.256560
  0
VERTEX
  8
0
  6
CONTINUOUS
 10
4.607240
 20
4.253480
  0
SEQEND
  8
0
  0
SOLID
  8
0
 62
    15
 10
3.143360
 20
4.281640
 11
3.135880
 21
5.031400
 12
3.267880
 22
4.281640
 13
3.260400
 23
5.031400
  0
POLYLINE
  8
0
  6
CONTINUOUS
 66
     1
 40
0.000000
 41
0.000000
  0
VERTEX
  8
0
  6
CONTINUOUS
 10
3.143360
 20
4.281640
  0
VERTEX
  8
0
  6
CONTINUOUS
 10
3.135880
 20
5.031400
  0
VERTEX
  8
0
  6
CONTINUOUS
 10
3.260400
 20
5.031400
  0
VERTEX
  8
0
  6
CONTINUOUS
 10
3.267880
 20
4.281640
  0
VERTEX
  8
0
  6
CONTINUOUS
 10
3.143360
 20
4.281640
  0
SEQEND
  8
0
  0
SOLID
  8
0
 62
    15
 10
2.709520
 20
4.344560
 11
2.702040
 21
5.094320
 12
3.143360
 22
4.344560
 13
3.135880
 23
5.094320
  0
POLYLINE
  8
0
  6
CONTINUOUS
 66
     1
 40
0.000000
 41
0.000000
  0
VERTEX
  8
0
  6
CONTINUOUS
 10
2.709520
 20
4.344560
  0
VERTEX
  8
0
  6
CONTINUOUS
 10
2.702040
 20
5.094320
  0
VERTEX
  8
0
  6
CONTINUOUS
 10
3.135880
 20
5.094320
  0
VERTEX
  8
0
  6
CONTINUOUS
 10
3.143360
 20
4.344560
  0
VERTEX
  8
0
  6
CONTINUOUS
 10
2.709520
 20
4.344560
  0
SEQEND
  8
0
  0
SOLID
  8
0
 62
    15
 10
1.991440
 20
3.608880
 11
1.983960
 21
4.358640
 12
1.991440
 22
4.422880
 13
1.983960
 23
5.172640
  0
POLYLINE
  8
0
  6
CONTINUOUS
 66
     1
 40
0.000000
 41
0.000000
  0
VERTEX
  8
0
  6
CONTINUOUS
 10
1.991440
 20
3.608880
  0
VERTEX
  8
0
  6
CONTINUOUS
 10
1.983960
 20
4.358640
  0
VERTEX
  8
0
  6
CONTINUOUS
 10
1.983960
 20
5.172640
  0
VERTEX
  8
0
  6
CONTINUOUS
 10
1.991440
 20
4.422880
  0
VERTEX
  8
0
  6
CONTINUOUS
 10
1.991440
 20
3.608880
  0
SEQEND
  8
0
  0
SOLID
  8
0
 62
    15
 10
3.267880
 20
4.281640
 11
3.260400
 21
5.031400
 12
3.282840
 22
4.279440
 13
3.275800
 23
5.029200
  0
POLYLINE
  8
0
  6
CONTINUOUS
 66
     1
 40
0.000000
 41
0.000000
  0
VERTEX
  8
0
  6
CONTINUOUS
 10
3.267880
 20
4.281640
  0
VERTEX
  8
0
  6
CONTINUOUS
 10
3.260400
 20
5.031400
  0
VERTEX
  8
0
  6
CONTINUOUS
 10
3.275800
 20
5.029200
  0
VERTEX
  8
0
  6
CONTINUOUS
 10
3.282840
 20
4.279440
  0
VERTEX
  8
0
  6
CONTINUOUS
 10
3.267880
 20
4.281640
  0
SEQEND
  8
0
  0
SOLID
  8
0
 62
    15
 10
3.282840
 20
4.279440
 11
3.275800
 21
5.029200
 12
3.299120
 22
4.273720
 13
3.291640
 23
5.023480
  0
POLYLINE
  8
0
  6
CONTINUOUS
 66
     1
 40
0.000000
 41
0.000000
  0
VERTEX
  8
0
  6
CONTINUOUS
 10
3.282840
 20
4.279440
  0
VERTEX
  8
0
  6
CONTINUOUS
 10
3.275800
 20
5.029200
  0
VERTEX
  8
0
  6
CONTINUOUS
 10
3.291640
 20
5.023480
  0
VERTEX
  8
0
  6
CONTINUOUS
 10
3.299120
 20
4.273720
  0
VERTEX
  8
0
  6
CONTINUOUS
 10
3.282840
 20
4.279440
  0
SEQEND
  8
0
  0
SOLID
  8
0
 62
    15
 10
3.299120
 20
4.273720
 11
3.291640
 21
5.023480
 12
3.330360
 22
4.252160
 13
3.322880
 23
5.001920
  0
POLYLINE
  8
0
  6
CONTINUOUS
 66
     1
 40
0.000000
 41
0.000000
  0
VERTEX
  8
0
  6
CONTINUOUS
 10
3.299120
 20
4.273720
  0
VERTEX
  8
0
  6
CONTINUOUS
 10
3.291640
 20
5.023480
  0
VERTEX
  8
0
  6
CONTINUOUS
 10
3.322880
 20
5.001920
  0
VERTEX
  8
0
  6
CONTINUOUS
 10
3.330360
 20
4.252160
  0
VERTEX
  8
0
  6
CONTINUOUS
 10
3.299120
 20
4.273720
  0
SEQEND
  8
0
  0
SOLID
  8
0
 62
    15
 10
3.330360
 20
4.252160
 11
3.322880
 21
5.001920
 12
3.357640
 22
4.219600
 13
3.350160
 23
4.969360
  0
POLYLINE
  8
0
  6
CONTINUOUS
 66
     1
 40
0.000000
 41
0.000000
  0
VERTEX
  8
0
  6
CONTINUOUS
 10
3.330360
 20
4.252160
  0
VERTEX
  8
0
  6
CONTINUOUS
 10
3.322880
 20
5.001920
  0
VERTEX
  8
0
  6
CONTINUOUS
 10
3.350160
 20
4.969360
  0
VERTEX
  8
0
  6
CONTINUOUS
 10
3.357640
 20
4.219600
  0
VERTEX
  8
0
  6
CONTINUOUS
 10
3.330360
 20
4.252160
  0
SEQEND
  8
0
  0
SOLID
  8
0
 62
    15
 10
3.357640
 20
4.219600
 11
3.350160
 21
4.969360
 12
3.375680
 22
4.177800
 13
3.368200
 23
4.927560
  0
POLYLINE
  8
0
  6
CONTINUOUS
 66
     1
 40
0.000000
 41
0.000000
  0
VERTEX
  8
0
  6
CONTINUOUS
 10
3.357640
 20
4.219600
  0
VERTEX
  8
0
  6
CONTINUOUS
 10
3.350160
 20
4.969360
  0
VERTEX
  8
0
  6
CONTINUOUS
 10
3.368200
 20
4.927560
  0
VERTEX
  8
0
  6
CONTINUOUS
 10
3.375680
 20
4.177800
  0
VERTEX
  8
0
  6
CONTINUOUS
 10
3.357640
 20
4.219600
  0
SEQEND
  8
0
  0
SOLID
  8
0
 62
    15
 10
3.375680
 20
4.177800
 11
3.368200
 21
4.927560
 12
3.413520
 22
4.177800
 13
3.406040
 23
4.927560
  0
POLYLINE
  8
0
  6
CONTINUOUS
 66
     1
 40
0.000000
 41
0.000000
  0
VERTEX
  8
0
  6
CONTINUOUS
 10
3.375680
 20
4.177800
  0
VERTEX
  8
0
  6
CONTINUOUS
 10
3.368200
 20
4.927560
  0
VERTEX
  8
0
  6
CONTINUOUS
 10
3.406040
 20
4.927560
  0
VERTEX
  8
0
  6
CONTINUOUS
 10
3.413520
 20
4.177800
  0
VERTEX
  8
0
  6
CONTINUOUS
 10
3.375680
 20
4.177800
  0
SEQEND
  8
0
  0
SOLID
  8
0
 62
    15
 10
3.413520
 20
4.177800
 11
3.406040
 21
4.927560
 12
3.420120
 22
4.197600
 13
3.412640
 23
4.947360
  0
POLYLINE
  8
0
  6
CONTINUOUS
 66
     1
 40
0.000000
 41
0.000000
  0
VERTEX
  8
0
  6
CONTINUOUS
 10
3.413520
 20
4.177800
  0
VERTEX
  8
0
  6
CONTINUOUS
 10
3.406040
 20
4.927560
  0
VERTEX
  8
0
  6
CONTINUOUS
 10
3.412640
 20
4.947360
  0
VERTEX
  8
0
  6
CONTINUOUS
 10
3.420120
 20
4.197600
  0
VERTEX
  8
0
  6
CONTINUOUS
 10
3.413520
 20
4.177800
  0
SEQEND
  8
0
  0
SOLID
  8
0
 62
    15
 10
3.420120
 20
4.197600
 11
3.412640
 21
4.947360
 12
3.431560
 22
4.217400
 13
3.424080
 23
4.967160
  0
POLYLINE
  8
0
  6
CONTINUOUS
 66
     1
 40
0.000000
 41
0.000000
  0
VERTEX
  8
0
  6
CONTINUOUS
 10
3.420120
 20
4.197600
  0
VERTEX
  8
0
  6
CONTINUOUS
 10
3.412640
 20
4.947360
  0
VERTEX
  8
0
  6
CONTINUOUS
 10
3.424080
 20
4.967160
  0
VERTEX
  8
0
  6
CONTINUOUS
 10
3.431560
 20
4.217400
  0
VERTEX
  8
0
  6
CONTINUOUS
 10
3.420120
 20
4.197600
  0
SEQEND
  8
0
  0
SOLID
  8
0
 62
    15
 10
3.431560
 20
4.217400
 11
3.424080
 21
4.967160
 12
3.447400
 22
4.236320
 13
3.439920
 23
4.986080
  0
POLYLINE
  8
0
  6
CONTINUOUS
 66
     1
 40
0.000000
 41
0.000000
  0
VERTEX
  8
0
  6
CONTINUOUS
 10
3.431560
 20
4.217400
  0
VERTEX
  8
0
  6
CONTINUOUS
 10
3.424080
 20
4.967160
  0
VERTEX
  8
0
  6
CONTINUOUS
 10
3.439920
 20
4.986080
  0
VERTEX
  8
0
  6
CONTINUOUS
 10
3.447400
 20
4.236320
  0
VERTEX
  8
0
  6
CONTINUOUS
 10
3.431560
 20
4.217400
  0
SEQEND
  8
0
  0
SOLID
  8
0
 62
    15
 10
3.447400
 20
4.236320
 11
3.439920
 21
4.986080
 12
3.467200
 22
4.253920
 13
3.459720
 23
5.003680
  0
POLYLINE
  8
0
  6
CONTINUOUS
 66
     1
 40
0.000000
 41
0.000000
  0
VERTEX
  8
0
  6
CONTINUOUS
 10
3.447400
 20
4.236320
  0
VERTEX
  8
0
  6
CONTINUOUS
 10
3.439920
 20
4.986080
  0
VERTEX
  8
0
  6
CONTINUOUS
 10
3.459720
 20
5.003680
  0
VERTEX
  8
0
  6
CONTINUOUS
 10
3.467200
 20
4.253920
  0
VERTEX
  8
0
  6
CONTINUOUS
 10
3.447400
 20
4.236320
  0
SEQEND
  8
0
  0
SOLID
  8
0
 62
    15
 10
3.467200
 20
4.253920
 11
3.459720
 21
5.003680
 12
3.490080
 22
4.269320
 13
3.482600
 23
5.019080
  0
POLYLINE
  8
0
  6
CONTINUOUS
 66
     1
 40
0.000000
 41
0.000000
  0
VERTEX
  8
0
  6
CONTINUOUS
 10
3.467200
 20
4.253920
  0
VERTEX
  8
0
  6
CONTINUOUS
 10
3.459720
 20
5.003680
  0
VERTEX
  8
0
  6
CONTINUOUS
 10
3.482600
 20
5.019080
  0
VERTEX
  8
0
  6
CONTINUOUS
 10
3.490080
 20
4.269320
  0
VERTEX
  8
0
  6
CONTINUOUS
 10
3.467200
 20
4.253920
  0
SEQEND
  8
0
  0
SOLID
  8
0
 62
    15
 10
3.490080
 20
4.269320
 11
3.482600
 21
5.019080
 12
3.516480
 22
4.280760
 13
3.509000
 23
5.030520
  0
POLYLINE
  8
0
  6
CONTINUOUS
 66
     1
 40
0.000000
 41
0.000000
  0
VERTEX
  8
0
  6
CONTINUOUS
 10
3.490080
 20
4.269320
  0
VERTEX
  8
0
  6
CONTINUOUS
 10
3.482600
 20
5.019080
  0
VERTEX
  8
0
  6
CONTINUOUS
 10
3.509000
 20
5.030520
  0
VERTEX
  8
0
  6
CONTINUOUS
 10
3.516480
 20
4.280760
  0
VERTEX
  8
0
  6
CONTINUOUS
 10
3.490080
 20
4.269320
  0
SEQEND
  8
0
  0
SOLID
  8
0
 62
    15
 10
3.516480
 20
4.280760
 11
3.509000
 21
5.030520
 12
3.545080
 22
4.288680
 13
3.537600
 23
5.038440
  0
POLYLINE
  8
0
  6
CONTINUOUS
 66
     1
 40
0.000000
 41
0.000000
  0
VERTEX
  8
0
  6
CONTINUOUS
 10
3.516480
 20
4.280760
  0
VERTEX
  8
0
  6
CONTINUOUS
 10
3.509000
 20
5.030520
  0
VERTEX
  8
0
  6
CONTINUOUS
 10
3.537600
 20
5.038440
  0
VERTEX
  8
0
  6
CONTINUOUS
 10
3.545080
 20
4.288680
  0
VERTEX
  8
0
  6
CONTINUOUS
 10
3.516480
 20
4.280760
  0
SEQEND
  8
0
  0
SOLID
  8
0
 62
    15
 10
3.545080
 20
4.288680
 11
3.537600
 21
5.038440
 12
3.576320
 22
4.291320
 13
3.568840
 23
5.041080
  0
POLYLINE
  8
0
  6
CONTINUOUS
 66
     1
 40
0.000000
 41
0.000000
  0
VERTEX
  8
0
  6
CONTINUOUS
 10
3.545080
 20
4.288680
  0
VERTEX
  8
0
  6
CONTINUOUS
 10
3.537600
 20
5.038440
  0
VERTEX
  8
0
  6
CONTINUOUS
 10
3.568840
 20
5.041080
  0
VERTEX
  8
0
  6
CONTINUOUS
 10
3.576320
 20
4.291320
  0
VERTEX
  8
0
  6
CONTINUOUS
 10
3.545080
 20
4.288680
  0
SEQEND
  8
0
  0
SOLID
  8
0
 62
    15
 10
3.576320
 20
4.291320
 11
3.568840
 21
5.041080
 12
3.602720
 22
4.326520
 13
3.595240
 23
5.076280
  0
POLYLINE
  8
0
  6
CONTINUOUS
 66
     1
 40
0.000000
 41
0.000000
  0
VERTEX
  8
0
  6
CONTINUOUS
 10
3.576320
 20
4.291320
  0
VERTEX
  8
0
  6
CONTINUOUS
 10
3.568840
 20
5.041080
  0
VERTEX
  8
0
  6
CONTINUOUS
 10
3.595240
 20
5.076280
  0
VERTEX
  8
0
  6
CONTINUOUS
 10
3.602720
 20
4.326520
  0
VERTEX
  8
0
  6
CONTINUOUS
 10
3.576320
 20
4.291320
  0
SEQEND
  8
0
  0
SOLID
  8
0
 62
    15
 10
3.602720
 20
4.326520
 11
3.595240
 21
5.076280
 12
3.616800
 22
4.340160
 13
3.609320
 23
5.089920
  0
POLYLINE
  8
0
  6
CONTINUOUS
 66
     1
 40
0.000000
 41
0.000000
  0
VERTEX
  8
0
  6
CONTINUOUS
 10
3.602720
 20
4.326520
  0
VERTEX
  8
0
  6
CONTINUOUS
 10
3.595240
 20
5.076280
  0
VERTEX
  8
0
  6
CONTINUOUS
 10
3.609320
 20
5.089920
  0
VERTEX
  8
0
  6
CONTINUOUS
 10
3.616800
 20
4.340160
  0
VERTEX
  8
0
  6
CONTINUOUS
 10
3.602720
 20
4.326520
  0
SEQEND
  8
0
  0
SOLID
  8
0
 62
    15
 10
3.616800
 20
4.340160
 11
3.609320
 21
5.089920
 12
3.626040
 22
4.345880
 13
3.619000
 23
5.095640
  0
POLYLINE
  8
0
  6
CONTINUOUS
 66
     1
 40
0.000000
 41
0.000000
  0
VERTEX
  8
0
  6
CONTINUOUS
 10
3.616800
 20
4.340160
  0
VERTEX
  8
0
  6
CONTINUOUS
 10
3.609320
 20
5.089920
  0
VERTEX
  8
0
  6
CONTINUOUS
 10
3.619000
 20
5.095640
  0
VERTEX
  8
0
  6
CONTINUOUS
 10
3.626040
 20
4.345880
  0
VERTEX
  8
0
  6
CONTINUOUS
 10
3.616800
 20
4.340160
  0
SEQEND
  8
0
  0
SOLID
  8
0
 62
    15
 10
3.626040
 20
4.345880
 11
3.619000
 21
5.095640
 12
3.755400
 22
4.345880
 13
3.748360
 23
5.095640
  0
POLYLINE
  8
0
  6
CONTINUOUS
 66
     1
 40
0.000000
 41
0.000000
  0
VERTEX
  8
0
  6
CONTINUOUS
 10
3.626040
 20
4.345880
  0
VERTEX
  8
0
  6
CONTINUOUS
 10
3.619000
 20
5.095640
  0
VERTEX
  8
0
  6
CONTINUOUS
 10
3.748360
 20
5.095640
  0
VERTEX
  8
0
  6
CONTINUOUS
 10
3.755400
 20
4.345880
  0
VERTEX
  8
0
  6
CONTINUOUS
 10
3.626040
 20
4.345880
  0
SEQEND
  8
0
  0
SOLID
  8
0
 62
    15
 10
3.755400
 20
4.345880
 11
3.748360
 21
5.095640
 12
3.761120
 22
4.320360
 13
3.753640
 23
5.070120
  0
POLYLINE
  8
0
  6
CONTINUOUS
 66
     1
 40
0.000000
 41
0.000000
  0
VERTEX
  8
0
  6
CONTINUOUS
 10
3.755400
 20
4.345880
  0
VERTEX
  8
0
  6
CONTINUOUS
 10
3.748360
 20
5.095640
  0
VERTEX
  8
0
  6
CONTINUOUS
 10
3.753640
 20
5.070120
  0
VERTEX
  8
0
  6
CONTINUOUS
 10
3.761120
 20
4.320360
  0
VERTEX
  8
0
  6
CONTINUOUS
 10
3.755400
 20
4.345880
  0
SEQEND
  8
0
  0
SOLID
  8
0
 62
    15
 10
3.761120
 20
4.320360
 11
3.753640
 21
5.070120
 12
3.776080
 22
4.290000
 13
3.768600
 23
5.039760
  0
POLYLINE
  8
0
  6
CONTINUOUS
 66
     1
 40
0.000000
 41
0.000000
  0
VERTEX
  8
0
  6
CONTINUOUS
 10
3.761120
 20
4.320360
  0
VERTEX
  8
0
  6
CONTINUOUS
 10
3.753640
 20
5.070120
  0
VERTEX
  8
0
  6
CONTINUOUS
 10
3.768600
 20
5.039760
  0
VERTEX
  8
0
  6
CONTINUOUS
 10
3.776080
 20
4.290000
  0
VERTEX
  8
0
  6
CONTINUOUS
 10
3.761120
 20
4.320360
  0
SEQEND
  8
0
  0
SOLID
  8
0
 62
    15
 10
3.776080
 20
4.290000
 11
3.768600
 21
5.039760
 12
3.798960
 22
4.264040
 13
3.791920
 23
5.013800
  0
POLYLINE
  8
0
  6
CONTINUOUS
 66
     1
 40
0.000000
 41
0.000000
  0
VERTEX
  8
0
  6
CONTINUOUS
 10
3.776080
 20
4.290000
  0
VERTEX
  8
0
  6
CONTINUOUS
 10
3.768600
 20
5.039760
  0
VERTEX
  8
0
  6
CONTINUOUS
 10
3.791920
 20
5.013800
  0
VERTEX
  8
0
  6
CONTINUOUS
 10
3.798960
 20
4.264040
  0
VERTEX
  8
0
  6
CONTINUOUS
 10
3.776080
 20
4.290000
  0
SEQEND
  8
0
  0
SOLID
  8
0
 62
    15
 10
3.798960
 20
4.264040
 11
3.791920
 21
5.013800
 12
3.813480
 22
4.256560
 13
3.806000
 23
5.006320
  0
POLYLINE
  8
0
  6
CONTINUOUS
 66
     1
 40
0.000000
 41
0.000000
  0
VERTEX
  8
0
  6
CONTINUOUS
 10
3.798960
 20
4.264040
  0
VERTEX
  8
0
  6
CONTINUOUS
 10
3.791920
 20
5.013800
  0
VERTEX
  8
0
  6
CONTINUOUS
 10
3.806000
 20
5.006320
  0
VERTEX
  8
0
  6
CONTINUOUS
 10
3.813480
 20
4.256560
  0
VERTEX
  8
0
  6
CONTINUOUS
 10
3.798960
 20
4.264040
  0
SEQEND
  8
0
  0
SOLID
  8
0
 62
    15
 10
3.813480
 20
4.256560
 11
3.806000
 21
5.006320
 12
3.828880
 22
4.253480
 13
3.821400
 23
5.003240
  0
POLYLINE
  8
0
  6
CONTINUOUS
 66
     1
 40
0.000000
 41
0.000000
  0
VERTEX
  8
0
  6
CONTINUOUS
 10
3.813480
 20
4.256560
  0
VERTEX
  8
0
  6
CONTINUOUS
 10
3.806000
 20
5.006320
  0
VERTEX
  8
0
  6
CONTINUOUS
 10
3.821400
 20
5.003240
  0
VERTEX
  8
0
  6
CONTINUOUS
 10
3.828880
 20
4.253480
  0
VERTEX
  8
0
  6
CONTINUOUS
 10
3.813480
 20
4.256560
  0
SEQEND
  8
0
  0
SOLID
  8
0
 62
    15
 10
3.828880
 20
4.253480
 11
3.821400
 21
5.003240
 12
4.072200
 22
4.253480
 13
4.064720
 23
5.003240
  0
POLYLINE
  8
0
  6
CONTINUOUS
 66
     1
 40
0.000000
 41
0.000000
  0
VERTEX
  8
0
  6
CONTINUOUS
 10
3.828880
 20
4.253480
  0
VERTEX
  8
0
  6
CONTINUOUS
 10
3.821400
 20
5.003240
  0
VERTEX
  8
0
  6
CONTINUOUS
 10
4.064720
 20
5.003240
  0
VERTEX
  8
0
  6
CONTINUOUS
 10
4.072200
 20
4.253480
  0
VERTEX
  8
0
  6
CONTINUOUS
 10
3.828880
 20
4.253480
  0
SEQEND
  8
0
  0
SOLID
  8
0
 62
    15
 10
4.072200
 20
4.253480
 11
4.064720
 21
5.003240
 12
4.088920
 22
4.256560
 13
4.081880
 23
5.006320
  0
POLYLINE
  8
0
  6
CONTINUOUS
 66
     1
 40
0.000000
 41
0.000000
  0
VERTEX
  8
0
  6
CONTINUOUS
 10
4.072200
 20
4.253480
  0
VERTEX
  8
0
  6
CONTINUOUS
 10
4.064720
 20
5.003240
  0
VERTEX
  8
0
  6
CONTINUOUS
 10
4.081880
 20
5.006320
  0
VERTEX
  8
0
  6
CONTINUOUS
 10
4.088920
 20
4.256560
  0
VERTEX
  8
0
  6
CONTINUOUS
 10
4.072200
 20
4.253480
  0
SEQEND
  8
0
  0
SOLID
  8
0
 62
    15
 10
4.088920
 20
4.256560
 11
4.081880
 21
5.006320
 12
4.103880
 22
4.264920
 13
4.096400
 23
5.014680
  0
POLYLINE
  8
0
  6
CONTINUOUS
 66
     1
 40
0.000000
 41
0.000000
  0
VERTEX
  8
0
  6
CONTINUOUS
 10
4.088920
 20
4.256560
  0
VERTEX
  8
0
  6
CONTINUOUS
 10
4.081880
 20
5.006320
  0
VERTEX
  8
0
  6
CONTINUOUS
 10
4.096400
 20
5.014680
  0
VERTEX
  8
0
  6
CONTINUOUS
 10
4.103880
 20
4.264920
  0
VERTEX
  8
0
  6
CONTINUOUS
 10
4.088920
 20
4.256560
  0
SEQEND
  8
0
  0
SOLID
  8
0
 62
    15
 10
4.103880
 20
4.264920
 11
4.096400
 21
5.014680
 12
4.126760
 22
4.291760
 13
4.119280
 23
5.041520
  0
POLYLINE
  8
0
  6
CONTINUOUS
 66
     1
 40
0.000000
 41
0.000000
  0
VERTEX
  8
0
  6
CONTINUOUS
 10
4.103880
 20
4.264920
  0
VERTEX
  8
0
  6
CONTINUOUS
 10
4.096400
 20
5.014680
  0
VERTEX
  8
0
  6
CONTINUOUS
 10
4.119280
 20
5.041520
  0
VERTEX
  8
0
  6
CONTINUOUS
 10
4.126760
 20
4.291760
  0
VERTEX
  8
0
  6
CONTINUOUS
 10
4.103880
 20
4.264920
  0
SEQEND
  8
0
  0
SOLID
  8
0
 62
    15
 10
4.126760
 20
4.291760
 11
4.119280
 21
5.041520
 12
4.140840
 22
4.322120
 13
4.133360
 23
5.071880
  0
POLYLINE
  8
0
  6
CONTINUOUS
 66
     1
 40
0.000000
 41
0.000000
  0
VERTEX
  8
0
  6
CONTINUOUS
 10
4.126760
 20
4.291760
  0
VERTEX
  8
0
  6
CONTINUOUS
 10
4.119280
 20
5.041520
  0
VERTEX
  8
0
  6
CONTINUOUS
 10
4.133360
 20
5.071880
  0
VERTEX
  8
0
  6
CONTINUOUS
 10
4.140840
 20
4.322120
  0
VERTEX
  8
0
  6
CONTINUOUS
 10
4.126760
 20
4.291760
  0
SEQEND
  8
0
  0
SOLID
  8
0
 62
    15
 10
4.140840
 20
4.322120
 11
4.133360
 21
5.071880
 12
4.144360
 22
4.335760
 13
4.137320
 23
5.085520
  0
POLYLINE
  8
0
  6
CONTINUOUS
 66
     1
 40
0.000000
 41
0.000000
  0
VERTEX
  8
0
  6
CONTINUOUS
 10
4.140840
 20
4.322120
  0
VERTEX
  8
0
  6
CONTINUOUS
 10
4.133360
 20
5.071880
  0
VERTEX
  8
0
  6
CONTINUOUS
 10
4.137320
 20
5.085520
  0
VERTEX
  8
0
  6
CONTINUOUS
 10
4.144360
 20
4.335760
  0
VERTEX
  8
0
  6
CONTINUOUS
 10
4.140840
 20
4.322120
  0
SEQEND
  8
0
  0
SOLID
  8
0
 62
    15
 10
4.144360
 20
4.335760
 11
4.137320
 21
5.085520
 12
4.145680
 22
4.345440
 13
4.138200
 23
5.095200
  0
POLYLINE
  8
0
  6
CONTINUOUS
 66
     1
 40
0.000000
 41
0.000000
  0
VERTEX
  8
0
  6
CONTINUOUS
 10
4.144360
 20
4.335760
  0
VERTEX
  8
0
  6
CONTINUOUS
 10
4.137320
 20
5.085520
  0
VERTEX
  8
0
  6
CONTINUOUS
 10
4.138200
 20
5.095200
  0
VERTEX
  8
0
  6
CONTINUOUS
 10
4.145680
 20
4.345440
  0
VERTEX
  8
0
  6
CONTINUOUS
 10
4.144360
 20
4.335760
  0
SEQEND
  8
0
  0
SOLID
  8
0
 62
    15
 10
4.145680
 20
4.345440
 11
4.138200
 21
5.095200
 12
4.283840
 22
4.345440
 13
4.276360
 23
5.095200
  0
POLYLINE
  8
0
  6
CONTINUOUS
 66
     1
 40
0.000000
 41
0.000000
  0
VERTEX
  8
0
  6
CONTINUOUS
 10
4.145680
 20
4.345440
  0
VERTEX
  8
0
  6
CONTINUOUS
 10
4.138200
 20
5.095200
  0
VERTEX
  8
0
  6
CONTINUOUS
 10
4.276360
 20
5.095200
  0
VERTEX
  8
0
  6
CONTINUOUS
 10
4.283840
 20
4.345440
  0
VERTEX
  8
0
  6
CONTINUOUS
 10
4.145680
 20
4.345440
  0
SEQEND
  8
0
  0
SOLID
  8
0
 62
    15
 10
4.283840
 20
4.345440
 11
4.276360
 21
5.095200
 12
4.284280
 22
4.345440
 13
4.276800
 23
5.095200
  0
POLYLINE
  8
0
  6
CONTINUOUS
 66
     1
 40
0.000000
 41
0.000000
  0
VERTEX
  8
0
  6
CONTINUOUS
 10
4.283840
 20
4.345440
  0
VERTEX
  8
0
  6
CONTINUOUS
 10
4.276360
 20
5.095200
  0
VERTEX
  8
0
  6
CONTINUOUS
 10
4.276800
 20
5.095200
  0
VERTEX
  8
0
  6
CONTINUOUS
 10
4.284280
 20
4.345440
  0
VERTEX
  8
0
  6
CONTINUOUS
 10
4.283840
 20
4.345440
  0
SEQEND
  8
0
  0
SOLID
  8
0
 62
    15
 10
4.284280
 20
4.345440
 11
4.276800
 21
5.095200
 12
4.285160
 22
4.335320
 13
4.278120
 23
5.085080
  0
POLYLINE
  8
0
  6
CONTINUOUS
 66
     1
 40
0.000000
 41
0.000000
  0
VERTEX
  8
0
  6
CONTINUOUS
 10
4.284280
 20
4.345440
  0
VERTEX
  8
0
  6
CONTINUOUS
 10
4.276800
 20
5.095200
  0
VERTEX
  8
0
  6
CONTINUOUS
 10
4.278120
 20
5.085080
  0
VERTEX
  8
0
  6
CONTINUOUS
 10
4.285160
 20
4.335320
  0
VERTEX
  8
0
  6
CONTINUOUS
 10
4.284280
 20
4.345440
  0
SEQEND
  8
0
  0
SOLID
  8
0
 62
    15
 10
4.285160
 20
4.335320
 11
4.278120
 21
5.085080
 12
4.289120
 22
4.322120
 13
4.281640
 23
5.071880
  0
POLYLINE
  8
0
  6
CONTINUOUS
 66
     1
 40
0.000000
 41
0.000000
  0
VERTEX
  8
0
  6
CONTINUOUS
 10
4.285160
 20
4.335320
  0
VERTEX
  8
0
  6
CONTINUOUS
 10
4.278120
 20
5.085080
  0
VERTEX
  8
0
  6
CONTINUOUS
 10
4.281640
 20
5.071880
  0
VERTEX
  8
0
  6
CONTINUOUS
 10
4.289120
 20
4.322120
  0
VERTEX
  8
0
  6
CONTINUOUS
 10
4.285160
 20
4.335320
  0
SEQEND
  8
0
  0
SOLID
  8
0
 62
    15
 10
4.289120
 20
4.322120
 11
4.281640
 21
5.071880
 12
4.303200
 22
4.291320
 13
4.295720
 23
5.041080
  0
POLYLINE
  8
0
  6
CONTINUOUS
 66
     1
 40
0.000000
 41
0.000000
  0
VERTEX
  8
0
  6
CONTINUOUS
 10
4.289120
 20
4.322120
  0
VERTEX
  8
0
  6
CONTINUOUS
 10
4.281640
 20
5.071880
  0
VERTEX
  8
0
  6
CONTINUOUS
 10
4.295720
 20
5.041080
  0
VERTEX
  8
0
  6
CONTINUOUS
 10
4.303200
 20
4.291320
  0
VERTEX
  8
0
  6
CONTINUOUS
 10
4.289120
 20
4.322120
  0
SEQEND
  8
0
  0
SOLID
  8
0
 62
    15
 10
4.303200
 20
4.291320
 11
4.295720
 21
5.041080
 12
4.326080
 22
4.264920
 13
4.318600
 23
5.014680
  0
POLYLINE
  8
0
  6
CONTINUOUS
 66
     1
 40
0.000000
 41
0.000000
  0
VERTEX
  8
0
  6
CONTINUOUS
 10
4.303200
 20
4.291320
  0
VERTEX
  8
0
  6
CONTINUOUS
 10
4.295720
 20
5.041080
  0
VERTEX
  8
0
  6
CONTINUOUS
 10
4.318600
 20
5.014680
  0
VERTEX
  8
0
  6
CONTINUOUS
 10
4.326080
 20
4.264920
  0
VERTEX
  8
0
  6
CONTINUOUS
 10
4.303200
 20
4.291320
  0
SEQEND
  8
0
  0
SOLID
  8
0
 62
    15
 10
4.326080
 20
4.264920
 11
4.318600
 21
5.014680
 12
4.340600
 22
4.256560
 13
4.333560
 23
5.006320
  0
POLYLINE
  8
0
  6
CONTINUOUS
 66
     1
 40
0.000000
 41
0.000000
  0
VERTEX
  8
0
  6
CONTINUOUS
 10
4.326080
 20
4.264920
  0
VERTEX
  8
0
  6
CONTINUOUS
 10
4.318600
 20
5.014680
  0
VERTEX
  8
0
  6
CONTINUOUS
 10
4.333560
 20
5.006320
  0
VERTEX
  8
0
  6
CONTINUOUS
 10
4.340600
 20
4.256560
  0
VERTEX
  8
0
  6
CONTINUOUS
 10
4.326080
 20
4.264920
  0
SEQEND
  8
0
  0
SOLID
  8
0
 62
    15
 10
4.340600
 20
4.256560
 11
4.333560
 21
5.006320
 12
4.357320
 22
4.253480
 13
4.349840
 23
5.003240
  0
POLYLINE
  8
0
  6
CONTINUOUS
 66
     1
 40
0.000000
 41
0.000000
  0
VERTEX
  8
0
  6
CONTINUOUS
 10
4.340600
 20
4.256560
  0
VERTEX
  8
0
  6
CONTINUOUS
 10
4.333560
 20
5.006320
  0
VERTEX
  8
0
  6
CONTINUOUS
 10
4.349840
 20
5.003240
  0
VERTEX
  8
0
  6
CONTINUOUS
 10
4.357320
 20
4.253480
  0
VERTEX
  8
0
  6
CONTINUOUS
 10
4.340600
 20
4.256560
  0
SEQEND
  8
0
  0
SOLID
  8
0
 62
    15
 10
4.357320
 20
4.253480
 11
4.349840
 21
5.003240
 12
4.607240
 22
4.253480
 13
4.599760
 23
5.003240
  0
POLYLINE
  8
0
  6
CONTINUOUS
 66
     1
 40
0.000000
 41
0.000000
  0
VERTEX
  8
0
  6
CONTINUOUS
 10
4.357320
 20
4.253480
  0
VERTEX
  8
0
  6
CONTINUOUS
 10
4.349840
 20
5.003240
  0
VERTEX
  8
0
  6
CONTINUOUS
 10
4.599760
 20
5.003240
  0
VERTEX
  8
0
  6
CONTINUOUS
 10
4.607240
 20
4.253480
  0
VERTEX
  8
0
  6
CONTINUOUS
 10
4.357320
 20
4.253480
  0
SEQEND
  8
0
  0
SOLID
  8
0
 62
    15
 10
1.991440
 20
4.422880
 11
1.983960
 21
5.172640
 12
2.709520
 22
4.422880
 13
2.702040
 23
5.172640
  0
POLYLINE
  8
0
  6
CONTINUOUS
 66
     1
 40
0.000000
 41
0.000000
  0
VERTEX
  8
0
  6
CONTINUOUS
 10
1.991440
 20
4.422880
  0
VERTEX
  8
0
  6
CONTINUOUS
 10
1.983960
 20
5.172640
  0
VERTEX
  8
0
  6
CONTINUOUS
 10
2.702040
 20
5.172640
  0
VERTEX
  8
0
  6
CONTINUOUS
 10
2.709520
 20
4.422880
  0
VERTEX
  8
0
  6
CONTINUOUS
 10
1.991440
 20
4.422880
  0
SEQEND
  8
0
  0
SOLID
  8
0
 62
    15
 10
4.624400
 20
4.256560
 11
4.616920
 21
5.006320
 12
4.638920
 22
4.264920
 13
4.631440
 23
5.014680
  0
POLYLINE
  8
0
  6
CONTINUOUS
 66
     1
 40
0.000000
 41
0.000000
  0
VERTEX
  8
0
  6
CONTINUOUS
 10
4.624400
 20
4.256560
  0
VERTEX
  8
0
  6
CONTINUOUS
 10
4.616920
 20
5.006320
  0
VERTEX
  8
0
  6
CONTINUOUS
 10
4.631440
 20
5.014680
  0
VERTEX
  8
0
  6
CONTINUOUS
 10
4.638920
 20
4.264920
  0
VERTEX
  8
0
  6
CONTINUOUS
 10
4.624400
 20
4.256560
  0
SEQEND
  8
0
  0
SOLID
  8
0
 62
    15
 10
4.638920
 20
4.264920
 11
4.631440
 21
5.014680
 12
4.661800
 22
4.291760
 13
4.654320
 23
5.041520
  0
POLYLINE
  8
0
  6
CONTINUOUS
 66
     1
 40
0.000000
 41
0.000000
  0
VERTEX
  8
0
  6
CONTINUOUS
 10
4.638920
 20
4.264920
  0
VERTEX
  8
0
  6
CONTINUOUS
 10
4.631440
 20
5.014680
  0
VERTEX
  8
0
  6
CONTINUOUS
 10
4.654320
 20
5.041520
  0
VERTEX
  8
0
  6
CONTINUOUS
 10
4.661800
 20
4.291760
  0
VERTEX
  8
0
  6
CONTINUOUS
 10
4.638920
 20
4.264920
  0
SEQEND
  8
0
  0
SOLID
  8
0
 62
    15
 10
4.661800
 20
4.291760
 11
4.654320
 21
5.041520
 12
4.676320
 22
4.322120
 13
4.668840
 23
5.071880
  0
POLYLINE
  8
0
  6
CONTINUOUS
 66
     1
 40
0.000000
 41
0.000000
  0
VERTEX
  8
0
  6
CONTINUOUS
 10
4.661800
 20
4.291760
  0
VERTEX
  8
0
  6
CONTINUOUS
 10
4.654320
 20
5.041520
  0
VERTEX
  8
0
  6
CONTINUOUS
 10
4.668840
 20
5.071880
  0
VERTEX
  8
0
  6
CONTINUOUS
 10
4.676320
 20
4.322120
  0
VERTEX
  8
0
  6
CONTINUOUS
 10
4.661800
 20
4.291760
  0
SEQEND
  8
0
  0
SOLID
  8
0
 62
    15
 10
4.676320
 20
4.322120
 11
4.668840
 21
5.071880
 12
4.679840
 22
4.335320
 13
4.672360
 23
5.085080
  0
POLYLINE
  8
0
  6
CONTINUOUS
 66
     1
 40
0.000000
 41
0.000000
  0
VERTEX
  8
0
  6
CONTINUOUS
 10
4.676320
 20
4.322120
  0
VERTEX
  8
0
  6
CONTINUOUS
 10
4.668840
 20
5.071880
  0
VERTEX
  8
0
  6
CONTINUOUS
 10
4.672360
 20
5.085080
  0
VERTEX
  8
0
  6
CONTINUOUS
 10
4.679840
 20
4.335320
  0
VERTEX
  8
0
  6
CONTINUOUS
 10
4.676320
 20
4.322120
  0
SEQEND
  8
0
  0
SOLID
  8
0
 62
    15
 10
4.679840
 20
4.335320
 11
4.672360
 21
5.085080
 12
4.681160
 22
4.345440
 13
4.673680
 23
5.095200
  0
POLYLINE
  8
0
  6
CONTINUOUS
 66
     1
 40
0.000000
 41
0.000000
  0
VERTEX
  8
0
  6
CONTINUOUS
 10
4.679840
 20
4.335320
  0
VERTEX
  8
0
  6
CONTINUOUS
 10
4.672360
 20
5.085080
  0
VERTEX
  8
0
  6
CONTINUOUS
 10
4.673680
 20
5.095200
  0
VERTEX
  8
0
  6
CONTINUOUS
 10
4.681160
 20
4.345440
  0
VERTEX
  8
0
  6
CONTINUOUS
 10
4.679840
 20
4.335320
  0
SEQEND
  8
0
  0
SOLID
  8
0
 62
    15
 10
4.681160
 20
4.345440
 11
4.673680
 21
5.095200
 12
4.681600
 22
4.345880
 13
4.674120
 23
5.095640
  0
POLYLINE
  8
0
  6
CONTINUOUS
 66
     1
 40
0.000000
 41
0.000000
  0
VERTEX
  8
0
  6
CONTINUOUS
 10
4.681160
 20
4.345440
  0
VERTEX
  8
0
  6
CONTINUOUS
 10
4.673680
 20
5.095200
  0
VERTEX
  8
0
  6
CONTINUOUS
 10
4.674120
 20
5.095640
  0
VERTEX
  8
0
  6
CONTINUOUS
 10
4.681600
 20
4.345880
  0
VERTEX
  8
0
  6
CONTINUOUS
 10
4.681160
 20
4.345440
  0
SEQEND
  8
0
  0
SOLID
  8
0
 62
    15
 10
4.681600
 20
4.345880
 11
4.674120
 21
5.095640
 12
4.819320
 22
4.345880
 13
4.811840
 23
5.095640
  0
POLYLINE
  8
0
  6
CONTINUOUS
 66
     1
 40
0.000000
 41
0.000000
  0
VERTEX
  8
0
  6
CONTINUOUS
 10
4.681600
 20
4.345880
  0
VERTEX
  8
0
  6
CONTINUOUS
 10
4.674120
 20
5.095640
  0
VERTEX
  8
0
  6
CONTINUOUS
 10
4.811840
 20
5.095640
  0
VERTEX
  8
0
  6
CONTINUOUS
 10
4.819320
 20
4.345880
  0
VERTEX
  8
0
  6
CONTINUOUS
 10
4.681600
 20
4.345880
  0
SEQEND
  8
0
  0
SOLID
  8
0
 62
    15
 10
4.819320
 20
4.345880
 11
4.811840
 21
5.095640
 12
4.820640
 22
4.335760
 13
4.813160
 23
5.085520
  0
POLYLINE
  8
0
  6
CONTINUOUS
 66
     1
 40
0.000000
 41
0.000000
  0
VERTEX
  8
0
  6
CONTINUOUS
 10
4.819320
 20
4.345880
  0
VERTEX
  8
0
  6
CONTINUOUS
 10
4.811840
 20
5.095640
  0
VERTEX
  8
0
  6
CONTINUOUS
 10
4.813160
 20
5.085520
  0
VERTEX
  8
0
  6
CONTINUOUS
 10
4.820640
 20
4.335760
  0
VERTEX
  8
0
  6
CONTINUOUS
 10
4.819320
 20
4.345880
  0
SEQEND
  8
0
  0
SOLID
  8
0
 62
    15
 10
4.820640
 20
4.335760
 11
4.813160
 21
5.085520
 12
4.824160
 22
4.322560
 13
4.816680
 23
5.072320
  0
POLYLINE
  8
0
  6
CONTINUOUS
 66
     1
 40
0.000000
 41
0.000000
  0
VERTEX
  8
0
  6
CONTINUOUS
 10
4.820640
 20
4.335760
  0
VERTEX
  8
0
  6
CONTINUOUS
 10
4.813160
 20
5.085520
  0
VERTEX
  8
0
  6
CONTINUOUS
 10
4.816680
 20
5.072320
  0
VERTEX
  8
0
  6
CONTINUOUS
 10
4.824160
 20
4.322560
  0
VERTEX
  8
0
  6
CONTINUOUS
 10
4.820640
 20
4.335760
  0
SEQEND
  8
0
  0
SOLID
  8
0
 62
    15
 10
4.824160
 20
4.322560
 11
4.816680
 21
5.072320
 12
4.838680
 22
4.291760
 13
4.831200
 23
5.041520
  0
POLYLINE
  8
0
  6
CONTINUOUS
 66
     1
 40
0.000000
 41
0.000000
  0
VERTEX
  8
0
  6
CONTINUOUS
 10
4.824160
 20
4.322560
  0
VERTEX
  8
0
  6
CONTINUOUS
 10
4.816680
 20
5.072320
  0
VERTEX
  8
0
  6
CONTINUOUS
 10
4.831200
 20
5.041520
  0
VERTEX
  8
0
  6
CONTINUOUS
 10
4.838680
 20
4.291760
  0
VERTEX
  8
0
  6
CONTINUOUS
 10
4.824160
 20
4.322560
  0
SEQEND
  8
0
  0
SOLID
  8
0
 62
    15
 10
4.838680
 20
4.291760
 11
4.831200
 21
5.041520
 12
4.861560
 22
4.264920
 13
4.854080
 23
5.014680
  0
POLYLINE
  8
0
  6
CONTINUOUS
 66
     1
 40
0.000000
 41
0.000000
  0
VERTEX
  8
0
  6
CONTINUOUS
 10
4.838680
 20
4.291760
  0
VERTEX
  8
0
  6
CONTINUOUS
 10
4.831200
 20
5.041520
  0
VERTEX
  8
0
  6
CONTINUOUS
 10
4.854080
 20
5.014680
  0
VERTEX
  8
0
  6
CONTINUOUS
 10
4.861560
 20
4.264920
  0
VERTEX
  8
0
  6
CONTINUOUS
 10
4.838680
 20
4.291760
  0
SEQEND
  8
0
  0
SOLID
  8
0
 62
    15
 10
4.861560
 20
4.264920
 11
4.854080
 21
5.014680
 12
4.876080
 22
4.256560
 13
4.868600
 23
5.006320
  0
POLYLINE
  8
0
  6
CONTINUOUS
 66
     1
 40
0.000000
 41
0.000000
  0
VERTEX
  8
0
  6
CONTINUOUS
 10
4.861560
 20
4.264920
  0
VERTEX
  8
0
  6
CONTINUOUS
 10
4.854080
 20
5.014680
  0
VERTEX
  8
0
  6
CONTINUOUS
 10
4.868600
 20
5.006320
  0
VERTEX
  8
0
  6
CONTINUOUS
 10
4.876080
 20
4.256560
  0
VERTEX
  8
0
  6
CONTINUOUS
 10
4.861560
 20
4.264920
  0
SEQEND
  8
0
  0
SOLID
  8
0
 62
    15
 10
4.876080
 20
4.256560
 11
4.868600
 21
5.006320
 12
4.892360
 22
4.253480
 13
4.884880
 23
5.003240
  0
POLYLINE
  8
0
  6
CONTINUOUS
 66
     1
 40
0.000000
 41
0.000000
  0
VERTEX
  8
0
  6
CONTINUOUS
 10
4.876080
 20
4.256560
  0
VERTEX
  8
0
  6
CONTINUOUS
 10
4.868600
 20
5.006320
  0
VERTEX
  8
0
  6
CONTINUOUS
 10
4.884880
 20
5.003240
  0
VERTEX
  8
0
  6
CONTINUOUS
 10
4.892360
 20
4.253480
  0
VERTEX
  8
0
  6
CONTINUOUS
 10
4.876080
 20
4.256560
  0
SEQEND
  8
0
  0
SOLID
  8
0
 62
    15
 10
4.892360
 20
4.253480
 11
4.884880
 21
5.003240
 12
5.136120
 22
4.253480
 13
5.128640
 23
5.003240
  0
POLYLINE
  8
0
  6
CONTINUOUS
 66
     1
 40
0.000000
 41
0.000000
  0
VERTEX
  8
0
  6
CONTINUOUS
 10
4.892360
 20
4.253480
  0
VERTEX
  8
0
  6
CONTINUOUS
 10
4.884880
 20
5.003240
  0
VERTEX
  8
0
  6
CONTINUOUS
 10
5.128640
 20
5.003240
  0
VERTEX
  8
0
  6
CONTINUOUS
 10
5.136120
 20
4.253480
  0
VERTEX
  8
0
  6
CONTINUOUS
 10
4.892360
 20
4.253480
  0
SEQEND
  8
0
  0
SOLID
  8
0
 62
    15
 10
5.136120
 20
4.253480
 11
5.128640
 21
5.003240
 12
5.151960
 22
4.256560
 13
5.144480
 23
5.006320
  0
POLYLINE
  8
0
  6
CONTINUOUS
 66
     1
 40
0.000000
 41
0.000000
  0
VERTEX
  8
0
  6
CONTINUOUS
 10
5.136120
 20
4.253480
  0
VERTEX
  8
0
  6
CONTINUOUS
 10
5.128640
 20
5.003240
  0
VERTEX
  8
0
  6
CONTINUOUS
 10
5.144480
 20
5.006320
  0
VERTEX
  8
0
  6
CONTINUOUS
 10
5.151960
 20
4.256560
  0
VERTEX
  8
0
  6
CONTINUOUS
 10
5.136120
 20
4.253480
  0
SEQEND
  8
0
  0
SOLID
  8
0
 62
    15
 10
5.151960
 20
4.256560
 11
5.144480
 21
5.006320
 12
5.166040
 22
4.264480
 13
5.158560
 23
5.014240
  0
POLYLINE
  8
0
  6
CONTINUOUS
 66
     1
 40
0.000000
 41
0.000000
  0
VERTEX
  8
0
  6
CONTINUOUS
 10
5.151960
 20
4.256560
  0
VERTEX
  8
0
  6
CONTINUOUS
 10
5.144480
 20
5.006320
  0
VERTEX
  8
0
  6
CONTINUOUS
 10
5.158560
 20
5.014240
  0
VERTEX
  8
0
  6
CONTINUOUS
 10
5.166040
 20
4.264480
  0
VERTEX
  8
0
  6
CONTINUOUS
 10
5.151960
 20
4.256560
  0
SEQEND
  8
0
  0
SOLID
  8
0
 62
    15
 10
5.166040
 20
4.264480
 11
5.158560
 21
5.014240
 12
5.188920
 22
4.290000
 13
5.181880
 23
5.039760
  0
POLYLINE
  8
0
  6
CONTINUOUS
 66
     1
 40
0.000000
 41
0.000000
  0
VERTEX
  8
0
  6
CONTINUOUS
 10
5.166040
 20
4.264480
  0
VERTEX
  8
0
  6
CONTINUOUS
 10
5.158560
 20
5.014240
  0
VERTEX
  8
0
  6
CONTINUOUS
 10
5.181880
 20
5.039760
  0
VERTEX
  8
0
  6
CONTINUOUS
 10
5.188920
 20
4.290000
  0
VERTEX
  8
0
  6
CONTINUOUS
 10
5.166040
 20
4.264480
  0
SEQEND
  8
0
  0
SOLID
  8
0
 62
    15
 10
5.188920
 20
4.290000
 11
5.181880
 21
5.039760
 12
5.204320
 22
4.320360
 13
5.196840
 23
5.070120
  0
POLYLINE
  8
0
  6
CONTINUOUS
 66
     1
 40
0.000000
 41
0.000000
  0
VERTEX
  8
0
  6
CONTINUOUS
 10
5.188920
 20
4.290000
  0
VERTEX
  8
0
  6
CONTINUOUS
 10
5.181880
 20
5.039760
  0
VERTEX
  8
0
  6
CONTINUOUS
 10
5.196840
 20
5.070120
  0
VERTEX
  8
0
  6
CONTINUOUS
 10
5.204320
 20
4.320360
  0
VERTEX
  8
0
  6
CONTINUOUS
 10
5.188920
 20
4.290000
  0
SEQEND
  8
0
  0
SOLID
  8
0
 62
    15
 10
5.204320
 20
4.320360
 11
5.196840
 21
5.070120
 12
5.209600
 22
4.345880
 13
5.202120
 23
5.095640
  0
POLYLINE
  8
0
  6
CONTINUOUS
 66
     1
 40
0.000000
 41
0.000000
  0
VERTEX
  8
0
  6
CONTINUOUS
 10
5.204320
 20
4.320360
  0
VERTEX
  8
0
  6
CONTINUOUS
 10
5.196840
 20
5.070120
  0
VERTEX
  8
0
  6
CONTINUOUS
 10
5.202120
 20
5.095640
  0
VERTEX
  8
0
  6
CONTINUOUS
 10
5.209600
 20
4.345880
  0
VERTEX
  8
0
  6
CONTINUOUS
 10
5.204320
 20
4.320360
  0
SEQEND
  8
0
  0
SOLID
  8
0
 62
    15
 10
5.209600
 20
4.345880
 11
5.202120
 21
5.095640
 12
5.338960
 22
4.345880
 13
5.331480
 23
5.095640
  0
POLYLINE
  8
0
  6
CONTINUOUS
 66
     1
 40
0.000000
 41
0.000000
  0
VERTEX
  8
0
  6
CONTINUOUS
 10
5.209600
 20
4.345880
  0
VERTEX
  8
0
  6
CONTINUOUS
 10
5.202120
 20
5.095640
  0
VERTEX
  8
0
  6
CONTINUOUS
 10
5.331480
 20
5.095640
  0
VERTEX
  8
0
  6
CONTINUOUS
 10
5.338960
 20
4.345880
  0
VERTEX
  8
0
  6
CONTINUOUS
 10
5.209600
 20
4.345880
  0
SEQEND
  8
0
  0
SOLID
  8
0
 62
    15
 10
5.338960
 20
4.345880
 11
5.331480
 21
5.095640
 12
5.348640
 22
4.340160
 13
5.341160
 23
5.089920
  0
POLYLINE
  8
0
  6
CONTINUOUS
 66
     1
 40
0.000000
 41
0.000000
  0
VERTEX
  8
0
  6
CONTINUOUS
 10
5.338960
 20
4.345880
  0
VERTEX
  8
0
  6
CONTINUOUS
 10
5.331480
 20
5.095640
  0
VERTEX
  8
0
  6
CONTINUOUS
 10
5.341160
 20
5.089920
  0
VERTEX
  8
0
  6
CONTINUOUS
 10
5.348640
 20
4.340160
  0
VERTEX
  8
0
  6
CONTINUOUS
 10
5.338960
 20
4.345880
  0
SEQEND
  8
0
  0
SOLID
  8
0
 62
    15
 10
5.348640
 20
4.340160
 11
5.341160
 21
5.089920
 12
5.362280
 22
4.326960
 13
5.354800
 23
5.076720
  0
POLYLINE
  8
0
  6
CONTINUOUS
 66
     1
 40
0.000000
 41
0.000000
  0
VERTEX
  8
0
  6
CONTINUOUS
 10
5.348640
 20
4.340160
  0
VERTEX
  8
0
  6
CONTINUOUS
 10
5.341160
 20
5.089920
  0
VERTEX
  8
0
  6
CONTINUOUS
 10
5.354800
 20
5.076720
  0
VERTEX
  8
0
  6
CONTINUOUS
 10
5.362280
 20
4.326960
  0
VERTEX
  8
0
  6
CONTINUOUS
 10
5.348640
 20
4.340160
  0
SEQEND
  8
0
  0
SOLID
  8
0
 62
    15
 10
5.362280
 20
4.326960
 11
5.354800
 21
5.076720
 12
5.389120
 22
4.291320
 13
5.381640
 23
5.041080
  0
POLYLINE
  8
0
  6
CONTINUOUS
 66
     1
 40
0.000000
 41
0.000000
  0
VERTEX
  8
0
  6
CONTINUOUS
 10
5.362280
 20
4.326960
  0
VERTEX
  8
0
  6
CONTINUOUS
 10
5.354800
 20
5.076720
  0
VERTEX
  8
0
  6
CONTINUOUS
 10
5.381640
 20
5.041080
  0
VERTEX
  8
0
  6
CONTINUOUS
 10
5.389120
 20
4.291320
  0
VERTEX
  8
0
  6
CONTINUOUS
 10
5.362280
 20
4.326960
  0
SEQEND
  8
0
  0
SOLID
  8
0
 62
    15
 10
5.389120
 20
4.291320
 11
5.381640
 21
5.041080
 12
5.419920
 22
4.288680
 13
5.412440
 23
5.038440
  0
POLYLINE
  8
0
  6
CONTINUOUS
 66
     1
 40
0.000000
 41
0.000000
  0
VERTEX
  8
0
  6
CONTINUOUS
 10
5.389120
 20
4.291320
  0
VERTEX
  8
0
  6
CONTINUOUS
 10
5.381640
 20
5.041080
  0
VERTEX
  8
0
  6
CONTINUOUS
 10
5.412440
 20
5.038440
  0
VERTEX
  8
0
  6
CONTINUOUS
 10
5.419920
 20
4.288680
  0
VERTEX
  8
0
  6
CONTINUOUS
 10
5.389120
 20
4.291320
  0
SEQEND
  8
0
  0
SOLID
  8
0
 62
    15
 10
5.419920
 20
4.288680
 11
5.412440
 21
5.038440
 12
5.448960
 22
4.281200
 13
5.441480
 23
5.030960
  0
POLYLINE
  8
0
  6
CONTINUOUS
 66
     1
 40
0.000000
 41
0.000000
  0
VERTEX
  8
0
  6
CONTINUOUS
 10
5.419920
 20
4.288680
  0
VERTEX
  8
0
  6
CONTINUOUS
 10
5.412440
 20
5.038440
  0
VERTEX
  8
0
  6
CONTINUOUS
 10
5.441480
 20
5.030960
  0
VERTEX
  8
0
  6
CONTINUOUS
 10
5.448960
 20
4.281200
  0
VERTEX
  8
0
  6
CONTINUOUS
 10
5.419920
 20
4.288680
  0
SEQEND
  8
0
  0
SOLID
  8
0
 62
    15
 10
5.448960
 20
4.281200
 11
5.441480
 21
5.030960
 12
5.474920
 22
4.269320
 13
5.467440
 23
5.019080
  0
POLYLINE
  8
0
  6
CONTINUOUS
 66
     1
 40
0.000000
 41
0.000000
  0
VERTEX
  8
0
  6
CONTINUOUS
 10
5.448960
 20
4.281200
  0
VERTEX
  8
0
  6
CONTINUOUS
 10
5.441480
 20
5.030960
  0
VERTEX
  8
0
  6
CONTINUOUS
 10
5.467440
 20
5.019080
  0
VERTEX
  8
0
  6
CONTINUOUS
 10
5.474920
 20
4.269320
  0
VERTEX
  8
0
  6
CONTINUOUS
 10
5.448960
 20
4.281200
  0
SEQEND
  8
0
  0
SOLID
  8
0
 62
    15
 10
5.474920
 20
4.269320
 11
5.467440
 21
5.019080
 12
5.498240
 22
4.254360
 13
5.490760
 23
5.004120
  0
POLYLINE
  8
0
  6
CONTINUOUS
 66
     1
 40
0.000000
 41
0.000000
  0
VERTEX
  8
0
  6
CONTINUOUS
 10
5.474920
 20
4.269320
  0
VERTEX
  8
0
  6
CONTINUOUS
 10
5.467440
 20
5.019080
  0
VERTEX
  8
0
  6
CONTINUOUS
 10
5.490760
 20
5.004120
  0
VERTEX
  8
0
  6
CONTINUOUS
 10
5.498240
 20
4.254360
  0
VERTEX
  8
0
  6
CONTINUOUS
 10
5.474920
 20
4.269320
  0
SEQEND
  8
0
  0
SOLID
  8
0
 62
    15
 10
5.498240
 20
4.254360
 11
5.490760
 21
5.004120
 12
5.517600
 22
4.236760
 13
5.510120
 23
4.986520
  0
POLYLINE
  8
0
  6
CONTINUOUS
 66
     1
 40
0.000000
 41
0.000000
  0
VERTEX
  8
0
  6
CONTINUOUS
 10
5.498240
 20
4.254360
  0
VERTEX
  8
0
  6
CONTINUOUS
 10
5.490760
 20
5.004120
  0
VERTEX
  8
0
  6
CONTINUOUS
 10
5.510120
 20
4.986520
  0
VERTEX
  8
0
  6
CONTINUOUS
 10
5.517600
 20
4.236760
  0
VERTEX
  8
0
  6
CONTINUOUS
 10
5.498240
 20
4.254360
  0
SEQEND
  8
0
  0
SOLID
  8
0
 62
    15
 10
5.517600
 20
4.236760
 11
5.510120
 21
4.986520
 12
5.533440
 22
4.217400
 13
5.525960
 23
4.967160
  0
POLYLINE
  8
0
  6
CONTINUOUS
 66
     1
 40
0.000000
 41
0.000000
  0
VERTEX
  8
0
  6
CONTINUOUS
 10
5.517600
 20
4.236760
  0
VERTEX
  8
0
  6
CONTINUOUS
 10
5.510120
 20
4.986520
  0
VERTEX
  8
0
  6
CONTINUOUS
 10
5.525960
 20
4.967160
  0
VERTEX
  8
0
  6
CONTINUOUS
 10
5.533440
 20
4.217400
  0
VERTEX
  8
0
  6
CONTINUOUS
 10
5.517600
 20
4.236760
  0
SEQEND
  8
0
  0
SOLID
  8
0
 62
    15
 10
5.533440
 20
4.217400
 11
5.525960
 21
4.967160
 12
5.544880
 22
4.197600
 13
5.537400
 23
4.947360
  0
POLYLINE
  8
0
  6
CONTINUOUS
 66
     1
 40
0.000000
 41
0.000000
  0
VERTEX
  8
0
  6
CONTINUOUS
 10
5.533440
 20
4.217400
  0
VERTEX
  8
0
  6
CONTINUOUS
 10
5.525960
 20
4.967160
  0
VERTEX
  8
0
  6
CONTINUOUS
 10
5.537400
 20
4.947360
  0
VERTEX
  8
0
  6
CONTINUOUS
 10
5.544880
 20
4.197600
  0
VERTEX
  8
0
  6
CONTINUOUS
 10
5.533440
 20
4.217400
  0
SEQEND
  8
0
  0
SOLID
  8
0
 62
    15
 10
5.544880
 20
4.197600
 11
5.537400
 21
4.947360
 12
5.551480
 22
4.177800
 13
5.544000
 23
4.927560
  0
POLYLINE
  8
0
  6
CONTINUOUS
 66
     1
 40
0.000000
 41
0.000000
  0
VERTEX
  8
0
  6
CONTINUOUS
 10
5.544880
 20
4.197600
  0
VERTEX
  8
0
  6
CONTINUOUS
 10
5.537400
 20
4.947360
  0
VERTEX
  8
0
  6
CONTINUOUS
 10
5.544000
 20
4.927560
  0
VERTEX
  8
0
  6
CONTINUOUS
 10
5.551480
 20
4.177800
  0
VERTEX
  8
0
  6
CONTINUOUS
 10
5.544880
 20
4.197600
  0
SEQEND
  8
0
  0
SOLID
  8
0
 62
    15
 10
5.551480
 20
4.177800
 11
5.544000
 21
4.927560
 12
5.589320
 22
4.177800
 13
5.581840
 23
4.927560
  0
POLYLINE
  8
0
  6
CONTINUOUS
 66
     1
 40
0.000000
 41
0.000000
  0
VERTEX
  8
0
  6
CONTINUOUS
 10
5.551480
 20
4.177800
  0
VERTEX
  8
0
  6
CONTINUOUS
 10
5.544000
 20
4.927560
  0
VERTEX
  8
0
  6
CONTINUOUS
 10
5.581840
 20
4.927560
  0
VERTEX
  8
0
  6
CONTINUOUS
 10
5.589320
 20
4.177800
  0
VERTEX
  8
0
  6
CONTINUOUS
 10
5.551480
 20
4.177800
  0
SEQEND
  8
0
  0
SOLID
  8
0
 62
    15
 10
5.589320
 20
4.177800
 11
5.581840
 21
4.927560
 12
5.607800
 22
4.219600
 13
5.600320
 23
4.969360
  0
POLYLINE
  8
0
  6
CONTINUOUS
 66
     1
 40
0.000000
 41
0.000000
  0
VERTEX
  8
0
  6
CONTINUOUS
 10
5.589320
 20
4.177800
  0
VERTEX
  8
0
  6
CONTINUOUS
 10
5.581840
 20
4.927560
  0
VERTEX
  8
0
  6
CONTINUOUS
 10
5.600320
 20
4.969360
  0
VERTEX
  8
0
  6
CONTINUOUS
 10
5.607800
 20
4.219600
  0
VERTEX
  8
0
  6
CONTINUOUS
 10
5.589320
 20
4.177800
  0
SEQEND
  8
0
  0
SOLID
  8
0
 62
    15
 10
5.607800
 20
4.219600
 11
5.600320
 21
4.969360
 12
5.634640
 22
4.252600
 13
5.627160
 23
5.002360
  0
POLYLINE
  8
0
  6
CONTINUOUS
 66
     1
 40
0.000000
 41
0.000000
  0
VERTEX
  8
0
  6
CONTINUOUS
 10
5.607800
 20
4.219600
  0
VERTEX
  8
0
  6
CONTINUOUS
 10
5.600320
 20
4.969360
  0
VERTEX
  8
0
  6
CONTINUOUS
 10
5.627160
 20
5.002360
  0
VERTEX
  8
0
  6
CONTINUOUS
 10
5.634640
 20
4.252600
  0
VERTEX
  8
0
  6
CONTINUOUS
 10
5.607800
 20
4.219600
  0
SEQEND
  8
0
  0
SOLID
  8
0
 62
    15
 10
5.634640
 20
4.252600
 11
5.627160
 21
5.002360
 12
5.666320
 22
4.274160
 13
5.658840
 23
5.023920
  0
POLYLINE
  8
0
  6
CONTINUOUS
 66
     1
 40
0.000000
 41
0.000000
  0
VERTEX
  8
0
  6
CONTINUOUS
 10
5.634640
 20
4.252600
  0
VERTEX
  8
0
  6
CONTINUOUS
 10
5.627160
 20
5.002360
  0
VERTEX
  8
0
  6
CONTINUOUS
 10
5.658840
 20
5.023920
  0
VERTEX
  8
0
  6
CONTINUOUS
 10
5.666320
 20
4.274160
  0
VERTEX
  8
0
  6
CONTINUOUS
 10
5.634640
 20
4.252600
  0
SEQEND
  8
0
  0
SOLID
  8
0
 62
    15
 10
5.666320
 20
4.274160
 11
5.658840
 21
5.023920
 12
5.682160
 22
4.279880
 13
5.674680
 23
5.029640
  0
POLYLINE
  8
0
  6
CONTINUOUS
 66
     1
 40
0.000000
 41
0.000000
  0
VERTEX
  8
0
  6
CONTINUOUS
 10
5.666320
 20
4.274160
  0
VERTEX
  8
0
  6
CONTINUOUS
 10
5.658840
 20
5.023920
  0
VERTEX
  8
0
  6
CONTINUOUS
 10
5.674680
 20
5.029640
  0
VERTEX
  8
0
  6
CONTINUOUS
 10
5.682160
 20
4.279880
  0
VERTEX
  8
0
  6
CONTINUOUS
 10
5.666320
 20
4.274160
  0
SEQEND
  8
0
  0
SOLID
  8
0
 62
    15
 10
5.682160
 20
4.279880
 11
5.674680
 21
5.029640
 12
5.697560
 22
4.281640
 13
5.690080
 23
5.031400
  0
POLYLINE
  8
0
  6
CONTINUOUS
 66
     1
 40
0.000000
 41
0.000000
  0
VERTEX
  8
0
  6
CONTINUOUS
 10
5.682160
 20
4.279880
  0
VERTEX
  8
0
  6
CONTINUOUS
 10
5.674680
 20
5.029640
  0
VERTEX
  8
0
  6
CONTINUOUS
 10
5.690080
 20
5.031400
  0
VERTEX
  8
0
  6
CONTINUOUS
 10
5.697560
 20
4.281640
  0
VERTEX
  8
0
  6
CONTINUOUS
 10
5.682160
 20
4.279880
  0
SEQEND
  8
0
  0
SOLID
  8
0
 62
    15
 10
5.697560
 20
4.281640
 11
5.690080
 21
5.031400
 12
5.821640
 22
4.281640
 13
5.814160
 23
5.031400
  0
POLYLINE
  8
0
  6
CONTINUOUS
 66
     1
 40
0.000000
 41
0.000000
  0
VERTEX
  8
0
  6
CONTINUOUS
 10
5.697560
 20
4.281640
  0
VERTEX
  8
0
  6
CONTINUOUS
 10
5.690080
 20
5.031400
  0
VERTEX
  8
0
  6
CONTINUOUS
 10
5.814160
 20
5.031400
  0
VERTEX
  8
0
  6
CONTINUOUS
 10
5.821640
 20
4.281640
  0
VERTEX
  8
0
  6
CONTINUOUS
 10
5.697560
 20
4.281640
  0
SEQEND
  8
0
  0
SOLID
  8
0
 62
    15
 10
5.821640
 20
4.281640
 11
5.814160
 21
5.031400
 12
5.821640
 22
4.345000
 13
5.814160
 23
5.094760
  0
POLYLINE
  8
0
  6
CONTINUOUS
 66
     1
 40
0.000000
 41
0.000000
  0
VERTEX
  8
0
  6
CONTINUOUS
 10
5.821640
 20
4.281640
  0
VERTEX
  8
0
  6
CONTINUOUS
 10
5.814160
 20
5.031400
  0
VERTEX
  8
0
  6
CONTINUOUS
 10
5.814160
 20
5.094760
  0
VERTEX
  8
0
  6
CONTINUOUS
 10
5.821640
 20
4.345000
  0
VERTEX
  8
0
  6
CONTINUOUS
 10
5.821640
 20
4.281640
  0
SEQEND
  8
0
  0
SOLID
  8
0
 62
    15
 10
5.821640
 20
4.345000
 11
5.814160
 21
5.094760
 12
6.255480
 22
4.345000
 13
6.248440
 23
5.094760
  0
POLYLINE
  8
0
  6
CONTINUOUS
 66
     1
 40
0.000000
 41
0.000000
  0
VERTEX
  8
0
  6
CONTINUOUS
 10
5.821640
 20
4.345000
  0
VERTEX
  8
0
  6
CONTINUOUS
 10
5.814160
 20
5.094760
  0
VERTEX
  8
0
  6
CONTINUOUS
 10
6.248440
 20
5.094760
  0
VERTEX
  8
0
  6
CONTINUOUS
 10
6.255480
 20
4.345000
  0
VERTEX
  8
0
  6
CONTINUOUS
 10
5.821640
 20
4.345000
  0
SEQEND
  8
0
  0
SOLID
  8
0
 62
    15
 10
6.255480
 20
4.345000
 11
6.248440
 21
5.094760
 12
6.255480
 22
4.422880
 13
6.248440
 23
5.172640
  0
POLYLINE
  8
0
  6
CONTINUOUS
 66
     1
 40
0.000000
 41
0.000000
  0
VERTEX
  8
0
  6
CONTINUOUS
 10
6.255480
 20
4.345000
  0
VERTEX
  8
0
  6
CONTINUOUS
 10
6.248440
 20
5.094760
  0
VERTEX
  8
0
  6
CONTINUOUS
 10
6.248440
 20
5.172640
  0
VERTEX
  8
0
  6
CONTINUOUS
 10
6.255480
 20
4.422880
  0
VERTEX
  8
0
  6
CONTINUOUS
 10
6.255480
 20
4.345000
  0
SEQEND
  8
0
  0
SOLID
  8
0
 62
    15
 10
6.255480
 20
4.422880
 11
6.248440
 21
5.172640
 12
6.973560
 22
4.422880
 13
6.966520
 23
5.172640
  0
POLYLINE
  8
0
  6
CONTINUOUS
 66
     1
 40
0.000000
 41
0.000000
  0
VERTEX
  8
0
  6
CONTINUOUS
 10
6.255480
 20
4.422880
  0
VERTEX
  8
0
  6
CONTINUOUS
 10
6.248440
 20
5.172640
  0
VERTEX
  8
0
  6
CONTINUOUS
 10
6.966520
 20
5.172640
  0
VERTEX
  8
0
  6
CONTINUOUS
 10
6.973560
 20
4.422880
  0
VERTEX
  8
0
  6
CONTINUOUS
 10
6.255480
 20
4.422880
  0
SEQEND
  8
0
  0
SOLID
  8
0
 62
    15
 10
6.973560
 20
4.422880
 11
6.966520
 21
5.172640
 12
6.974880
 22
4.422440
 13
6.967400
 23
5.172200
  0
POLYLINE
  8
0
  6
CONTINUOUS
 66
     1
 40
0.000000
 41
0.000000
  0
VERTEX
  8
0
  6
CONTINUOUS
 10
6.973560
 20
4.422880
  0
VERTEX
  8
0
  6
CONTINUOUS
 10
6.966520
 20
5.172640
  0
VERTEX
  8
0
  6
CONTINUOUS
 10
6.967400
 20
5.172200
  0
VERTEX
  8
0
  6
CONTINUOUS
 10
6.974880
 20
4.422440
  0
VERTEX
  8
0
  6
CONTINUOUS
 10
6.973560
 20
4.422880
  0
SEQEND
  8
0
  0
POLYLINE
  8
0
  6
CONTINUOUS
 66
     1
 40
0.000000
 41
0.000000
  0
VERTEX
  8
0
  6
CONTINUOUS
 10
6.974880
 20
4.422440
  0
VERTEX
  8
0
  6
CONTINUOUS
 10
6.974880
 20
3.608880
  0
VERTEX
  8
0
  6
CONTINUOUS
 10
1.991440
 20
3.608880
  0
VERTEX
  8
0
  6
CONTINUOUS
 10
1.991440
 20
4.422880
  0
VERTEX
  8
0
  6
CONTINUOUS
 10
2.709520
 20
4.422880
  0
VERTEX
  8
0
  6
CONTINUOUS
 10
2.709520
 20
4.344560
  0
VERTEX
  8
0
  6
CONTINUOUS
 10
3.143360
 20
4.344560
  0
VERTEX
  8
0
  6
CONTINUOUS
 10
3.143360
 20
4.281640
  0
VERTEX
  8
0
  6
CONTINUOUS
 10
3.267880
 20
4.281640
  0
VERTEX
  8
0
  6
CONTINUOUS
 10
3.282840
 20
4.279440
  0
VERTEX
  8
0
  6
CONTINUOUS
 10
3.299120
 20
4.273720
  0
VERTEX
  8
0
  6
CONTINUOUS
 10
3.330360
 20
4.252160
  0
VERTEX
  8
0
  6
CONTINUOUS
 10
3.357640
 20
4.219600
  0
VERTEX
  8
0
  6
CONTINUOUS
 10
3.375680
 20
4.177800
  0
VERTEX
  8
0
  6
CONTINUOUS
 10
3.413520
 20
4.177800
  0
VERTEX
  8
0
  6
CONTINUOUS
 10
3.420120
 20
4.197600
  0
VERTEX
  8
0
  6
CONTINUOUS
 10
3.431560
 20
4.217400
  0
VERTEX
  8
0
  6
CONTINUOUS
 10
3.447400
 20
4.236320
  0
VERTEX
  8
0
  6
CONTINUOUS
 10
3.467200
 20
4.253920
  0
VERTEX
  8
0
  6
CONTINUOUS
 10
3.490080
 20
4.269320
  0
VERTEX
  8
0
  6
CONTINUOUS
 10
3.516480
 20
4.280760
  0
VERTEX
  8
0
  6
CONTINUOUS
 10
3.545080
 20
4.288680
  0
VERTEX
  8
0
  6
CONTINUOUS
 10
3.576320
 20
4.291320
  0
VERTEX
  8
0
  6
CONTINUOUS
 10
3.602720
 20
4.326520
  0
VERTEX
  8
0
  6
CONTINUOUS
 10
3.616800
 20
4.340160
  0
VERTEX
  8
0
  6
CONTINUOUS
 10
3.626040
 20
4.345880
  0
VERTEX
  8
0
  6
CONTINUOUS
 10
3.755400
 20
4.345880
  0
VERTEX
  8
0
  6
CONTINUOUS
 10
3.761120
 20
4.320360
  0
VERTEX
  8
0
  6
CONTINUOUS
 10
3.776080
 20
4.290000
  0
VERTEX
  8
0
  6
CONTINUOUS
 10
3.798960
 20
4.264040
  0
VERTEX
  8
0
  6
CONTINUOUS
 10
3.813480
 20
4.256560
  0
VERTEX
  8
0
  6
CONTINUOUS
 10
3.828880
 20
4.253480
  0
VERTEX
  8
0
  6
CONTINUOUS
 10
4.072200
 20
4.253480
  0
VERTEX
  8
0
  6
CONTINUOUS
 10
4.088920
 20
4.256560
  0
VERTEX
  8
0
  6
CONTINUOUS
 10
4.103880
 20
4.264920
  0
VERTEX
  8
0
  6
CONTINUOUS
 10
4.126760
 20
4.291760
  0
VERTEX
  8
0
  6
CONTINUOUS
 10
4.140840
 20
4.322120
  0
VERTEX
  8
0
  6
CONTINUOUS
 10
4.145680
 20
4.345440
  0
VERTEX
  8
0
  6
CONTINUOUS
 10
4.284280
 20
4.345440
  0
VERTEX
  8
0
  6
CONTINUOUS
 10
4.285160
 20
4.335320
  0
VERTEX
  8
0
  6
CONTINUOUS
 10
4.289120
 20
4.322120
  0
VERTEX
  8
0
  6
CONTINUOUS
 10
4.303200
 20
4.291320
  0
VERTEX
  8
0
  6
CONTINUOUS
 10
4.326080
 20
4.264920
  0
VERTEX
  8
0
  6
CONTINUOUS
 10
4.340600
 20
4.256560
  0
VERTEX
  8
0
  6
CONTINUOUS
 10
4.357320
 20
4.253480
  0
VERTEX
  8
0
  6
CONTINUOUS
 10
4.607240
 20
4.253480
  0
VERTEX
  8
0
  6
CONTINUOUS
 10
4.624400
 20
4.256560
  0
VERTEX
  8
0
  6
CONTINUOUS
 10
4.638920
 20
4.264920
  0
VERTEX
  8
0
  6
CONTINUOUS
 10
4.661800
 20
4.291760
  0
VERTEX
  8
0
  6
CONTINUOUS
 10
4.676320
 20
4.322120
  0
VERTEX
  8
0
  6
CONTINUOUS
 10
4.681600
 20
4.345880
  0
VERTEX
  8
0
  6
CONTINUOUS
 10
4.819320
 20
4.345880
  0
VERTEX
  8
0
  6
CONTINUOUS
 10
4.824160
 20
4.322560
  0
VERTEX
  8
0
  6
CONTINUOUS
 10
4.838680
 20
4.291760
  0
VERTEX
  8
0
  6
CONTINUOUS
 10
4.861560
 20
4.264920
  0
VERTEX
  8
0
  6
CONTINUOUS
 10
4.876080
 20
4.256560
  0
VERTEX
  8
0
  6
CONTINUOUS
 10
4.892360
 20
4.253480
  0
VERTEX
  8
0
  6
CONTINUOUS
 10
5.136120
 20
4.253480
  0
VERTEX
  8
0
  6
CONTINUOUS
 10
5.151960
 20
4.256560
  0
VERTEX
  8
0
  6
CONTINUOUS
 10
5.166040
 20
4.264480
  0
VERTEX
  8
0
  6
CONTINUOUS
 10
5.188920
 20
4.290000
  0
VERTEX
  8
0
  6
CONTINUOUS
 10
5.204320
 20
4.320360
  0
VERTEX
  8
0
  6
CONTINUOUS
 10
5.209600
 20
4.345880
  0
VERTEX
  8
0
  6
CONTINUOUS
 10
5.338960
 20
4.345880
  0
VERTEX
  8
0
  6
CONTINUOUS
 10
5.348640
 20
4.340160
  0
VERTEX
  8
0
  6
CONTINUOUS
 10
5.362280
 20
4.326960
  0
VERTEX
  8
0
  6
CONTINUOUS
 10
5.389120
 20
4.291320
  0
VERTEX
  8
0
  6
CONTINUOUS
 10
5.419920
 20
4.288680
  0
VERTEX
  8
0
  6
CONTINUOUS
 10
5.448960
 20
4.281200
  0
VERTEX
  8
0
  6
CONTINUOUS
 10
5.474920
 20
4.269320
  0
VERTEX
  8
0
  6
CONTINUOUS
 10
5.498240
 20
4.254360
  0
VERTEX
  8
0
  6
CONTINUOUS
 10
5.517600
 20
4.236760
  0
VERTEX
  8
0
  6
CONTINUOUS
 10
5.533440
 20
4.217400
  0
VERTEX
  8
0
  6
CONTINUOUS
 10
5.544880
 20
4.197600
  0
VERTEX
  8
0
  6
CONTINUOUS
 10
5.551480
 20
4.177800
  0
VERTEX
  8
0
  6
CONTINUOUS
 10
5.589320
 20
4.177800
  0
VERTEX
  8
0
  6
CONTINUOUS
 10
5.607800
 20
4.219600
  0
VERTEX
  8
0
  6
CONTINUOUS
 10
5.634640
 20
4.252600
  0
VERTEX
  8
0
  6
CONTINUOUS
 10
5.666320
 20
4.274160
  0
VERTEX
  8
0
  6
CONTINUOUS
 10
5.682160
 20
4.279880
  0
VERTEX
  8
0
  6
CONTINUOUS
 10
5.697560
 20
4.281640
  0
VERTEX
  8
0
  6
CONTINUOUS
 10
5.821640
 20
4.281640
  0
VERTEX
  8
0
  6
CONTINUOUS
 10
5.821640
 20
4.345000
  0
VERTEX
  8
0
  6
CONTINUOUS
 10
6.255480
 20
4.345000
  0
VERTEX
  8
0
  6
CONTINUOUS
 10
6.255480
 20
4.422880
  0
VERTEX
  8
0
  6
CONTINUOUS
 10
6.974880
 20
4.422440
  0
SEQEND
  8
0
  0
TEXT
  8
0
 10
4.137760
 20
3.365120
 40
0.137999
  1
BA  1143
 41
1.000000
  7
SN0
 71
     0
 72
     5
 11
4.820259
 21
3.365120
  0
TEXT
  8
0
 10
4.079240
 20
3.173280
 40
0.137999
  1
13/16" x 5"
 41
1.000000
  7
SN0
 71
     0
 72
     5
 11
4.878449
 21
3.173280
  0
POLYLINE
  8
0
  6
CONTINUOUS
 66
     1
 40
0.014080
 41
0.014080
  0
VERTEX
  8
0
  6
CONTINUOUS
 10
7.026800
 20
6.414760
  0
VERTEX
  8
0
  6
CONTINUOUS
 10
6.308720
 20
6.414760
  0
VERTEX
  8
0
  6
CONTINUOUS
 10
6.308720
 20
6.336880
  0
VERTEX
  8
0
  6
CONTINUOUS
 10
5.874880
 20
6.336880
  0
VERTEX
  8
0
  6
CONTINUOUS
 10
5.874880
 20
6.273520
  0
VERTEX
  8
0
  6
CONTINUOUS
 10
5.742880
 20
6.273080
  0
VERTEX
  8
0
  6
CONTINUOUS
 10
5.727040
 20
6.269120
  0
VERTEX
  8
0
  6
CONTINUOUS
 10
5.711200
 20
6.261640
  0
VERTEX
  8
0
  6
CONTINUOUS
 10
5.687880
 20
6.244480
  0
VERTEX
  8
0
  6
CONTINUOUS
 10
5.666760
 20
6.220720
  0
VERTEX
  8
0
  6
CONTINUOUS
 10
5.650040
 20
6.191680
  0
VERTEX
  8
0
  6
CONTINUOUS
 10
5.642560
 20
6.169680
  0
VERTEX
  8
0
  6
CONTINUOUS
 10
5.604720
 20
6.169680
  0
VERTEX
  8
0
  6
CONTINUOUS
 10
5.598120
 20
6.189480
  0
VERTEX
  8
0
  6
CONTINUOUS
 10
5.586680
 20
6.209720
  0
VERTEX
  8
0
  6
CONTINUOUS
 10
5.570840
 20
6.228640
  0
VERTEX
  8
0
  6
CONTINUOUS
 10
5.551040
 20
6.246240
  0
VERTEX
  8
0
  6
CONTINUOUS
 10
5.527720
 20
6.261200
  0
VERTEX
  8
0
  6
CONTINUOUS
 10
5.501760
 20
6.272640
  0
VERTEX
  8
0
  6
CONTINUOUS
 10
5.472720
 20
6.280560
  0
VERTEX
  8
0
  6
CONTINUOUS
 10
5.441920
 20
6.283200
  0
VERTEX
  8
0
  6
CONTINUOUS
 10
5.430040
 20
6.300800
  0
VERTEX
  8
0
  6
CONTINUOUS
 10
5.408040
 20
6.326320
  0
VERTEX
  8
0
  6
CONTINUOUS
 10
5.393520
 20
6.337320
  0
VERTEX
  8
0
  6
CONTINUOUS
 10
5.262400
 20
6.337760
  0
VERTEX
  8
0
  6
CONTINUOUS
 10
5.259320
 20
6.319720
  0
VERTEX
  8
0
  6
CONTINUOUS
 10
5.250960
 20
6.297280
  0
VERTEX
  8
0
  6
CONTINUOUS
 10
5.236880
 20
6.274400
  0
VERTEX
  8
0
  6
CONTINUOUS
 10
5.225440
 20
6.261640
  0
VERTEX
  8
0
  6
CONTINUOUS
 10
5.212240
 20
6.251520
  0
VERTEX
  8
0
  6
CONTINUOUS
 10
5.196840
 20
6.246240
  0
VERTEX
  8
0
  6
CONTINUOUS
 10
5.188920
 20
6.245360
  0
VERTEX
  8
0
  6
CONTINUOUS
 10
4.945600
 20
6.245360
  0
VERTEX
  8
0
  6
CONTINUOUS
 10
4.928880
 20
6.248440
  0
VERTEX
  8
0
  6
CONTINUOUS
 10
4.914360
 20
6.256800
  0
VERTEX
  8
0
  6
CONTINUOUS
 10
4.896320
 20
6.276160
  0
VERTEX
  8
0
  6
CONTINUOUS
 10
4.879600
 20
6.306960
  0
VERTEX
  8
0
  6
CONTINUOUS
 10
4.873440
 20
6.327640
  0
VERTEX
  8
0
  6
CONTINUOUS
 10
4.872120
 20
6.337760
  0
VERTEX
  8
0
  6
CONTINUOUS
 10
4.733960
 20
6.337320
  0
VERTEX
  8
0
  6
CONTINUOUS
 10
4.729120
 20
6.314000
  0
VERTEX
  8
0
  6
CONTINUOUS
 10
4.714600
 20
6.283200
  0
VERTEX
  8
0
  6
CONTINUOUS
 10
4.704480
 20
6.268680
  0
VERTEX
  8
0
  6
CONTINUOUS
 10
4.684680
 20
6.251960
  0
VERTEX
  8
0
  6
CONTINUOUS
 10
4.669280
 20
6.246240
  0
VERTEX
  8
0
  6
CONTINUOUS
 10
4.660480
 20
6.245360
  0
VERTEX
  8
0
  6
CONTINUOUS
 10
4.410120
 20
6.245360
  0
VERTEX
  8
0
  6
CONTINUOUS
 10
4.393840
 20
6.248440
  0
VERTEX
  8
0
  6
CONTINUOUS
 10
4.379320
 20
6.256800
  0
VERTEX
  8
0
  6
CONTINUOUS
 10
4.366560
 20
6.268680
  0
VERTEX
  8
0
  6
CONTINUOUS
 10
4.356440
 20
6.283200
  0
VERTEX
  8
0
  6
CONTINUOUS
 10
4.341920
 20
6.314000
  0
VERTEX
  8
0
  6
CONTINUOUS
 10
4.336640
 20
6.337320
  0
VERTEX
  8
0
  6
CONTINUOUS
 10
4.198920
 20
6.337320
  0
VERTEX
  8
0
  6
CONTINUOUS
 10
4.194080
 20
6.314000
  0
VERTEX
  8
0
  6
CONTINUOUS
 10
4.179560
 20
6.283200
  0
VERTEX
  8
0
  6
CONTINUOUS
 10
4.163280
 20
6.262520
  0
VERTEX
  8
0
  6
CONTINUOUS
 10
4.149640
 20
6.251960
  0
VERTEX
  8
0
  6
CONTINUOUS
 10
4.133800
 20
6.246240
  0
VERTEX
  8
0
  6
CONTINUOUS
 10
4.125440
 20
6.245360
  0
VERTEX
  8
0
  6
CONTINUOUS
 10
3.882120
 20
6.245360
  0
VERTEX
  8
0
  6
CONTINUOUS
 10
3.866280
 20
6.248440
  0
VERTEX
  8
0
  6
CONTINUOUS
 10
3.852200
 20
6.255920
  0
VERTEX
  8
0
  6
CONTINUOUS
 10
3.834160
 20
6.274400
  0
VERTEX
  8
0
  6
CONTINUOUS
 10
3.820080
 20
6.296840
  0
VERTEX
  8
0
  6
CONTINUOUS
 10
3.809960
 20
6.326320
  0
VERTEX
  8
0
  6
CONTINUOUS
 10
3.808640
 20
6.337760
  0
VERTEX
  8
0
  6
CONTINUOUS
 10
3.677520
 20
6.337320
  0
VERTEX
  8
0
  6
CONTINUOUS
 10
3.663000
 20
6.326320
  0
VERTEX
  8
0
  6
CONTINUOUS
 10
3.634400
 20
6.292000
  0
VERTEX
  8
0
  6
CONTINUOUS
 10
3.629120
 20
6.283200
  0
VERTEX
  8
0
  6
CONTINUOUS
 10
3.598320
 20
6.280560
  0
VERTEX
  8
0
  6
CONTINUOUS
 10
3.569280
 20
6.272640
  0
VERTEX
  8
0
  6
CONTINUOUS
 10
3.543320
 20
6.260760
  0
VERTEX
  8
0
  6
CONTINUOUS
 10
3.520000
 20
6.245800
  0
VERTEX
  8
0
  6
CONTINUOUS
 10
3.491840
 20
6.218960
  0
VERTEX
  8
0
  6
CONTINUOUS
 10
3.478200
 20
6.199600
  0
VERTEX
  8
0
  6
CONTINUOUS
 10
3.469400
 20
6.179360
  0
VERTEX
  8
0
  6
CONTINUOUS
 10
3.466760
 20
6.169680
  0
VERTEX
  8
0
  6
CONTINUOUS
 10
3.428480
 20
6.169680
  0
VERTEX
  8
0
  6
CONTINUOUS
 10
3.421000
 20
6.191240
  0
VERTEX
  8
0
  6
CONTINUOUS
 10
3.410440
 20
6.211480
  0
VERTEX
  8
0
  6
CONTINUOUS
 10
3.390640
 20
6.237000
  0
VERTEX
  8
0
  6
CONTINUOUS
 10
3.367760
 20
6.256360
  0
VERTEX
  8
0
  6
CONTINUOUS
 10
3.351920
 20
6.265600
  0
VERTEX
  8
0
  6
CONTINUOUS
 10
3.336080
 20
6.271320
  0
VERTEX
  8
0
  6
CONTINUOUS
 10
3.320680
 20
6.273520
  0
VERTEX
  8
0
  6
CONTINUOUS
 10
3.196160
 20
6.273520
  0
VERTEX
  8
0
  6
CONTINUOUS
 10
3.196160
 20
6.336440
  0
VERTEX
  8
0
  6
CONTINUOUS
 10
2.762320
 20
6.336440
  0
VERTEX
  8
0
  6
CONTINUOUS
 10
2.762320
 20
6.414760
  0
VERTEX
  8
0
  6
CONTINUOUS
 10
2.044240
 20
6.414760
  0
VERTEX
  8
0
  6
CONTINUOUS
 10
2.044240
 20
5.600760
  0
VERTEX
  8
0
  6
CONTINUOUS
 10
7.028120
 20
5.600760
  0
VERTEX
  8
0
  6
CONTINUOUS
 10
7.028120
 20
6.414320
  0
VERTEX
  8
0
  6
CONTINUOUS
 10
7.026800
 20
6.414760
  0
SEQEND
  8
0
  0
TEXT
  8
0
 10
2.417360
 20
5.924600
 40
0.137999
  1
BA  1143
 41
1.000000
  7
SN0
 71
     0
 72
     5
 11
3.099859
 21
5.924600
  0
TEXT
  8
0
 10
2.358400
 20
5.732760
 40
0.137999
  1
13/16" x 5"
 41
1.000000
  7
SN0
 71
     0
 72
     5
 11
3.157609
 21
5.732760
  0
ENDSEC
  0
EOF
