  0
SECTION
  2
HEADER
  9
$ACADVER
  1
AC1006
  9
$EXTMIN
 10
0.624800
 20
1.052920
  9
$EXTMAX
 10
7.963560
 20
5.954080
  9
$LTSCALE
 40
0.044000
  9
$PDMODE
 70
    35
  9
$PDSIZE
 40
0.035200
  0
ENDSEC
  0
SECTION
  2
TABLES
  0
TABLE
  2
LTYPE
 70
     9
  0
LTYPE
  2
CONTINUOUS
 70
    64
  3
Solid line
 72
    65
 73
     0
 40
0.000000
  0
LTYPE
  2
DASHED
 70
    64
  3
__ __ __ __ __ __ __ __ __ __ __ __ __ __ __
 72
    65
 73
     2
 40
0.000330
 49
0.000220
 49
-0.000110
  0
LTYPE
  2
HIDDEN
 70
    64
  3
 _ _ _ _ _ _ _ _ _ _ _ _ _ _ _ _ _ _ _ _ _ _
 72
    65
 73
     2
 40
0.000165
 49
0.000110
 49
-0.000055
  0
LTYPE
  2
CENTER
 70
    64
  3
____ _ ____ _ ____ _ ____ _ ____ _ ____ _ ____
 72
    65
 73
     4
 40
0.000880
 49
0.000550
 49
-0.000110
 49
0.000110
 49
-0.000110
  0
LTYPE
  2
PHANTOM
 70
    64
  3
_____ _ _ _____ _ _ _____ _ _ _____ _ _ ____
 72
    65
 73
     6
 40
0.001100
 49
0.000550
 49
-0.000110
 49
0.000110
 49
-0.000110
 49
0.000110
 49
-0.000110
  0
LTYPE
  2
DOT
 70
    64
  3
...............................................
 72
    65
 73
     2
 40
0.000110
 49
0.000000
 49
-0.000110
  0
LTYPE
  2
DASHDOT
 70
    64
  3
__ . __ . __ . __ . __ . __ . __ . __ . __ . __
 72
    65
 73
     4
 40
0.000440
 49
0.000220
 49
-0.000110
 49
0.000000
 49
-0.000110
  0
LTYPE
  2
BORDER
 70
    64
  3
__ __ . __ __ . __ __ . __ __ . __ __ . __ __
 72
    65
 73
     6
 40
0.000770
 49
0.000220
 49
-0.000110
 49
0.000220
 49
-0.000110
 49
0.000000
 49
-0.000110
  0
LTYPE
  2
DIVIDE
 70
    64
  3
__ . . __ . . __ . . __ . . __ . . __ . . __
 72
    65
 73
     6
 40
0.000550
 49
0.000220
 49
-0.000110
 49
0.000000
 49
-0.000110
 49
0.000000
 49
-0.000110
  0
LTYPE
  2
DOTDOT
 70
    64
  3
 . .  . .  . .  . .  . .  . . 
 72
    65
 73
     5
 40
0.000242
 49
-0.000110
 49
0.000000
 49
-0.000110
 49
0.000000
 49
-0.000110
  0
ENDTAB
  0
TABLE
  2
STYLE
 70
     2
  0
STYLE
 70
     0
  2
SN0
 40
0.000000
 41
0.000440
 50
0.000000
 71
     0
 42
0.000000
  3
ROMAND
  0
STYLE
 70
    68
  2
SV0
 40
0.000000
 41
0.000440
 50
0.000000
 71
     0
 42
0.000000
  3
ROMAND
  0
ENDTAB
  0
TABLE
  2
LAYER
 70
     3
  0
LAYER
  2
FOREGROUND
 70
    64
 62
     7
  6
CONTINUOUS
  0
LAYER
  2
BACKGROUND
 70
    65
 62
    -7
  6
CONTINUOUS
  0
LAYER
  2
0
 70
    64
 62
     7
  6
CONTINUOUS
  0
ENDTAB
  0
ENDSEC
  0
SECTION
  2
ENTITIES
  0
POLYLINE
  8
FOREGROUND
  6
CONTINUOUS
 66
     1
 40
0.000000
 41
0.000000
  0
VERTEX
  8
FOREGROUND
  6
CONTINUOUS
 10
0.000000
 20
7.007000
  0
VERTEX
  8
FOREGROUND
  6
CONTINUOUS
 10
8.499920
 20
7.007000
  0
VERTEX
  8
FOREGROUND
  6
CONTINUOUS
 10
8.499920
 20
-3.993000
  0
VERTEX
  8
FOREGROUND
  6
CONTINUOUS
 10
0.000000
 20
-3.993000
  0
VERTEX
  8
FOREGROUND
  6
CONTINUOUS
 10
0.000000
 20
7.007000
  0
SEQEND
  8
0
  0
POLYLINE
  8
FOREGROUND
  6
CONTINUOUS
 66
     1
 40
0.000000
 41
0.000000
  0
VERTEX
  8
FOREGROUND
  6
CONTINUOUS
 10
0.000000
 20
7.007000
  0
VERTEX
  8
FOREGROUND
  6
CONTINUOUS
 10
8.499920
 20
7.007000
  0
VERTEX
  8
FOREGROUND
  6
CONTINUOUS
 10
8.499920
 20
-3.993000
  0
VERTEX
  8
FOREGROUND
  6
CONTINUOUS
 10
0.000000
 20
-3.993000
  0
VERTEX
  8
FOREGROUND
  6
CONTINUOUS
 10
0.000000
 20
7.007000
  0
SEQEND
  8
0
  0
POLYLINE
  8
0
  6
CONTINUOUS
 66
     1
 40
0.000000
 41
0.000000
  0
VERTEX
  8
0
  6
CONTINUOUS
 10
7.963560
 20
3.233120
  0
VERTEX
  8
0
  6
CONTINUOUS
 10
7.293440
 20
2.746480
  0
VERTEX
  8
0
  6
CONTINUOUS
 10
4.638040
 20
2.742080
  0
VERTEX
  8
0
  6
CONTINUOUS
 10
3.967040
 20
3.655520
  0
VERTEX
  8
0
  6
CONTINUOUS
 10
4.199800
 20
3.827120
  0
VERTEX
  8
0
  6
CONTINUOUS
 10
4.250840
 20
3.757600
  0
VERTEX
  8
0
  6
CONTINUOUS
 10
4.308480
 20
3.688520
  0
VERTEX
  8
0
  6
CONTINUOUS
 10
4.371840
 20
3.621200
  0
VERTEX
  8
0
  6
CONTINUOUS
 10
4.440920
 20
3.555640
  0
VERTEX
  8
0
  6
CONTINUOUS
 10
4.515720
 20
3.492720
  0
VERTEX
  8
0
  6
CONTINUOUS
 10
4.595800
 20
3.432880
  0
VERTEX
  8
0
  6
CONTINUOUS
 10
4.680720
 20
3.377000
  0
VERTEX
  8
0
  6
CONTINUOUS
 10
4.770480
 20
3.325960
  0
VERTEX
  8
0
  6
CONTINUOUS
 10
4.865080
 20
3.279760
  0
VERTEX
  8
0
  6
CONTINUOUS
 10
4.930200
 20
3.252040
  0
VERTEX
  8
0
  6
CONTINUOUS
 10
5.031840
 20
3.215960
  0
VERTEX
  8
0
  6
CONTINUOUS
 10
5.101800
 20
3.195720
  0
VERTEX
  8
0
  6
CONTINUOUS
 10
5.173520
 20
3.178560
  0
VERTEX
  8
0
  6
CONTINUOUS
 10
5.247000
 20
3.164920
  0
VERTEX
  8
0
  6
CONTINUOUS
 10
5.321800
 20
3.154360
  0
VERTEX
  8
0
  6
CONTINUOUS
 10
5.397920
 20
3.148200
  0
VERTEX
  8
0
  6
CONTINUOUS
 10
5.475800
 20
3.145560
  0
VERTEX
  8
0
  6
CONTINUOUS
 10
5.555000
 20
3.147320
  0
VERTEX
  8
0
  6
CONTINUOUS
 10
5.635520
 20
3.153040
  0
VERTEX
  8
0
  6
CONTINUOUS
 10
5.717360
 20
3.163600
  0
VERTEX
  8
0
  6
CONTINUOUS
 10
5.800080
 20
3.178560
  0
VERTEX
  8
0
  6
CONTINUOUS
 10
5.884120
 20
3.198360
  0
VERTEX
  8
0
  6
CONTINUOUS
 10
5.969480
 20
3.223440
  0
VERTEX
  8
0
  6
CONTINUOUS
 10
6.055280
 20
3.253800
  0
VERTEX
  8
0
  6
CONTINUOUS
 10
6.141960
 20
3.289440
  0
VERTEX
  8
0
  6
CONTINUOUS
 10
6.229960
 20
3.330800
  0
VERTEX
  8
0
  6
CONTINUOUS
 10
6.318400
 20
3.377880
  0
VERTEX
  8
0
  6
CONTINUOUS
 10
6.326320
 20
3.527920
  0
VERTEX
  8
0
  6
CONTINUOUS
 10
6.749600
 20
3.818320
  0
VERTEX
  8
0
  6
CONTINUOUS
 10
7.008320
 20
3.466760
  0
VERTEX
  8
0
  6
CONTINUOUS
 10
7.102040
 20
3.503280
  0
VERTEX
  8
0
  6
CONTINUOUS
 10
7.132840
 20
3.457080
  0
VERTEX
  8
0
  6
CONTINUOUS
 10
7.165840
 20
3.420560
  0
VERTEX
  8
0
  6
CONTINUOUS
 10
7.189160
 20
3.400760
  0
VERTEX
  8
0
  6
CONTINUOUS
 10
7.212920
 20
3.385360
  0
VERTEX
  8
0
  6
CONTINUOUS
 10
7.237560
 20
3.373480
  0
VERTEX
  8
0
  6
CONTINUOUS
 10
7.262640
 20
3.365120
  0
VERTEX
  8
0
  6
CONTINUOUS
 10
7.288600
 20
3.360280
  0
VERTEX
  8
0
  6
CONTINUOUS
 10
7.314560
 20
3.358960
  0
VERTEX
  8
0
  6
CONTINUOUS
 10
7.341400
 20
3.360720
  0
VERTEX
  8
0
  6
CONTINUOUS
 10
7.381880
 20
3.369520
  0
VERTEX
  8
0
  6
CONTINUOUS
 10
7.409160
 20
3.378760
  0
VERTEX
  8
0
  6
CONTINUOUS
 10
7.450080
 20
3.398120
  0
VERTEX
  8
0
  6
CONTINUOUS
 10
7.477800
 20
3.414400
  0
VERTEX
  8
0
  6
CONTINUOUS
 10
7.505080
 20
3.433320
  0
VERTEX
  8
0
  6
CONTINUOUS
 10
7.575920
 20
3.337840
  0
VERTEX
  8
0
  6
CONTINUOUS
 10
7.614640
 20
3.364240
  0
VERTEX
  8
0
  6
CONTINUOUS
 10
7.651600
 20
3.384480
  0
VERTEX
  8
0
  6
CONTINUOUS
 10
7.686800
 20
3.398560
  0
VERTEX
  8
0
  6
CONTINUOUS
 10
7.719800
 20
3.407360
  0
VERTEX
  8
0
  6
CONTINUOUS
 10
7.751480
 20
3.411320
  0
VERTEX
  8
0
  6
CONTINUOUS
 10
7.781400
 20
3.410440
  0
VERTEX
  8
0
  6
CONTINUOUS
 10
7.809120
 20
3.405160
  0
VERTEX
  8
0
  6
CONTINUOUS
 10
7.834640
 20
3.396360
  0
VERTEX
  8
0
  6
CONTINUOUS
 10
7.858400
 20
3.383600
  0
VERTEX
  8
0
  6
CONTINUOUS
 10
7.890080
 20
3.359400
  0
VERTEX
  8
0
  6
CONTINUOUS
 10
7.916920
 20
3.329480
  0
VERTEX
  8
0
  6
CONTINUOUS
 10
7.938480
 20
3.295600
  0
VERTEX
  8
0
  6
CONTINUOUS
 10
7.955200
 20
3.258640
  0
VERTEX
  8
0
  6
CONTINUOUS
 10
7.963560
 20
3.233120
  0
SEQEND
  8
0
  0
SOLID
  8
0
 62
    15
 10
1.812800
 20
2.145880
 11
2.466640
 21
1.769680
 12
1.376320
 22
2.143680
 13
2.030160
 23
1.767040
  0
POLYLINE
  8
0
  6
CONTINUOUS
 66
     1
 40
0.000000
 41
0.000000
  0
VERTEX
  8
0
  6
CONTINUOUS
 10
1.812800
 20
2.145880
  0
VERTEX
  8
0
  6
CONTINUOUS
 10
2.466640
 20
1.769680
  0
VERTEX
  8
0
  6
CONTINUOUS
 10
2.030160
 20
1.767040
  0
VERTEX
  8
0
  6
CONTINUOUS
 10
1.376320
 20
2.143680
  0
VERTEX
  8
0
  6
CONTINUOUS
 10
1.812800
 20
2.145880
  0
SEQEND
  8
0
  0
SOLID
  8
0
 62
    15
 10
3.318040
 20
4.203760
 11
3.971880
 21
3.827560
 12
3.081320
 22
4.190560
 13
3.735160
 23
3.813920
  0
POLYLINE
  8
0
  6
CONTINUOUS
 66
     1
 40
0.000000
 41
0.000000
  0
VERTEX
  8
0
  6
CONTINUOUS
 10
3.318040
 20
4.203760
  0
VERTEX
  8
0
  6
CONTINUOUS
 10
3.971880
 20
3.827560
  0
VERTEX
  8
0
  6
CONTINUOUS
 10
3.735160
 20
3.813920
  0
VERTEX
  8
0
  6
CONTINUOUS
 10
3.081320
 20
4.190560
  0
VERTEX
  8
0
  6
CONTINUOUS
 10
3.318040
 20
4.203760
  0
SEQEND
  8
0
  0
SOLID
  8
0
 62
    15
 10
3.081320
 20
4.190560
 11
3.735160
 21
3.813920
 12
2.830080
 22
4.136000
 13
3.484360
 23
3.759360
  0
POLYLINE
  8
0
  6
CONTINUOUS
 66
     1
 40
0.000000
 41
0.000000
  0
VERTEX
  8
0
  6
CONTINUOUS
 10
3.081320
 20
4.190560
  0
VERTEX
  8
0
  6
CONTINUOUS
 10
3.735160
 20
3.813920
  0
VERTEX
  8
0
  6
CONTINUOUS
 10
3.484360
 20
3.759360
  0
VERTEX
  8
0
  6
CONTINUOUS
 10
2.830080
 20
4.136000
  0
VERTEX
  8
0
  6
CONTINUOUS
 10
3.081320
 20
4.190560
  0
SEQEND
  8
0
  0
SOLID
  8
0
 62
    15
 10
2.830080
 20
4.136000
 11
3.484360
 21
3.759360
 12
2.577520
 22
4.037000
 13
3.231360
 23
3.660360
  0
POLYLINE
  8
0
  6
CONTINUOUS
 66
     1
 40
0.000000
 41
0.000000
  0
VERTEX
  8
0
  6
CONTINUOUS
 10
2.830080
 20
4.136000
  0
VERTEX
  8
0
  6
CONTINUOUS
 10
3.484360
 20
3.759360
  0
VERTEX
  8
0
  6
CONTINUOUS
 10
3.231360
 20
3.660360
  0
VERTEX
  8
0
  6
CONTINUOUS
 10
2.577520
 20
4.037000
  0
VERTEX
  8
0
  6
CONTINUOUS
 10
2.830080
 20
4.136000
  0
SEQEND
  8
0
  0
SOLID
  8
0
 62
    15
 10
2.577520
 20
4.037000
 11
3.231360
 21
3.660360
 12
2.453880
 22
3.969680
 13
3.108160
 23
3.593040
  0
POLYLINE
  8
0
  6
CONTINUOUS
 66
     1
 40
0.000000
 41
0.000000
  0
VERTEX
  8
0
  6
CONTINUOUS
 10
2.577520
 20
4.037000
  0
VERTEX
  8
0
  6
CONTINUOUS
 10
3.231360
 20
3.660360
  0
VERTEX
  8
0
  6
CONTINUOUS
 10
3.108160
 20
3.593040
  0
VERTEX
  8
0
  6
CONTINUOUS
 10
2.453880
 20
3.969680
  0
VERTEX
  8
0
  6
CONTINUOUS
 10
2.577520
 20
4.037000
  0
SEQEND
  8
0
  0
SOLID
  8
0
 62
    15
 10
2.453880
 20
3.969680
 11
3.108160
 21
3.593040
 12
2.334640
 22
3.890040
 13
2.988920
 23
3.513400
  0
POLYLINE
  8
0
  6
CONTINUOUS
 66
     1
 40
0.000000
 41
0.000000
  0
VERTEX
  8
0
  6
CONTINUOUS
 10
2.453880
 20
3.969680
  0
VERTEX
  8
0
  6
CONTINUOUS
 10
3.108160
 20
3.593040
  0
VERTEX
  8
0
  6
CONTINUOUS
 10
2.988920
 20
3.513400
  0
VERTEX
  8
0
  6
CONTINUOUS
 10
2.334640
 20
3.890040
  0
VERTEX
  8
0
  6
CONTINUOUS
 10
2.453880
 20
3.969680
  0
SEQEND
  8
0
  0
SOLID
  8
0
 62
    15
 10
2.334640
 20
3.890040
 11
2.988920
 21
3.513400
 12
2.221120
 22
3.797200
 13
2.874960
 23
3.421000
  0
POLYLINE
  8
0
  6
CONTINUOUS
 66
     1
 40
0.000000
 41
0.000000
  0
VERTEX
  8
0
  6
CONTINUOUS
 10
2.334640
 20
3.890040
  0
VERTEX
  8
0
  6
CONTINUOUS
 10
2.988920
 20
3.513400
  0
VERTEX
  8
0
  6
CONTINUOUS
 10
2.874960
 20
3.421000
  0
VERTEX
  8
0
  6
CONTINUOUS
 10
2.221120
 20
3.797200
  0
VERTEX
  8
0
  6
CONTINUOUS
 10
2.334640
 20
3.890040
  0
SEQEND
  8
0
  0
SOLID
  8
0
 62
    15
 10
2.221120
 20
3.797200
 11
2.874960
 21
3.421000
 12
2.114640
 22
3.691600
 13
2.768480
 23
3.315400
  0
POLYLINE
  8
0
  6
CONTINUOUS
 66
     1
 40
0.000000
 41
0.000000
  0
VERTEX
  8
0
  6
CONTINUOUS
 10
2.221120
 20
3.797200
  0
VERTEX
  8
0
  6
CONTINUOUS
 10
2.874960
 20
3.421000
  0
VERTEX
  8
0
  6
CONTINUOUS
 10
2.768480
 20
3.315400
  0
VERTEX
  8
0
  6
CONTINUOUS
 10
2.114640
 20
3.691600
  0
VERTEX
  8
0
  6
CONTINUOUS
 10
2.221120
 20
3.797200
  0
SEQEND
  8
0
  0
SOLID
  8
0
 62
    15
 10
2.114640
 20
3.691600
 11
2.768480
 21
3.315400
 12
2.016520
 22
3.571920
 13
2.670800
 23
3.195720
  0
POLYLINE
  8
0
  6
CONTINUOUS
 66
     1
 40
0.000000
 41
0.000000
  0
VERTEX
  8
0
  6
CONTINUOUS
 10
2.114640
 20
3.691600
  0
VERTEX
  8
0
  6
CONTINUOUS
 10
2.768480
 20
3.315400
  0
VERTEX
  8
0
  6
CONTINUOUS
 10
2.670800
 20
3.195720
  0
VERTEX
  8
0
  6
CONTINUOUS
 10
2.016520
 20
3.571920
  0
VERTEX
  8
0
  6
CONTINUOUS
 10
2.114640
 20
3.691600
  0
SEQEND
  8
0
  0
SOLID
  8
0
 62
    15
 10
2.016520
 20
3.571920
 11
2.670800
 21
3.195720
 12
1.928960
 22
3.438600
 13
2.582800
 23
3.061960
  0
POLYLINE
  8
0
  6
CONTINUOUS
 66
     1
 40
0.000000
 41
0.000000
  0
VERTEX
  8
0
  6
CONTINUOUS
 10
2.016520
 20
3.571920
  0
VERTEX
  8
0
  6
CONTINUOUS
 10
2.670800
 20
3.195720
  0
VERTEX
  8
0
  6
CONTINUOUS
 10
2.582800
 20
3.061960
  0
VERTEX
  8
0
  6
CONTINUOUS
 10
1.928960
 20
3.438600
  0
VERTEX
  8
0
  6
CONTINUOUS
 10
2.016520
 20
3.571920
  0
SEQEND
  8
0
  0
SOLID
  8
0
 62
    15
 10
1.928960
 20
3.438600
 11
2.582800
 21
3.061960
 12
1.852840
 22
3.290320
 13
2.506680
 23
2.913680
  0
POLYLINE
  8
0
  6
CONTINUOUS
 66
     1
 40
0.000000
 41
0.000000
  0
VERTEX
  8
0
  6
CONTINUOUS
 10
1.928960
 20
3.438600
  0
VERTEX
  8
0
  6
CONTINUOUS
 10
2.582800
 20
3.061960
  0
VERTEX
  8
0
  6
CONTINUOUS
 10
2.506680
 20
2.913680
  0
VERTEX
  8
0
  6
CONTINUOUS
 10
1.852840
 20
3.290320
  0
VERTEX
  8
0
  6
CONTINUOUS
 10
1.928960
 20
3.438600
  0
SEQEND
  8
0
  0
SOLID
  8
0
 62
    15
 10
1.852840
 20
3.290320
 11
2.506680
 21
2.913680
 12
1.789920
 22
3.127080
 13
2.443760
 23
2.750880
  0
POLYLINE
  8
0
  6
CONTINUOUS
 66
     1
 40
0.000000
 41
0.000000
  0
VERTEX
  8
0
  6
CONTINUOUS
 10
1.852840
 20
3.290320
  0
VERTEX
  8
0
  6
CONTINUOUS
 10
2.506680
 20
2.913680
  0
VERTEX
  8
0
  6
CONTINUOUS
 10
2.443760
 20
2.750880
  0
VERTEX
  8
0
  6
CONTINUOUS
 10
1.789920
 20
3.127080
  0
VERTEX
  8
0
  6
CONTINUOUS
 10
1.852840
 20
3.290320
  0
SEQEND
  8
0
  0
SOLID
  8
0
 62
    15
 10
1.789920
 20
3.127080
 11
2.443760
 21
2.750880
 12
1.741520
 22
2.948440
 13
2.395800
 23
2.571800
  0
POLYLINE
  8
0
  6
CONTINUOUS
 66
     1
 40
0.000000
 41
0.000000
  0
VERTEX
  8
0
  6
CONTINUOUS
 10
1.789920
 20
3.127080
  0
VERTEX
  8
0
  6
CONTINUOUS
 10
2.443760
 20
2.750880
  0
VERTEX
  8
0
  6
CONTINUOUS
 10
2.395800
 20
2.571800
  0
VERTEX
  8
0
  6
CONTINUOUS
 10
1.741520
 20
2.948440
  0
VERTEX
  8
0
  6
CONTINUOUS
 10
1.789920
 20
3.127080
  0
SEQEND
  8
0
  0
SOLID
  8
0
 62
    15
 10
1.741520
 20
2.948440
 11
2.395800
 21
2.571800
 12
1.709840
 22
2.753960
 13
2.363680
 23
2.377320
  0
POLYLINE
  8
0
  6
CONTINUOUS
 66
     1
 40
0.000000
 41
0.000000
  0
VERTEX
  8
0
  6
CONTINUOUS
 10
1.741520
 20
2.948440
  0
VERTEX
  8
0
  6
CONTINUOUS
 10
2.395800
 20
2.571800
  0
VERTEX
  8
0
  6
CONTINUOUS
 10
2.363680
 20
2.377320
  0
VERTEX
  8
0
  6
CONTINUOUS
 10
1.709840
 20
2.753960
  0
VERTEX
  8
0
  6
CONTINUOUS
 10
1.741520
 20
2.948440
  0
SEQEND
  8
0
  0
SOLID
  8
0
 62
    15
 10
1.709840
 20
2.753960
 11
2.363680
 21
2.377320
 12
1.826440
 22
2.659360
 13
2.480280
 23
2.282720
  0
POLYLINE
  8
0
  6
CONTINUOUS
 66
     1
 40
0.000000
 41
0.000000
  0
VERTEX
  8
0
  6
CONTINUOUS
 10
1.709840
 20
2.753960
  0
VERTEX
  8
0
  6
CONTINUOUS
 10
2.363680
 20
2.377320
  0
VERTEX
  8
0
  6
CONTINUOUS
 10
2.480280
 20
2.282720
  0
VERTEX
  8
0
  6
CONTINUOUS
 10
1.826440
 20
2.659360
  0
VERTEX
  8
0
  6
CONTINUOUS
 10
1.709840
 20
2.753960
  0
SEQEND
  8
0
  0
SOLID
  8
0
 62
    15
 10
1.826440
 20
2.659360
 11
2.480280
 21
2.282720
 12
1.812800
 22
2.145880
 13
2.466640
 23
1.769680
  0
POLYLINE
  8
0
  6
CONTINUOUS
 66
     1
 40
0.000000
 41
0.000000
  0
VERTEX
  8
0
  6
CONTINUOUS
 10
1.826440
 20
2.659360
  0
VERTEX
  8
0
  6
CONTINUOUS
 10
2.480280
 20
2.282720
  0
VERTEX
  8
0
  6
CONTINUOUS
 10
2.466640
 20
1.769680
  0
VERTEX
  8
0
  6
CONTINUOUS
 10
1.812800
 20
2.145880
  0
VERTEX
  8
0
  6
CONTINUOUS
 10
1.826440
 20
2.659360
  0
SEQEND
  8
0
  0
SOLID
  8
0
 62
    15
 10
3.316280
 20
4.492840
 11
3.970560
 21
4.116640
 12
3.318040
 22
4.203760
 13
3.971880
 23
3.827560
  0
POLYLINE
  8
0
  6
CONTINUOUS
 66
     1
 40
0.000000
 41
0.000000
  0
VERTEX
  8
0
  6
CONTINUOUS
 10
3.316280
 20
4.492840
  0
VERTEX
  8
0
  6
CONTINUOUS
 10
3.970560
 20
4.116640
  0
VERTEX
  8
0
  6
CONTINUOUS
 10
3.971880
 20
3.827560
  0
VERTEX
  8
0
  6
CONTINUOUS
 10
3.318040
 20
4.203760
  0
VERTEX
  8
0
  6
CONTINUOUS
 10
3.316280
 20
4.492840
  0
SEQEND
  8
0
  0
SOLID
  8
0
 62
    15
 10
1.376320
 20
2.143680
 11
2.030160
 21
1.767040
 12
1.350360
 22
2.046000
 13
2.004640
 23
1.669800
  0
POLYLINE
  8
0
  6
CONTINUOUS
 66
     1
 40
0.000000
 41
0.000000
  0
VERTEX
  8
0
  6
CONTINUOUS
 10
1.376320
 20
2.143680
  0
VERTEX
  8
0
  6
CONTINUOUS
 10
2.030160
 20
1.767040
  0
VERTEX
  8
0
  6
CONTINUOUS
 10
2.004640
 20
1.669800
  0
VERTEX
  8
0
  6
CONTINUOUS
 10
1.350360
 20
2.046000
  0
VERTEX
  8
0
  6
CONTINUOUS
 10
1.376320
 20
2.143680
  0
SEQEND
  8
0
  0
SOLID
  8
0
 62
    15
 10
1.350360
 20
2.046000
 11
2.004640
 21
1.669800
 12
1.278200
 22
2.047320
 13
1.932040
 23
1.671120
  0
POLYLINE
  8
0
  6
CONTINUOUS
 66
     1
 40
0.000000
 41
0.000000
  0
VERTEX
  8
0
  6
CONTINUOUS
 10
1.350360
 20
2.046000
  0
VERTEX
  8
0
  6
CONTINUOUS
 10
2.004640
 20
1.669800
  0
VERTEX
  8
0
  6
CONTINUOUS
 10
1.932040
 20
1.671120
  0
VERTEX
  8
0
  6
CONTINUOUS
 10
1.278200
 20
2.047320
  0
VERTEX
  8
0
  6
CONTINUOUS
 10
1.350360
 20
2.046000
  0
SEQEND
  8
0
  0
SOLID
  8
0
 62
    15
 10
1.278200
 20
2.047320
 11
1.932040
 21
1.671120
 12
1.216600
 22
2.035880
 13
1.870440
 23
1.659680
  0
POLYLINE
  8
0
  6
CONTINUOUS
 66
     1
 40
0.000000
 41
0.000000
  0
VERTEX
  8
0
  6
CONTINUOUS
 10
1.278200
 20
2.047320
  0
VERTEX
  8
0
  6
CONTINUOUS
 10
1.932040
 20
1.671120
  0
VERTEX
  8
0
  6
CONTINUOUS
 10
1.870440
 20
1.659680
  0
VERTEX
  8
0
  6
CONTINUOUS
 10
1.216600
 20
2.035880
  0
VERTEX
  8
0
  6
CONTINUOUS
 10
1.278200
 20
2.047320
  0
SEQEND
  8
0
  0
SOLID
  8
0
 62
    15
 10
1.216600
 20
2.035880
 11
1.870440
 21
1.659680
 12
1.165560
 22
2.012560
 13
1.819840
 23
1.636360
  0
POLYLINE
  8
0
  6
CONTINUOUS
 66
     1
 40
0.000000
 41
0.000000
  0
VERTEX
  8
0
  6
CONTINUOUS
 10
1.216600
 20
2.035880
  0
VERTEX
  8
0
  6
CONTINUOUS
 10
1.870440
 20
1.659680
  0
VERTEX
  8
0
  6
CONTINUOUS
 10
1.819840
 20
1.636360
  0
VERTEX
  8
0
  6
CONTINUOUS
 10
1.165560
 20
2.012560
  0
VERTEX
  8
0
  6
CONTINUOUS
 10
1.216600
 20
2.035880
  0
SEQEND
  8
0
  0
SOLID
  8
0
 62
    15
 10
1.165560
 20
2.012560
 11
1.819840
 21
1.636360
 12
1.125080
 22
1.979120
 13
1.779360
 23
1.602920
  0
POLYLINE
  8
0
  6
CONTINUOUS
 66
     1
 40
0.000000
 41
0.000000
  0
VERTEX
  8
0
  6
CONTINUOUS
 10
1.165560
 20
2.012560
  0
VERTEX
  8
0
  6
CONTINUOUS
 10
1.819840
 20
1.636360
  0
VERTEX
  8
0
  6
CONTINUOUS
 10
1.779360
 20
1.602920
  0
VERTEX
  8
0
  6
CONTINUOUS
 10
1.125080
 20
1.979120
  0
VERTEX
  8
0
  6
CONTINUOUS
 10
1.165560
 20
2.012560
  0
SEQEND
  8
0
  0
SOLID
  8
0
 62
    15
 10
1.125080
 20
1.979120
 11
1.779360
 21
1.602920
 12
1.073160
 22
1.884960
 13
1.727000
 23
1.508320
  0
POLYLINE
  8
0
  6
CONTINUOUS
 66
     1
 40
0.000000
 41
0.000000
  0
VERTEX
  8
0
  6
CONTINUOUS
 10
1.125080
 20
1.979120
  0
VERTEX
  8
0
  6
CONTINUOUS
 10
1.779360
 20
1.602920
  0
VERTEX
  8
0
  6
CONTINUOUS
 10
1.727000
 20
1.508320
  0
VERTEX
  8
0
  6
CONTINUOUS
 10
1.073160
 20
1.884960
  0
VERTEX
  8
0
  6
CONTINUOUS
 10
1.125080
 20
1.979120
  0
SEQEND
  8
0
  0
SOLID
  8
0
 62
    15
 10
1.073160
 20
1.884960
 11
1.727000
 21
1.508320
 12
1.056880
 22
1.761320
 13
1.710720
 23
1.385120
  0
POLYLINE
  8
0
  6
CONTINUOUS
 66
     1
 40
0.000000
 41
0.000000
  0
VERTEX
  8
0
  6
CONTINUOUS
 10
1.073160
 20
1.884960
  0
VERTEX
  8
0
  6
CONTINUOUS
 10
1.727000
 20
1.508320
  0
VERTEX
  8
0
  6
CONTINUOUS
 10
1.710720
 20
1.385120
  0
VERTEX
  8
0
  6
CONTINUOUS
 10
1.056880
 20
1.761320
  0
VERTEX
  8
0
  6
CONTINUOUS
 10
1.073160
 20
1.884960
  0
SEQEND
  8
0
  0
SOLID
  8
0
 62
    15
 10
1.056880
 20
1.761320
 11
1.710720
 21
1.385120
 12
0.938080
 22
1.760440
 13
1.591920
 23
1.383800
  0
POLYLINE
  8
0
  6
CONTINUOUS
 66
     1
 40
0.000000
 41
0.000000
  0
VERTEX
  8
0
  6
CONTINUOUS
 10
1.056880
 20
1.761320
  0
VERTEX
  8
0
  6
CONTINUOUS
 10
1.710720
 20
1.385120
  0
VERTEX
  8
0
  6
CONTINUOUS
 10
1.591920
 20
1.383800
  0
VERTEX
  8
0
  6
CONTINUOUS
 10
0.938080
 20
1.760440
  0
VERTEX
  8
0
  6
CONTINUOUS
 10
1.056880
 20
1.761320
  0
SEQEND
  8
0
  0
SOLID
  8
0
 62
    15
 10
0.938080
 20
1.760440
 11
1.591920
 21
1.383800
 12
0.931480
 22
1.671560
 13
1.585320
 23
1.295360
  0
POLYLINE
  8
0
  6
CONTINUOUS
 66
     1
 40
0.000000
 41
0.000000
  0
VERTEX
  8
0
  6
CONTINUOUS
 10
0.938080
 20
1.760440
  0
VERTEX
  8
0
  6
CONTINUOUS
 10
1.591920
 20
1.383800
  0
VERTEX
  8
0
  6
CONTINUOUS
 10
1.585320
 20
1.295360
  0
VERTEX
  8
0
  6
CONTINUOUS
 10
0.931480
 20
1.671560
  0
VERTEX
  8
0
  6
CONTINUOUS
 10
0.938080
 20
1.760440
  0
SEQEND
  8
0
  0
SOLID
  8
0
 62
    15
 10
0.931480
 20
1.671560
 11
1.585320
 21
1.295360
 12
0.909920
 22
1.602480
 13
1.563760
 23
1.226280
  0
POLYLINE
  8
0
  6
CONTINUOUS
 66
     1
 40
0.000000
 41
0.000000
  0
VERTEX
  8
0
  6
CONTINUOUS
 10
0.931480
 20
1.671560
  0
VERTEX
  8
0
  6
CONTINUOUS
 10
1.585320
 20
1.295360
  0
VERTEX
  8
0
  6
CONTINUOUS
 10
1.563760
 20
1.226280
  0
VERTEX
  8
0
  6
CONTINUOUS
 10
0.909920
 20
1.602480
  0
VERTEX
  8
0
  6
CONTINUOUS
 10
0.931480
 20
1.671560
  0
SEQEND
  8
0
  0
SOLID
  8
0
 62
    15
 10
0.909920
 20
1.602480
 11
1.563760
 21
1.226280
 12
0.876040
 22
1.551440
 13
1.529880
 23
1.175240
  0
POLYLINE
  8
0
  6
CONTINUOUS
 66
     1
 40
0.000000
 41
0.000000
  0
VERTEX
  8
0
  6
CONTINUOUS
 10
0.909920
 20
1.602480
  0
VERTEX
  8
0
  6
CONTINUOUS
 10
1.563760
 20
1.226280
  0
VERTEX
  8
0
  6
CONTINUOUS
 10
1.529880
 20
1.175240
  0
VERTEX
  8
0
  6
CONTINUOUS
 10
0.876040
 20
1.551440
  0
VERTEX
  8
0
  6
CONTINUOUS
 10
0.909920
 20
1.602480
  0
SEQEND
  8
0
  0
SOLID
  8
0
 62
    15
 10
0.876040
 20
1.551440
 11
1.529880
 21
1.175240
 12
0.832920
 22
1.516240
 13
1.487200
 23
1.140040
  0
POLYLINE
  8
0
  6
CONTINUOUS
 66
     1
 40
0.000000
 41
0.000000
  0
VERTEX
  8
0
  6
CONTINUOUS
 10
0.876040
 20
1.551440
  0
VERTEX
  8
0
  6
CONTINUOUS
 10
1.529880
 20
1.175240
  0
VERTEX
  8
0
  6
CONTINUOUS
 10
1.487200
 20
1.140040
  0
VERTEX
  8
0
  6
CONTINUOUS
 10
0.832920
 20
1.516240
  0
VERTEX
  8
0
  6
CONTINUOUS
 10
0.876040
 20
1.551440
  0
SEQEND
  8
0
  0
SOLID
  8
0
 62
    15
 10
0.832920
 20
1.516240
 11
1.487200
 21
1.140040
 12
0.783640
 22
1.496440
 13
1.437920
 23
1.119800
  0
POLYLINE
  8
0
  6
CONTINUOUS
 66
     1
 40
0.000000
 41
0.000000
  0
VERTEX
  8
0
  6
CONTINUOUS
 10
0.832920
 20
1.516240
  0
VERTEX
  8
0
  6
CONTINUOUS
 10
1.487200
 20
1.140040
  0
VERTEX
  8
0
  6
CONTINUOUS
 10
1.437920
 20
1.119800
  0
VERTEX
  8
0
  6
CONTINUOUS
 10
0.783640
 20
1.496440
  0
VERTEX
  8
0
  6
CONTINUOUS
 10
0.832920
 20
1.516240
  0
SEQEND
  8
0
  0
SOLID
  8
0
 62
    15
 10
0.783640
 20
1.496440
 11
1.437920
 21
1.119800
 12
0.730840
 22
1.489400
 13
1.384680
 23
1.112760
  0
POLYLINE
  8
0
  6
CONTINUOUS
 66
     1
 40
0.000000
 41
0.000000
  0
VERTEX
  8
0
  6
CONTINUOUS
 10
0.783640
 20
1.496440
  0
VERTEX
  8
0
  6
CONTINUOUS
 10
1.437920
 20
1.119800
  0
VERTEX
  8
0
  6
CONTINUOUS
 10
1.384680
 20
1.112760
  0
VERTEX
  8
0
  6
CONTINUOUS
 10
0.730840
 20
1.489400
  0
VERTEX
  8
0
  6
CONTINUOUS
 10
0.783640
 20
1.496440
  0
SEQEND
  8
0
  0
SOLID
  8
0
 62
    15
 10
0.730840
 20
1.489400
 11
1.384680
 21
1.112760
 12
0.625680
 22
1.508320
 13
1.279520
 23
1.131680
  0
POLYLINE
  8
0
  6
CONTINUOUS
 66
     1
 40
0.000000
 41
0.000000
  0
VERTEX
  8
0
  6
CONTINUOUS
 10
0.730840
 20
1.489400
  0
VERTEX
  8
0
  6
CONTINUOUS
 10
1.384680
 20
1.112760
  0
VERTEX
  8
0
  6
CONTINUOUS
 10
1.279520
 20
1.131680
  0
VERTEX
  8
0
  6
CONTINUOUS
 10
0.625680
 20
1.508320
  0
VERTEX
  8
0
  6
CONTINUOUS
 10
0.730840
 20
1.489400
  0
SEQEND
  8
0
  0
POLYLINE
  8
0
  6
CONTINUOUS
 66
     1
 40
0.000000
 41
0.000000
  0
VERTEX
  8
0
  6
CONTINUOUS
 10
0.625680
 20
1.508320
  0
VERTEX
  8
0
  6
CONTINUOUS
 10
1.279520
 20
1.131680
  0
VERTEX
  8
0
  6
CONTINUOUS
 10
0.625680
 20
1.508320
  0
SEQEND
  8
0
  0
POLYLINE
  8
0
  6
CONTINUOUS
 66
     1
 40
0.000000
 41
0.000000
  0
VERTEX
  8
0
  6
CONTINUOUS
 10
0.625680
 20
1.508320
  0
VERTEX
  8
0
  6
CONTINUOUS
 10
0.625680
 20
2.335960
  0
VERTEX
  8
0
  6
CONTINUOUS
 10
2.102320
 20
4.375800
  0
VERTEX
  8
0
  6
CONTINUOUS
 10
2.182400
 20
4.486680
  0
VERTEX
  8
0
  6
CONTINUOUS
 10
2.182840
 20
4.486680
  0
VERTEX
  8
0
  6
CONTINUOUS
 10
3.316280
 20
4.492840
  0
VERTEX
  8
0
  6
CONTINUOUS
 10
3.318040
 20
4.203760
  0
VERTEX
  8
0
  6
CONTINUOUS
 10
3.081320
 20
4.190560
  0
VERTEX
  8
0
  6
CONTINUOUS
 10
2.830080
 20
4.136000
  0
VERTEX
  8
0
  6
CONTINUOUS
 10
2.577520
 20
4.037000
  0
VERTEX
  8
0
  6
CONTINUOUS
 10
2.453880
 20
3.969680
  0
VERTEX
  8
0
  6
CONTINUOUS
 10
2.334640
 20
3.890040
  0
VERTEX
  8
0
  6
CONTINUOUS
 10
2.221120
 20
3.797200
  0
VERTEX
  8
0
  6
CONTINUOUS
 10
2.114640
 20
3.691600
  0
VERTEX
  8
0
  6
CONTINUOUS
 10
2.016520
 20
3.571920
  0
VERTEX
  8
0
  6
CONTINUOUS
 10
1.928960
 20
3.438600
  0
VERTEX
  8
0
  6
CONTINUOUS
 10
1.852840
 20
3.290320
  0
VERTEX
  8
0
  6
CONTINUOUS
 10
1.789920
 20
3.127080
  0
VERTEX
  8
0
  6
CONTINUOUS
 10
1.741520
 20
2.948440
  0
VERTEX
  8
0
  6
CONTINUOUS
 10
1.709840
 20
2.753960
  0
VERTEX
  8
0
  6
CONTINUOUS
 10
1.826440
 20
2.659360
  0
VERTEX
  8
0
  6
CONTINUOUS
 10
1.812800
 20
2.145880
  0
VERTEX
  8
0
  6
CONTINUOUS
 10
1.376320
 20
2.143680
  0
VERTEX
  8
0
  6
CONTINUOUS
 10
1.350360
 20
2.046000
  0
VERTEX
  8
0
  6
CONTINUOUS
 10
1.278200
 20
2.047320
  0
VERTEX
  8
0
  6
CONTINUOUS
 10
1.216600
 20
2.035880
  0
VERTEX
  8
0
  6
CONTINUOUS
 10
1.165560
 20
2.012560
  0
VERTEX
  8
0
  6
CONTINUOUS
 10
1.125080
 20
1.979120
  0
VERTEX
  8
0
  6
CONTINUOUS
 10
1.073160
 20
1.884960
  0
VERTEX
  8
0
  6
CONTINUOUS
 10
1.056880
 20
1.761320
  0
VERTEX
  8
0
  6
CONTINUOUS
 10
0.938080
 20
1.760440
  0
VERTEX
  8
0
  6
CONTINUOUS
 10
0.931480
 20
1.671560
  0
VERTEX
  8
0
  6
CONTINUOUS
 10
0.909920
 20
1.602480
  0
VERTEX
  8
0
  6
CONTINUOUS
 10
0.876040
 20
1.551440
  0
VERTEX
  8
0
  6
CONTINUOUS
 10
0.832920
 20
1.516240
  0
VERTEX
  8
0
  6
CONTINUOUS
 10
0.783640
 20
1.496440
  0
VERTEX
  8
0
  6
CONTINUOUS
 10
0.730840
 20
1.489400
  0
VERTEX
  8
0
  6
CONTINUOUS
 10
0.625680
 20
1.508320
  0
SEQEND
  8
0
  0
TEXT
  8
0
 10
2.303840
 20
1.287440
 40
0.138249
  1
BA  1142
 41
1.000000
  7
SN0
 71
     0
 72
     5
 11
2.985978
 21
1.287440
  0
TEXT
  8
0
 10
2.217600
 20
1.096040
 40
0.138249
  1
  1-1/8" x 4"
 41
1.000000
  7
SN0
 71
     0
 72
     5
 11
3.075501
 21
1.096040
  0
POLYLINE
  8
0
  6
CONTINUOUS
 66
     1
 40
0.000000
 41
0.000000
  0
VERTEX
  8
0
  6
CONTINUOUS
 10
6.897880
 20
5.359200
  0
VERTEX
  8
0
  6
CONTINUOUS
 10
6.228200
 20
4.873000
  0
VERTEX
  8
0
  6
CONTINUOUS
 10
3.572800
 20
4.868600
  0
VERTEX
  8
0
  6
CONTINUOUS
 10
2.901360
 20
5.782040
  0
VERTEX
  8
0
  6
CONTINUOUS
 10
3.134560
 20
5.953200
  0
VERTEX
  8
0
  6
CONTINUOUS
 10
3.134120
 20
5.953200
  0
VERTEX
  8
0
  6
CONTINUOUS
 10
3.185600
 20
5.883680
  0
VERTEX
  8
0
  6
CONTINUOUS
 10
3.242800
 20
5.814600
  0
VERTEX
  8
0
  6
CONTINUOUS
 10
3.306600
 20
5.747280
  0
VERTEX
  8
0
  6
CONTINUOUS
 10
3.375680
 20
5.681720
  0
VERTEX
  8
0
  6
CONTINUOUS
 10
3.450480
 20
5.618800
  0
VERTEX
  8
0
  6
CONTINUOUS
 10
3.530120
 20
5.558960
  0
VERTEX
  8
0
  6
CONTINUOUS
 10
3.615480
 20
5.503520
  0
VERTEX
  8
0
  6
CONTINUOUS
 10
3.705240
 20
5.452040
  0
VERTEX
  8
0
  6
CONTINUOUS
 10
3.799400
 20
5.406280
  0
VERTEX
  8
0
  6
CONTINUOUS
 10
3.864960
 20
5.378560
  0
VERTEX
  8
0
  6
CONTINUOUS
 10
3.932280
 20
5.353480
  0
VERTEX
  8
0
  6
CONTINUOUS
 10
4.036560
 20
5.321800
  0
VERTEX
  8
0
  6
CONTINUOUS
 10
4.108280
 20
5.304640
  0
VERTEX
  8
0
  6
CONTINUOUS
 10
4.181760
 20
5.291000
  0
VERTEX
  8
0
  6
CONTINUOUS
 10
4.256560
 20
5.280880
  0
VERTEX
  8
0
  6
CONTINUOUS
 10
4.332680
 20
5.274280
  0
VERTEX
  8
0
  6
CONTINUOUS
 10
4.410560
 20
5.272080
  0
VERTEX
  8
0
  6
CONTINUOUS
 10
4.489760
 20
5.273400
  0
VERTEX
  8
0
  6
CONTINUOUS
 10
4.570280
 20
5.279560
  0
VERTEX
  8
0
  6
CONTINUOUS
 10
4.611200
 20
5.283960
  0
VERTEX
  8
0
  6
CONTINUOUS
 10
4.693480
 20
5.296720
  0
VERTEX
  8
0
  6
CONTINUOUS
 10
4.777080
 20
5.314320
  0
VERTEX
  8
0
  6
CONTINUOUS
 10
4.861560
 20
5.336760
  0
VERTEX
  8
0
  6
CONTINUOUS
 10
4.946920
 20
5.364480
  0
VERTEX
  8
0
  6
CONTINUOUS
 10
5.033160
 20
5.397480
  0
VERTEX
  8
0
  6
CONTINUOUS
 10
5.120720
 20
5.435760
  0
VERTEX
  8
0
  6
CONTINUOUS
 10
5.208720
 20
5.480200
  0
VERTEX
  8
0
  6
CONTINUOUS
 10
5.253160
 20
5.504400
  0
VERTEX
  8
0
  6
CONTINUOUS
 10
5.261080
 20
5.654440
  0
VERTEX
  8
0
  6
CONTINUOUS
 10
5.684360
 20
5.944840
  0
VERTEX
  8
0
  6
CONTINUOUS
 10
5.942640
 20
5.593280
  0
VERTEX
  8
0
  6
CONTINUOUS
 10
6.036360
 20
5.629800
  0
VERTEX
  8
0
  6
CONTINUOUS
 10
6.067160
 20
5.583600
  0
VERTEX
  8
0
  6
CONTINUOUS
 10
6.089160
 20
5.558080
  0
VERTEX
  8
0
  6
CONTINUOUS
 10
6.123480
 20
5.527280
  0
VERTEX
  8
0
  6
CONTINUOUS
 10
6.147680
 20
5.511880
  0
VERTEX
  8
0
  6
CONTINUOUS
 10
6.172320
 20
5.500000
  0
VERTEX
  8
0
  6
CONTINUOUS
 10
6.197400
 20
5.491640
  0
VERTEX
  8
0
  6
CONTINUOUS
 10
6.223360
 20
5.486800
  0
VERTEX
  8
0
  6
CONTINUOUS
 10
6.249320
 20
5.485480
  0
VERTEX
  8
0
  6
CONTINUOUS
 10
6.276160
 20
5.487240
  0
VERTEX
  8
0
  6
CONTINUOUS
 10
6.303000
 20
5.492080
  0
VERTEX
  8
0
  6
CONTINUOUS
 10
6.343920
 20
5.504840
  0
VERTEX
  8
0
  6
CONTINUOUS
 10
6.384840
 20
5.524200
  0
VERTEX
  8
0
  6
CONTINUOUS
 10
6.412120
 20
5.540480
  0
VERTEX
  8
0
  6
CONTINUOUS
 10
6.439400
 20
5.559400
  0
VERTEX
  8
0
  6
CONTINUOUS
 10
6.510240
 20
5.463920
  0
VERTEX
  8
0
  6
CONTINUOUS
 10
6.548960
 20
5.490320
  0
VERTEX
  8
0
  6
CONTINUOUS
 10
6.585920
 20
5.510560
  0
VERTEX
  8
0
  6
CONTINUOUS
 10
6.621120
 20
5.525080
  0
VERTEX
  8
0
  6
CONTINUOUS
 10
6.654560
 20
5.533880
  0
VERTEX
  8
0
  6
CONTINUOUS
 10
6.670400
 20
5.536520
  0
VERTEX
  8
0
  6
CONTINUOUS
 10
6.701200
 20
5.537840
  0
VERTEX
  8
0
  6
CONTINUOUS
 10
6.729800
 20
5.534760
  0
VERTEX
  8
0
  6
CONTINUOUS
 10
6.756640
 20
5.527280
  0
VERTEX
  8
0
  6
CONTINUOUS
 10
6.781280
 20
5.516720
  0
VERTEX
  8
0
  6
CONTINUOUS
 10
6.804160
 20
5.502640
  0
VERTEX
  8
0
  6
CONTINUOUS
 10
6.834080
 20
5.476240
  0
VERTEX
  8
0
  6
CONTINUOUS
 10
6.859160
 20
5.445000
  0
VERTEX
  8
0
  6
CONTINUOUS
 10
6.879400
 20
5.409800
  0
VERTEX
  8
0
  6
CONTINUOUS
 10
6.889960
 20
5.385160
  0
VERTEX
  8
0
  6
CONTINUOUS
 10
6.897880
 20
5.359200
  0
SEQEND
  8
0
  0
TEXT
  8
0
 10
5.260200
 20
5.194640
 40
0.138249
  1
BA  1142
 41
1.000000
  7
SN0
 71
     0
 72
     5
 11
5.942338
 21
5.194640
  0
TEXT
  8
0
 10
5.173960
 20
5.002800
 40
0.138249
  1
  1-1/8" x 4"
 41
1.000000
  7
SN0
 71
     0
 72
     5
 11
6.031861
 21
5.002800
  0
ENDSEC
  0
EOF
