  0
SECTION
  2
HEADER
  9
$ACADVER
  1
AC1006
  9
$EXTMIN
 10
3.627800
 20
0.807840
  9
$EXTMAX
 10
7.384960
 20
3.577200
  9
$LTSCALE
 40
0.044000
  9
$PDMODE
 70
    35
  9
$PDSIZE
 40
0.035200
  0
ENDSEC
  0
SECTION
  2
TABLES
  0
TABLE
  2
LTYPE
 70
     9
  0
LTYPE
  2
CONTINUOUS
 70
    64
  3
Solid line
 72
    65
 73
     0
 40
0.000000
  0
LTYPE
  2
DASHED
 70
    64
  3
__ __ __ __ __ __ __ __ __ __ __ __ __ __ __
 72
    65
 73
     2
 40
0.000330
 49
0.000220
 49
-0.000110
  0
LTYPE
  2
HIDDEN
 70
    64
  3
 _ _ _ _ _ _ _ _ _ _ _ _ _ _ _ _ _ _ _ _ _ _
 72
    65
 73
     2
 40
0.000165
 49
0.000110
 49
-0.000055
  0
LTYPE
  2
CENTER
 70
    64
  3
____ _ ____ _ ____ _ ____ _ ____ _ ____ _ ____
 72
    65
 73
     4
 40
0.000880
 49
0.000550
 49
-0.000110
 49
0.000110
 49
-0.000110
  0
LTYPE
  2
PHANTOM
 70
    64
  3
_____ _ _ _____ _ _ _____ _ _ _____ _ _ ____
 72
    65
 73
     6
 40
0.001100
 49
0.000550
 49
-0.000110
 49
0.000110
 49
-0.000110
 49
0.000110
 49
-0.000110
  0
LTYPE
  2
DOT
 70
    64
  3
...............................................
 72
    65
 73
     2
 40
0.000110
 49
0.000000
 49
-0.000110
  0
LTYPE
  2
DASHDOT
 70
    64
  3
__ . __ . __ . __ . __ . __ . __ . __ . __ . __
 72
    65
 73
     4
 40
0.000440
 49
0.000220
 49
-0.000110
 49
0.000000
 49
-0.000110
  0
LTYPE
  2
BORDER
 70
    64
  3
__ __ . __ __ . __ __ . __ __ . __ __ . __ __
 72
    65
 73
     6
 40
0.000770
 49
0.000220
 49
-0.000110
 49
0.000220
 49
-0.000110
 49
0.000000
 49
-0.000110
  0
LTYPE
  2
DIVIDE
 70
    64
  3
__ . . __ . . __ . . __ . . __ . . __ . . __
 72
    65
 73
     6
 40
0.000550
 49
0.000220
 49
-0.000110
 49
0.000000
 49
-0.000110
 49
0.000000
 49
-0.000110
  0
LTYPE
  2
DOTDOT
 70
    64
  3
 . .  . .  . .  . .  . .  . . 
 72
    65
 73
     5
 40
0.000242
 49
-0.000110
 49
0.000000
 49
-0.000110
 49
0.000000
 49
-0.000110
  0
ENDTAB
  0
TABLE
  2
STYLE
 70
     2
  0
STYLE
 70
     0
  2
SN0
 40
0.000000
 41
0.000440
 50
0.000000
 71
     0
 42
0.000000
  3
ROMAND
  0
STYLE
 70
    68
  2
SV0
 40
0.000000
 41
0.000440
 50
0.000000
 71
     0
 42
0.000000
  3
ROMAND
  0
ENDTAB
  0
TABLE
  2
LAYER
 70
     3
  0
LAYER
  2
FOREGROUND
 70
    64
 62
     7
  6
CONTINUOUS
  0
LAYER
  2
BACKGROUND
 70
    65
 62
    -7
  6
CONTINUOUS
  0
LAYER
  2
0
 70
    64
 62
     7
  6
CONTINUOUS
  0
ENDTAB
  0
ENDSEC
  0
SECTION
  2
ENTITIES
  0
POLYLINE
  8
FOREGROUND
  6
CONTINUOUS
 66
     1
 40
0.000000
 41
0.000000
  0
VERTEX
  8
FOREGROUND
  6
CONTINUOUS
 10
0.000000
 20
4.385040
  0
VERTEX
  8
FOREGROUND
  6
CONTINUOUS
 10
8.499920
 20
4.385040
  0
VERTEX
  8
FOREGROUND
  6
CONTINUOUS
 10
8.499920
 20
-6.614960
  0
VERTEX
  8
FOREGROUND
  6
CONTINUOUS
 10
0.000000
 20
-6.614960
  0
VERTEX
  8
FOREGROUND
  6
CONTINUOUS
 10
0.000000
 20
4.385040
  0
SEQEND
  8
0
  0
POLYLINE
  8
FOREGROUND
  6
CONTINUOUS
 66
     1
 40
0.000000
 41
0.000000
  0
VERTEX
  8
FOREGROUND
  6
CONTINUOUS
 10
0.000000
 20
4.385040
  0
VERTEX
  8
FOREGROUND
  6
CONTINUOUS
 10
8.499920
 20
4.385040
  0
VERTEX
  8
FOREGROUND
  6
CONTINUOUS
 10
8.499920
 20
-6.614960
  0
VERTEX
  8
FOREGROUND
  6
CONTINUOUS
 10
0.000000
 20
-6.614960
  0
VERTEX
  8
FOREGROUND
  6
CONTINUOUS
 10
0.000000
 20
4.385040
  0
SEQEND
  8
0
  0
SOLID
  8
0
 62
    15
 10
4.150960
 20
2.829200
 11
4.792480
 21
2.460480
 12
4.126320
 22
2.816440
 13
4.767840
 23
2.447720
  0
POLYLINE
  8
0
  6
CONTINUOUS
 66
     1
 40
0.000000
 41
0.000000
  0
VERTEX
  8
0
  6
CONTINUOUS
 10
4.150960
 20
2.829200
  0
VERTEX
  8
0
  6
CONTINUOUS
 10
4.792480
 20
2.460480
  0
VERTEX
  8
0
  6
CONTINUOUS
 10
4.767840
 20
2.447720
  0
VERTEX
  8
0
  6
CONTINUOUS
 10
4.126320
 20
2.816440
  0
VERTEX
  8
0
  6
CONTINUOUS
 10
4.150960
 20
2.829200
  0
SEQEND
  8
0
  0
SOLID
  8
0
 62
    15
 10
4.379320
 20
3.522200
 11
5.021280
 21
3.153040
 12
4.426400
 22
3.483040
 13
5.068360
 23
3.114320
  0
POLYLINE
  8
0
  6
CONTINUOUS
 66
     1
 40
0.000000
 41
0.000000
  0
VERTEX
  8
0
  6
CONTINUOUS
 10
4.379320
 20
3.522200
  0
VERTEX
  8
0
  6
CONTINUOUS
 10
5.021280
 20
3.153040
  0
VERTEX
  8
0
  6
CONTINUOUS
 10
5.068360
 20
3.114320
  0
VERTEX
  8
0
  6
CONTINUOUS
 10
4.426400
 20
3.483040
  0
VERTEX
  8
0
  6
CONTINUOUS
 10
4.379320
 20
3.522200
  0
SEQEND
  8
0
  0
SOLID
  8
0
 62
    15
 10
4.426400
 20
3.483040
 11
5.068360
 21
3.114320
 12
4.465560
 22
3.435960
 13
5.107080
 23
3.067240
  0
POLYLINE
  8
0
  6
CONTINUOUS
 66
     1
 40
0.000000
 41
0.000000
  0
VERTEX
  8
0
  6
CONTINUOUS
 10
4.426400
 20
3.483040
  0
VERTEX
  8
0
  6
CONTINUOUS
 10
5.068360
 20
3.114320
  0
VERTEX
  8
0
  6
CONTINUOUS
 10
5.107080
 20
3.067240
  0
VERTEX
  8
0
  6
CONTINUOUS
 10
4.465560
 20
3.435960
  0
VERTEX
  8
0
  6
CONTINUOUS
 10
4.426400
 20
3.483040
  0
SEQEND
  8
0
  0
SOLID
  8
0
 62
    15
 10
4.465560
 20
3.435960
 11
5.107080
 21
3.067240
 12
4.494600
 22
3.381840
 13
5.136560
 23
3.013120
  0
POLYLINE
  8
0
  6
CONTINUOUS
 66
     1
 40
0.000000
 41
0.000000
  0
VERTEX
  8
0
  6
CONTINUOUS
 10
4.465560
 20
3.435960
  0
VERTEX
  8
0
  6
CONTINUOUS
 10
5.107080
 20
3.067240
  0
VERTEX
  8
0
  6
CONTINUOUS
 10
5.136560
 20
3.013120
  0
VERTEX
  8
0
  6
CONTINUOUS
 10
4.494600
 20
3.381840
  0
VERTEX
  8
0
  6
CONTINUOUS
 10
4.465560
 20
3.435960
  0
SEQEND
  8
0
  0
SOLID
  8
0
 62
    15
 10
4.494600
 20
3.381840
 11
5.136560
 21
3.013120
 12
4.513520
 22
3.322440
 13
5.155040
 23
2.953280
  0
POLYLINE
  8
0
  6
CONTINUOUS
 66
     1
 40
0.000000
 41
0.000000
  0
VERTEX
  8
0
  6
CONTINUOUS
 10
4.494600
 20
3.381840
  0
VERTEX
  8
0
  6
CONTINUOUS
 10
5.136560
 20
3.013120
  0
VERTEX
  8
0
  6
CONTINUOUS
 10
5.155040
 20
2.953280
  0
VERTEX
  8
0
  6
CONTINUOUS
 10
4.513520
 20
3.322440
  0
VERTEX
  8
0
  6
CONTINUOUS
 10
4.494600
 20
3.381840
  0
SEQEND
  8
0
  0
SOLID
  8
0
 62
    15
 10
4.513520
 20
3.322440
 11
5.155040
 21
2.953280
 12
4.519680
 22
3.258200
 13
5.161200
 23
2.889040
  0
POLYLINE
  8
0
  6
CONTINUOUS
 66
     1
 40
0.000000
 41
0.000000
  0
VERTEX
  8
0
  6
CONTINUOUS
 10
4.513520
 20
3.322440
  0
VERTEX
  8
0
  6
CONTINUOUS
 10
5.155040
 20
2.953280
  0
VERTEX
  8
0
  6
CONTINUOUS
 10
5.161200
 20
2.889040
  0
VERTEX
  8
0
  6
CONTINUOUS
 10
4.519680
 20
3.258200
  0
VERTEX
  8
0
  6
CONTINUOUS
 10
4.513520
 20
3.322440
  0
SEQEND
  8
0
  0
SOLID
  8
0
 62
    15
 10
4.519680
 20
3.258200
 11
5.161200
 21
2.889040
 12
4.513520
 22
3.197040
 13
5.155480
 23
2.828320
  0
POLYLINE
  8
0
  6
CONTINUOUS
 66
     1
 40
0.000000
 41
0.000000
  0
VERTEX
  8
0
  6
CONTINUOUS
 10
4.519680
 20
3.258200
  0
VERTEX
  8
0
  6
CONTINUOUS
 10
5.161200
 20
2.889040
  0
VERTEX
  8
0
  6
CONTINUOUS
 10
5.155480
 20
2.828320
  0
VERTEX
  8
0
  6
CONTINUOUS
 10
4.513520
 20
3.197040
  0
VERTEX
  8
0
  6
CONTINUOUS
 10
4.519680
 20
3.258200
  0
SEQEND
  8
0
  0
SOLID
  8
0
 62
    15
 10
4.513520
 20
3.197040
 11
5.155480
 21
2.828320
 12
4.496360
 22
3.139840
 13
5.137880
 23
2.771120
  0
POLYLINE
  8
0
  6
CONTINUOUS
 66
     1
 40
0.000000
 41
0.000000
  0
VERTEX
  8
0
  6
CONTINUOUS
 10
4.513520
 20
3.197040
  0
VERTEX
  8
0
  6
CONTINUOUS
 10
5.155480
 20
2.828320
  0
VERTEX
  8
0
  6
CONTINUOUS
 10
5.137880
 20
2.771120
  0
VERTEX
  8
0
  6
CONTINUOUS
 10
4.496360
 20
3.139840
  0
VERTEX
  8
0
  6
CONTINUOUS
 10
4.513520
 20
3.197040
  0
SEQEND
  8
0
  0
SOLID
  8
0
 62
    15
 10
4.496360
 20
3.139840
 11
5.137880
 21
2.771120
 12
4.469080
 22
3.087480
 13
5.110600
 23
2.718760
  0
POLYLINE
  8
0
  6
CONTINUOUS
 66
     1
 40
0.000000
 41
0.000000
  0
VERTEX
  8
0
  6
CONTINUOUS
 10
4.496360
 20
3.139840
  0
VERTEX
  8
0
  6
CONTINUOUS
 10
5.137880
 20
2.771120
  0
VERTEX
  8
0
  6
CONTINUOUS
 10
5.110600
 20
2.718760
  0
VERTEX
  8
0
  6
CONTINUOUS
 10
4.469080
 20
3.087480
  0
VERTEX
  8
0
  6
CONTINUOUS
 10
4.496360
 20
3.139840
  0
SEQEND
  8
0
  0
SOLID
  8
0
 62
    15
 10
4.469080
 20
3.087480
 11
5.110600
 21
2.718760
 12
4.432560
 22
3.041280
 13
5.074080
 23
2.672560
  0
POLYLINE
  8
0
  6
CONTINUOUS
 66
     1
 40
0.000000
 41
0.000000
  0
VERTEX
  8
0
  6
CONTINUOUS
 10
4.469080
 20
3.087480
  0
VERTEX
  8
0
  6
CONTINUOUS
 10
5.110600
 20
2.718760
  0
VERTEX
  8
0
  6
CONTINUOUS
 10
5.074080
 20
2.672560
  0
VERTEX
  8
0
  6
CONTINUOUS
 10
4.432560
 20
3.041280
  0
VERTEX
  8
0
  6
CONTINUOUS
 10
4.469080
 20
3.087480
  0
SEQEND
  8
0
  0
SOLID
  8
0
 62
    15
 10
4.432560
 20
3.041280
 11
5.074080
 21
2.672560
 12
4.389000
 22
3.002560
 13
5.030520
 23
2.633400
  0
POLYLINE
  8
0
  6
CONTINUOUS
 66
     1
 40
0.000000
 41
0.000000
  0
VERTEX
  8
0
  6
CONTINUOUS
 10
4.432560
 20
3.041280
  0
VERTEX
  8
0
  6
CONTINUOUS
 10
5.074080
 20
2.672560
  0
VERTEX
  8
0
  6
CONTINUOUS
 10
5.030520
 20
2.633400
  0
VERTEX
  8
0
  6
CONTINUOUS
 10
4.389000
 20
3.002560
  0
VERTEX
  8
0
  6
CONTINUOUS
 10
4.432560
 20
3.041280
  0
SEQEND
  8
0
  0
SOLID
  8
0
 62
    15
 10
4.389000
 20
3.002560
 11
5.030520
 21
2.633400
 12
4.338840
 22
2.971760
 13
4.980360
 23
2.603040
  0
POLYLINE
  8
0
  6
CONTINUOUS
 66
     1
 40
0.000000
 41
0.000000
  0
VERTEX
  8
0
  6
CONTINUOUS
 10
4.389000
 20
3.002560
  0
VERTEX
  8
0
  6
CONTINUOUS
 10
5.030520
 20
2.633400
  0
VERTEX
  8
0
  6
CONTINUOUS
 10
4.980360
 20
2.603040
  0
VERTEX
  8
0
  6
CONTINUOUS
 10
4.338840
 20
2.971760
  0
VERTEX
  8
0
  6
CONTINUOUS
 10
4.389000
 20
3.002560
  0
SEQEND
  8
0
  0
SOLID
  8
0
 62
    15
 10
4.338840
 20
2.971760
 11
4.980360
 21
2.603040
 12
4.283400
 22
2.951080
 13
4.924920
 23
2.581920
  0
POLYLINE
  8
0
  6
CONTINUOUS
 66
     1
 40
0.000000
 41
0.000000
  0
VERTEX
  8
0
  6
CONTINUOUS
 10
4.338840
 20
2.971760
  0
VERTEX
  8
0
  6
CONTINUOUS
 10
4.980360
 20
2.603040
  0
VERTEX
  8
0
  6
CONTINUOUS
 10
4.924920
 20
2.581920
  0
VERTEX
  8
0
  6
CONTINUOUS
 10
4.283400
 20
2.951080
  0
VERTEX
  8
0
  6
CONTINUOUS
 10
4.338840
 20
2.971760
  0
SEQEND
  8
0
  0
SOLID
  8
0
 62
    15
 10
4.224000
 20
2.940960
 11
4.865520
 21
2.571800
 12
4.224000
 22
2.840200
 13
4.865520
 23
2.471480
  0
POLYLINE
  8
0
  6
CONTINUOUS
 66
     1
 40
0.000000
 41
0.000000
  0
VERTEX
  8
0
  6
CONTINUOUS
 10
4.224000
 20
2.940960
  0
VERTEX
  8
0
  6
CONTINUOUS
 10
4.865520
 20
2.571800
  0
VERTEX
  8
0
  6
CONTINUOUS
 10
4.865520
 20
2.471480
  0
VERTEX
  8
0
  6
CONTINUOUS
 10
4.224000
 20
2.840200
  0
VERTEX
  8
0
  6
CONTINUOUS
 10
4.224000
 20
2.940960
  0
SEQEND
  8
0
  0
SOLID
  8
0
 62
    15
 10
4.283400
 20
2.951080
 11
4.924920
 21
2.581920
 12
4.224000
 22
2.940520
 13
4.865960
 23
2.571800
  0
POLYLINE
  8
0
  6
CONTINUOUS
 66
     1
 40
0.000000
 41
0.000000
  0
VERTEX
  8
0
  6
CONTINUOUS
 10
4.283400
 20
2.951080
  0
VERTEX
  8
0
  6
CONTINUOUS
 10
4.924920
 20
2.581920
  0
VERTEX
  8
0
  6
CONTINUOUS
 10
4.865960
 20
2.571800
  0
VERTEX
  8
0
  6
CONTINUOUS
 10
4.224000
 20
2.940520
  0
VERTEX
  8
0
  6
CONTINUOUS
 10
4.283400
 20
2.951080
  0
SEQEND
  8
0
  0
SOLID
  8
0
 62
    15
 10
4.224000
 20
2.840200
 11
4.865520
 21
2.471480
 12
4.183520
 22
2.837560
 13
4.825040
 23
2.468400
  0
POLYLINE
  8
0
  6
CONTINUOUS
 66
     1
 40
0.000000
 41
0.000000
  0
VERTEX
  8
0
  6
CONTINUOUS
 10
4.224000
 20
2.840200
  0
VERTEX
  8
0
  6
CONTINUOUS
 10
4.865520
 20
2.471480
  0
VERTEX
  8
0
  6
CONTINUOUS
 10
4.825040
 20
2.468400
  0
VERTEX
  8
0
  6
CONTINUOUS
 10
4.183520
 20
2.837560
  0
VERTEX
  8
0
  6
CONTINUOUS
 10
4.224000
 20
2.840200
  0
SEQEND
  8
0
  0
SOLID
  8
0
 62
    15
 10
4.183520
 20
2.837560
 11
4.825040
 21
2.468400
 12
4.150960
 22
2.829200
 13
4.792480
 23
2.460480
  0
POLYLINE
  8
0
  6
CONTINUOUS
 66
     1
 40
0.000000
 41
0.000000
  0
VERTEX
  8
0
  6
CONTINUOUS
 10
4.183520
 20
2.837560
  0
VERTEX
  8
0
  6
CONTINUOUS
 10
4.825040
 20
2.468400
  0
VERTEX
  8
0
  6
CONTINUOUS
 10
4.792480
 20
2.460480
  0
VERTEX
  8
0
  6
CONTINUOUS
 10
4.150960
 20
2.829200
  0
VERTEX
  8
0
  6
CONTINUOUS
 10
4.183520
 20
2.837560
  0
SEQEND
  8
0
  0
SOLID
  8
0
 62
    15
 10
3.809520
 20
1.676840
 11
4.451040
 21
1.308120
 12
3.628240
 22
1.676840
 13
4.270200
 23
1.308120
  0
POLYLINE
  8
0
  6
CONTINUOUS
 66
     1
 40
0.000000
 41
0.000000
  0
VERTEX
  8
0
  6
CONTINUOUS
 10
3.809520
 20
1.676840
  0
VERTEX
  8
0
  6
CONTINUOUS
 10
4.451040
 20
1.308120
  0
VERTEX
  8
0
  6
CONTINUOUS
 10
4.270200
 20
1.308120
  0
VERTEX
  8
0
  6
CONTINUOUS
 10
3.628240
 20
1.676840
  0
VERTEX
  8
0
  6
CONTINUOUS
 10
3.809520
 20
1.676840
  0
SEQEND
  8
0
  0
SOLID
  8
0
 62
    15
 10
4.126320
 20
2.816440
 11
4.767840
 21
2.447720
 12
4.107840
 22
2.799720
 13
4.749360
 23
2.431000
  0
POLYLINE
  8
0
  6
CONTINUOUS
 66
     1
 40
0.000000
 41
0.000000
  0
VERTEX
  8
0
  6
CONTINUOUS
 10
4.126320
 20
2.816440
  0
VERTEX
  8
0
  6
CONTINUOUS
 10
4.767840
 20
2.447720
  0
VERTEX
  8
0
  6
CONTINUOUS
 10
4.749360
 20
2.431000
  0
VERTEX
  8
0
  6
CONTINUOUS
 10
4.107840
 20
2.799720
  0
VERTEX
  8
0
  6
CONTINUOUS
 10
4.126320
 20
2.816440
  0
SEQEND
  8
0
  0
SOLID
  8
0
 62
    15
 10
4.107840
 20
2.799720
 11
4.749360
 21
2.431000
 12
4.095080
 22
2.779040
 13
4.737040
 23
2.410320
  0
POLYLINE
  8
0
  6
CONTINUOUS
 66
     1
 40
0.000000
 41
0.000000
  0
VERTEX
  8
0
  6
CONTINUOUS
 10
4.107840
 20
2.799720
  0
VERTEX
  8
0
  6
CONTINUOUS
 10
4.749360
 20
2.431000
  0
VERTEX
  8
0
  6
CONTINUOUS
 10
4.737040
 20
2.410320
  0
VERTEX
  8
0
  6
CONTINUOUS
 10
4.095080
 20
2.779040
  0
VERTEX
  8
0
  6
CONTINUOUS
 10
4.107840
 20
2.799720
  0
SEQEND
  8
0
  0
SOLID
  8
0
 62
    15
 10
4.095080
 20
2.779040
 11
4.737040
 21
2.410320
 12
4.087600
 22
2.755720
 13
4.729120
 23
2.386560
  0
POLYLINE
  8
0
  6
CONTINUOUS
 66
     1
 40
0.000000
 41
0.000000
  0
VERTEX
  8
0
  6
CONTINUOUS
 10
4.095080
 20
2.779040
  0
VERTEX
  8
0
  6
CONTINUOUS
 10
4.737040
 20
2.410320
  0
VERTEX
  8
0
  6
CONTINUOUS
 10
4.729120
 20
2.386560
  0
VERTEX
  8
0
  6
CONTINUOUS
 10
4.087600
 20
2.755720
  0
VERTEX
  8
0
  6
CONTINUOUS
 10
4.095080
 20
2.779040
  0
SEQEND
  8
0
  0
SOLID
  8
0
 62
    15
 10
4.087600
 20
2.755720
 11
4.729120
 21
2.386560
 12
4.082320
 22
2.701160
 13
4.723840
 23
2.332000
  0
POLYLINE
  8
0
  6
CONTINUOUS
 66
     1
 40
0.000000
 41
0.000000
  0
VERTEX
  8
0
  6
CONTINUOUS
 10
4.087600
 20
2.755720
  0
VERTEX
  8
0
  6
CONTINUOUS
 10
4.729120
 20
2.386560
  0
VERTEX
  8
0
  6
CONTINUOUS
 10
4.723840
 20
2.332000
  0
VERTEX
  8
0
  6
CONTINUOUS
 10
4.082320
 20
2.701160
  0
VERTEX
  8
0
  6
CONTINUOUS
 10
4.087600
 20
2.755720
  0
SEQEND
  8
0
  0
SOLID
  8
0
 62
    15
 10
4.082320
 20
2.701160
 11
4.723840
 21
2.332000
 12
4.082320
 22
2.255880
 13
4.723840
 23
1.886720
  0
POLYLINE
  8
0
  6
CONTINUOUS
 66
     1
 40
0.000000
 41
0.000000
  0
VERTEX
  8
0
  6
CONTINUOUS
 10
4.082320
 20
2.701160
  0
VERTEX
  8
0
  6
CONTINUOUS
 10
4.723840
 20
2.332000
  0
VERTEX
  8
0
  6
CONTINUOUS
 10
4.723840
 20
1.886720
  0
VERTEX
  8
0
  6
CONTINUOUS
 10
4.082320
 20
2.255880
  0
VERTEX
  8
0
  6
CONTINUOUS
 10
4.082320
 20
2.701160
  0
SEQEND
  8
0
  0
SOLID
  8
0
 62
    15
 10
4.082320
 20
2.255880
 11
4.723840
 21
1.886720
 12
3.999160
 22
2.226400
 13
4.640680
 23
1.857240
  0
POLYLINE
  8
0
  6
CONTINUOUS
 66
     1
 40
0.000000
 41
0.000000
  0
VERTEX
  8
0
  6
CONTINUOUS
 10
4.082320
 20
2.255880
  0
VERTEX
  8
0
  6
CONTINUOUS
 10
4.723840
 20
1.886720
  0
VERTEX
  8
0
  6
CONTINUOUS
 10
4.640680
 20
1.857240
  0
VERTEX
  8
0
  6
CONTINUOUS
 10
3.999160
 20
2.226400
  0
VERTEX
  8
0
  6
CONTINUOUS
 10
4.082320
 20
2.255880
  0
SEQEND
  8
0
  0
SOLID
  8
0
 62
    15
 10
3.999160
 20
2.226400
 11
4.640680
 21
1.857240
 12
4.015000
 22
2.149840
 13
4.656520
 23
1.781120
  0
POLYLINE
  8
0
  6
CONTINUOUS
 66
     1
 40
0.000000
 41
0.000000
  0
VERTEX
  8
0
  6
CONTINUOUS
 10
3.999160
 20
2.226400
  0
VERTEX
  8
0
  6
CONTINUOUS
 10
4.640680
 20
1.857240
  0
VERTEX
  8
0
  6
CONTINUOUS
 10
4.656520
 20
1.781120
  0
VERTEX
  8
0
  6
CONTINUOUS
 10
4.015000
 20
2.149840
  0
VERTEX
  8
0
  6
CONTINUOUS
 10
3.999160
 20
2.226400
  0
SEQEND
  8
0
  0
SOLID
  8
0
 62
    15
 10
4.015000
 20
2.149840
 11
4.656520
 21
1.781120
 12
4.020280
 22
2.077680
 13
4.661800
 23
1.708960
  0
POLYLINE
  8
0
  6
CONTINUOUS
 66
     1
 40
0.000000
 41
0.000000
  0
VERTEX
  8
0
  6
CONTINUOUS
 10
4.015000
 20
2.149840
  0
VERTEX
  8
0
  6
CONTINUOUS
 10
4.656520
 20
1.781120
  0
VERTEX
  8
0
  6
CONTINUOUS
 10
4.661800
 20
1.708960
  0
VERTEX
  8
0
  6
CONTINUOUS
 10
4.020280
 20
2.077680
  0
VERTEX
  8
0
  6
CONTINUOUS
 10
4.015000
 20
2.149840
  0
SEQEND
  8
0
  0
SOLID
  8
0
 62
    15
 10
4.020280
 20
2.077680
 11
4.661800
 21
1.708960
 12
4.014560
 22
2.010800
 13
4.656080
 23
1.642080
  0
POLYLINE
  8
0
  6
CONTINUOUS
 66
     1
 40
0.000000
 41
0.000000
  0
VERTEX
  8
0
  6
CONTINUOUS
 10
4.020280
 20
2.077680
  0
VERTEX
  8
0
  6
CONTINUOUS
 10
4.661800
 20
1.708960
  0
VERTEX
  8
0
  6
CONTINUOUS
 10
4.656080
 20
1.642080
  0
VERTEX
  8
0
  6
CONTINUOUS
 10
4.014560
 20
2.010800
  0
VERTEX
  8
0
  6
CONTINUOUS
 10
4.020280
 20
2.077680
  0
SEQEND
  8
0
  0
SOLID
  8
0
 62
    15
 10
4.014560
 20
2.010800
 11
4.656080
 21
1.642080
 12
3.997400
 22
1.950520
 13
4.638920
 23
1.581800
  0
POLYLINE
  8
0
  6
CONTINUOUS
 66
     1
 40
0.000000
 41
0.000000
  0
VERTEX
  8
0
  6
CONTINUOUS
 10
4.014560
 20
2.010800
  0
VERTEX
  8
0
  6
CONTINUOUS
 10
4.656080
 20
1.642080
  0
VERTEX
  8
0
  6
CONTINUOUS
 10
4.638920
 20
1.581800
  0
VERTEX
  8
0
  6
CONTINUOUS
 10
3.997400
 20
1.950520
  0
VERTEX
  8
0
  6
CONTINUOUS
 10
4.014560
 20
2.010800
  0
SEQEND
  8
0
  0
SOLID
  8
0
 62
    15
 10
3.997400
 20
1.950520
 11
4.638920
 21
1.581800
 12
3.968800
 22
1.897720
 13
4.610320
 23
1.528560
  0
POLYLINE
  8
0
  6
CONTINUOUS
 66
     1
 40
0.000000
 41
0.000000
  0
VERTEX
  8
0
  6
CONTINUOUS
 10
3.997400
 20
1.950520
  0
VERTEX
  8
0
  6
CONTINUOUS
 10
4.638920
 20
1.581800
  0
VERTEX
  8
0
  6
CONTINUOUS
 10
4.610320
 20
1.528560
  0
VERTEX
  8
0
  6
CONTINUOUS
 10
3.968800
 20
1.897720
  0
VERTEX
  8
0
  6
CONTINUOUS
 10
3.997400
 20
1.950520
  0
SEQEND
  8
0
  0
SOLID
  8
0
 62
    15
 10
3.968800
 20
1.897720
 11
4.610320
 21
1.528560
 12
3.927880
 22
1.852840
 13
4.569400
 23
1.484120
  0
POLYLINE
  8
0
  6
CONTINUOUS
 66
     1
 40
0.000000
 41
0.000000
  0
VERTEX
  8
0
  6
CONTINUOUS
 10
3.968800
 20
1.897720
  0
VERTEX
  8
0
  6
CONTINUOUS
 10
4.610320
 20
1.528560
  0
VERTEX
  8
0
  6
CONTINUOUS
 10
4.569400
 20
1.484120
  0
VERTEX
  8
0
  6
CONTINUOUS
 10
3.927880
 20
1.852840
  0
VERTEX
  8
0
  6
CONTINUOUS
 10
3.968800
 20
1.897720
  0
SEQEND
  8
0
  0
SOLID
  8
0
 62
    15
 10
3.927880
 20
1.852840
 11
4.569400
 21
1.484120
 12
3.875080
 22
1.817640
 13
4.516600
 23
1.448480
  0
POLYLINE
  8
0
  6
CONTINUOUS
 66
     1
 40
0.000000
 41
0.000000
  0
VERTEX
  8
0
  6
CONTINUOUS
 10
3.927880
 20
1.852840
  0
VERTEX
  8
0
  6
CONTINUOUS
 10
4.569400
 20
1.484120
  0
VERTEX
  8
0
  6
CONTINUOUS
 10
4.516600
 20
1.448480
  0
VERTEX
  8
0
  6
CONTINUOUS
 10
3.875080
 20
1.817640
  0
VERTEX
  8
0
  6
CONTINUOUS
 10
3.927880
 20
1.852840
  0
SEQEND
  8
0
  0
SOLID
  8
0
 62
    15
 10
3.875080
 20
1.817640
 11
4.516600
 21
1.448480
 12
3.809080
 22
1.792560
 13
4.450600
 23
1.423840
  0
POLYLINE
  8
0
  6
CONTINUOUS
 66
     1
 40
0.000000
 41
0.000000
  0
VERTEX
  8
0
  6
CONTINUOUS
 10
3.875080
 20
1.817640
  0
VERTEX
  8
0
  6
CONTINUOUS
 10
4.516600
 20
1.448480
  0
VERTEX
  8
0
  6
CONTINUOUS
 10
4.450600
 20
1.423840
  0
VERTEX
  8
0
  6
CONTINUOUS
 10
3.809080
 20
1.792560
  0
VERTEX
  8
0
  6
CONTINUOUS
 10
3.875080
 20
1.817640
  0
SEQEND
  8
0
  0
SOLID
  8
0
 62
    15
 10
3.809080
 20
1.792560
 11
4.450600
 21
1.423840
 12
3.809080
 22
1.677720
 13
4.450600
 23
1.308560
  0
POLYLINE
  8
0
  6
CONTINUOUS
 66
     1
 40
0.000000
 41
0.000000
  0
VERTEX
  8
0
  6
CONTINUOUS
 10
3.809080
 20
1.792560
  0
VERTEX
  8
0
  6
CONTINUOUS
 10
4.450600
 20
1.423840
  0
VERTEX
  8
0
  6
CONTINUOUS
 10
4.450600
 20
1.308560
  0
VERTEX
  8
0
  6
CONTINUOUS
 10
3.809080
 20
1.677720
  0
VERTEX
  8
0
  6
CONTINUOUS
 10
3.809080
 20
1.792560
  0
SEQEND
  8
0
  0
SOLID
  8
0
 62
    15
 10
3.809080
 20
1.677720
 11
4.450600
 21
1.308560
 12
3.809520
 22
1.676840
 13
4.451040
 23
1.308120
  0
POLYLINE
  8
0
  6
CONTINUOUS
 66
     1
 40
0.000000
 41
0.000000
  0
VERTEX
  8
0
  6
CONTINUOUS
 10
3.809080
 20
1.677720
  0
VERTEX
  8
0
  6
CONTINUOUS
 10
4.450600
 20
1.308560
  0
VERTEX
  8
0
  6
CONTINUOUS
 10
4.451040
 20
1.308120
  0
VERTEX
  8
0
  6
CONTINUOUS
 10
3.809520
 20
1.676840
  0
VERTEX
  8
0
  6
CONTINUOUS
 10
3.809080
 20
1.677720
  0
SEQEND
  8
0
  0
POLYLINE
  8
0
  6
CONTINUOUS
 66
     1
 40
0.000000
 41
0.000000
  0
VERTEX
  8
0
  6
CONTINUOUS
 10
3.809520
 20
1.676840
  0
VERTEX
  8
0
  6
CONTINUOUS
 10
3.628240
 20
1.676840
  0
VERTEX
  8
0
  6
CONTINUOUS
 10
3.628240
 20
3.304400
  0
VERTEX
  8
0
  6
CONTINUOUS
 10
3.886520
 20
3.304400
  0
VERTEX
  8
0
  6
CONTINUOUS
 10
3.899720
 20
3.360720
  0
VERTEX
  8
0
  6
CONTINUOUS
 10
3.923040
 20
3.412640
  0
VERTEX
  8
0
  6
CONTINUOUS
 10
3.954280
 20
3.458840
  0
VERTEX
  8
0
  6
CONTINUOUS
 10
3.993440
 20
3.498880
  0
VERTEX
  8
0
  6
CONTINUOUS
 10
4.038760
 20
3.531440
  0
VERTEX
  8
0
  6
CONTINUOUS
 10
4.089360
 20
3.555640
  0
VERTEX
  8
0
  6
CONTINUOUS
 10
4.143920
 20
3.571040
  0
VERTEX
  8
0
  6
CONTINUOUS
 10
4.201560
 20
3.576320
  0
VERTEX
  8
0
  6
CONTINUOUS
 10
4.265800
 20
3.570160
  0
VERTEX
  8
0
  6
CONTINUOUS
 10
4.325200
 20
3.551240
  0
VERTEX
  8
0
  6
CONTINUOUS
 10
4.379320
 20
3.522200
  0
VERTEX
  8
0
  6
CONTINUOUS
 10
4.426400
 20
3.483040
  0
VERTEX
  8
0
  6
CONTINUOUS
 10
4.465560
 20
3.435960
  0
VERTEX
  8
0
  6
CONTINUOUS
 10
4.494600
 20
3.381840
  0
VERTEX
  8
0
  6
CONTINUOUS
 10
4.513520
 20
3.322440
  0
VERTEX
  8
0
  6
CONTINUOUS
 10
4.519680
 20
3.258200
  0
VERTEX
  8
0
  6
CONTINUOUS
 10
4.513520
 20
3.197040
  0
VERTEX
  8
0
  6
CONTINUOUS
 10
4.496360
 20
3.139840
  0
VERTEX
  8
0
  6
CONTINUOUS
 10
4.469080
 20
3.087480
  0
VERTEX
  8
0
  6
CONTINUOUS
 10
4.432560
 20
3.041280
  0
VERTEX
  8
0
  6
CONTINUOUS
 10
4.389000
 20
3.002560
  0
VERTEX
  8
0
  6
CONTINUOUS
 10
4.338840
 20
2.971760
  0
VERTEX
  8
0
  6
CONTINUOUS
 10
4.283400
 20
2.951080
  0
VERTEX
  8
0
  6
CONTINUOUS
 10
4.224000
 20
2.940520
  0
VERTEX
  8
0
  6
CONTINUOUS
 10
4.224000
 20
2.940960
  0
VERTEX
  8
0
  6
CONTINUOUS
 10
4.224000
 20
2.840200
  0
VERTEX
  8
0
  6
CONTINUOUS
 10
4.183520
 20
2.837560
  0
VERTEX
  8
0
  6
CONTINUOUS
 10
4.150960
 20
2.829200
  0
VERTEX
  8
0
  6
CONTINUOUS
 10
4.126320
 20
2.816440
  0
VERTEX
  8
0
  6
CONTINUOUS
 10
4.107840
 20
2.799720
  0
VERTEX
  8
0
  6
CONTINUOUS
 10
4.095080
 20
2.779040
  0
VERTEX
  8
0
  6
CONTINUOUS
 10
4.087600
 20
2.755720
  0
VERTEX
  8
0
  6
CONTINUOUS
 10
4.082320
 20
2.701160
  0
VERTEX
  8
0
  6
CONTINUOUS
 10
4.082320
 20
2.255880
  0
VERTEX
  8
0
  6
CONTINUOUS
 10
3.999160
 20
2.226400
  0
VERTEX
  8
0
  6
CONTINUOUS
 10
4.015000
 20
2.149840
  0
VERTEX
  8
0
  6
CONTINUOUS
 10
4.020280
 20
2.077680
  0
VERTEX
  8
0
  6
CONTINUOUS
 10
4.014560
 20
2.010800
  0
VERTEX
  8
0
  6
CONTINUOUS
 10
3.997400
 20
1.950520
  0
VERTEX
  8
0
  6
CONTINUOUS
 10
3.968800
 20
1.897720
  0
VERTEX
  8
0
  6
CONTINUOUS
 10
3.927880
 20
1.852840
  0
VERTEX
  8
0
  6
CONTINUOUS
 10
3.875080
 20
1.817640
  0
VERTEX
  8
0
  6
CONTINUOUS
 10
3.809080
 20
1.792560
  0
VERTEX
  8
0
  6
CONTINUOUS
 10
3.809080
 20
1.677720
  0
VERTEX
  8
0
  6
CONTINUOUS
 10
3.809520
 20
1.676840
  0
SEQEND
  8
0
  0
TEXT
  8
0
 10
4.027320
 20
1.042360
 40
0.138112
  1
BA  1141
 41
1.000000
  7
SN0
 71
     0
 72
     5
 11
4.709620
 21
1.042360
  0
TEXT
  8
0
 10
3.779160
 20
0.850960
 40
0.138112
  1
7/8" x 1 - 15/16" 
 41
1.000000
  7
SN0
 71
     0
 72
     5
 11
5.001552
 21
0.850960
  0
POLYLINE
  8
0
  6
CONTINUOUS
 66
     1
 40
0.014080
 41
0.014080
  0
VERTEX
  8
0
  6
CONTINUOUS
 10
7.377040
 20
1.978680
  0
VERTEX
  8
0
  6
CONTINUOUS
 10
7.262200
 20
1.978680
  0
VERTEX
  8
0
  6
CONTINUOUS
 10
7.251200
 20
2.013000
  0
VERTEX
  8
0
  6
CONTINUOUS
 10
7.237120
 20
2.044680
  0
VERTEX
  8
0
  6
CONTINUOUS
 10
7.211600
 20
2.085600
  0
VERTEX
  8
0
  6
CONTINUOUS
 10
7.180800
 20
2.119480
  0
VERTEX
  8
0
  6
CONTINUOUS
 10
7.157040
 20
2.138400
  0
VERTEX
  8
0
  6
CONTINUOUS
 10
7.131520
 20
2.154240
  0
VERTEX
  8
0
  6
CONTINUOUS
 10
7.104240
 20
2.167000
  0
VERTEX
  8
0
  6
CONTINUOUS
 10
7.074760
 20
2.177120
  0
VERTEX
  8
0
  6
CONTINUOUS
 10
7.043960
 20
2.184160
  0
VERTEX
  8
0
  6
CONTINUOUS
 10
6.994240
 20
2.189440
  0
VERTEX
  8
0
  6
CONTINUOUS
 10
6.959480
 20
2.189440
  0
VERTEX
  8
0
  6
CONTINUOUS
 10
6.923400
 20
2.186800
  0
VERTEX
  8
0
  6
CONTINUOUS
 10
6.867080
 20
2.178000
  0
VERTEX
  8
0
  6
CONTINUOUS
 10
6.828360
 20
2.168760
  0
VERTEX
  8
0
  6
CONTINUOUS
 10
6.798880
 20
2.251920
  0
VERTEX
  8
0
  6
CONTINUOUS
 10
6.339080
 20
2.252360
  0
VERTEX
  8
0
  6
CONTINUOUS
 10
6.311800
 20
2.254560
  0
VERTEX
  8
0
  6
CONTINUOUS
 10
6.287160
 20
2.260720
  0
VERTEX
  8
0
  6
CONTINUOUS
 10
6.264720
 20
2.270840
  0
VERTEX
  8
0
  6
CONTINUOUS
 10
6.246240
 20
2.286240
  0
VERTEX
  8
0
  6
CONTINUOUS
 10
6.231280
 20
2.307360
  0
VERTEX
  8
0
  6
CONTINUOUS
 10
6.220720
 20
2.335960
  0
VERTEX
  8
0
  6
CONTINUOUS
 10
6.216320
 20
2.362360
  0
VERTEX
  8
0
  6
CONTINUOUS
 10
6.214560
 20
2.393600
  0
VERTEX
  8
0
  6
CONTINUOUS
 10
6.113800
 20
2.393600
  0
VERTEX
  8
0
  6
CONTINUOUS
 10
6.110280
 20
2.423520
  0
VERTEX
  8
0
  6
CONTINUOUS
 10
6.103680
 20
2.453000
  0
VERTEX
  8
0
  6
CONTINUOUS
 10
6.088720
 20
2.494800
  0
VERTEX
  8
0
  6
CONTINUOUS
 10
6.068480
 20
2.533960
  0
VERTEX
  8
0
  6
CONTINUOUS
 10
6.043400
 20
2.570040
  0
VERTEX
  8
0
  6
CONTINUOUS
 10
6.013480
 20
2.602160
  0
VERTEX
  8
0
  6
CONTINUOUS
 10
5.979160
 20
2.630320
  0
VERTEX
  8
0
  6
CONTINUOUS
 10
5.954520
 20
2.646160
  0
VERTEX
  8
0
  6
CONTINUOUS
 10
5.914920
 20
2.665960
  0
VERTEX
  8
0
  6
CONTINUOUS
 10
5.872240
 20
2.680040
  0
VERTEX
  8
0
  6
CONTINUOUS
 10
5.827360
 20
2.687960
  0
VERTEX
  8
0
  6
CONTINUOUS
 10
5.796560
 20
2.689280
  0
VERTEX
  8
0
  6
CONTINUOUS
 10
5.764000
 20
2.687520
  0
VERTEX
  8
0
  6
CONTINUOUS
 10
5.732320
 20
2.682680
  0
VERTEX
  8
0
  6
CONTINUOUS
 10
5.701960
 20
2.674760
  0
VERTEX
  8
0
  6
CONTINUOUS
 10
5.658840
 20
2.658040
  0
VERTEX
  8
0
  6
CONTINUOUS
 10
5.618800
 20
2.634720
  0
VERTEX
  8
0
  6
CONTINUOUS
 10
5.594160
 20
2.616680
  0
VERTEX
  8
0
  6
CONTINUOUS
 10
5.561160
 20
2.585000
  0
VERTEX
  8
0
  6
CONTINUOUS
 10
5.541800
 20
2.561240
  0
VERTEX
  8
0
  6
CONTINUOUS
 10
5.516720
 20
2.522520
  0
VERTEX
  8
0
  6
CONTINUOUS
 10
5.497800
 20
2.480280
  0
VERTEX
  8
0
  6
CONTINUOUS
 10
5.488560
 20
2.450800
  0
VERTEX
  8
0
  6
CONTINUOUS
 10
5.481960
 20
2.419560
  0
VERTEX
  8
0
  6
CONTINUOUS
 10
5.478880
 20
2.387440
  0
VERTEX
  8
0
  6
CONTINUOUS
 10
5.478880
 20
2.356640
  0
VERTEX
  8
0
  6
CONTINUOUS
 10
5.481520
 20
2.327600
  0
VERTEX
  8
0
  6
CONTINUOUS
 10
5.490320
 20
2.285800
  0
VERTEX
  8
0
  6
CONTINUOUS
 10
5.504400
 20
2.245760
  0
VERTEX
  8
0
  6
CONTINUOUS
 10
5.523320
 20
2.208360
  0
VERTEX
  8
0
  6
CONTINUOUS
 10
5.538720
 20
2.185040
  0
VERTEX
  8
0
  6
CONTINUOUS
 10
5.555880
 20
2.163040
  0
VERTEX
  8
0
  6
CONTINUOUS
 10
5.595920
 20
2.123880
  0
VERTEX
  8
0
  6
CONTINUOUS
 10
5.618360
 20
2.107160
  0
VERTEX
  8
0
  6
CONTINUOUS
 10
5.654440
 20
2.085600
  0
VERTEX
  8
0
  6
CONTINUOUS
 10
5.694040
 20
2.069320
  0
VERTEX
  8
0
  6
CONTINUOUS
 10
5.735840
 20
2.058320
  0
VERTEX
  8
0
  6
CONTINUOUS
 10
5.750360
 20
2.056120
  0
VERTEX
  8
0
  6
CONTINUOUS
 10
5.750360
 20
1.798280
  0
VERTEX
  8
0
  6
CONTINUOUS
 10
7.377920
 20
1.798280
  0
VERTEX
  8
0
  6
CONTINUOUS
 10
7.377920
 20
1.979120
  0
VERTEX
  8
0
  6
CONTINUOUS
 10
7.377040
 20
1.978680
  0
SEQEND
  8
0
  0
TEXT
  8
0
 10
5.940880
 20
1.577400
 40
0.138112
  1
BA  1141
 41
1.000000
  7
SN0
 71
     0
 72
     5
 11
6.623180
 21
1.577400
  0
TEXT
  8
0
 10
5.692720
 20
1.386000
 40
0.138112
  1
7/8" x 1 - 15/16" 
 41
1.000000
  7
SN0
 71
     0
 72
     5
 11
6.915112
 21
1.386000
  0
ENDSEC
  0
EOF
