  0
SECTION
  2
HEADER
  9
$ACADVER
  1
AC1006
  9
$EXTMIN
 10
2.252360
 20
1.363560
  9
$EXTMAX
 10
6.696360
 20
8.517080
  9
$LTSCALE
 40
0.044000
  9
$PDMODE
 70
    35
  9
$PDSIZE
 40
0.035200
  0
ENDSEC
  0
SECTION
  2
TABLES
  0
TABLE
  2
LTYPE
 70
     9
  0
LTYPE
  2
CONTINUOUS
 70
    64
  3
Solid line
 72
    65
 73
     0
 40
0.000000
  0
LTYPE
  2
DASHED
 70
    64
  3
__ __ __ __ __ __ __ __ __ __ __ __ __ __ __
 72
    65
 73
     2
 40
0.000330
 49
0.000220
 49
-0.000110
  0
LTYPE
  2
HIDDEN
 70
    64
  3
 _ _ _ _ _ _ _ _ _ _ _ _ _ _ _ _ _ _ _ _ _ _
 72
    65
 73
     2
 40
0.000165
 49
0.000110
 49
-0.000055
  0
LTYPE
  2
CENTER
 70
    64
  3
____ _ ____ _ ____ _ ____ _ ____ _ ____ _ ____
 72
    65
 73
     4
 40
0.000880
 49
0.000550
 49
-0.000110
 49
0.000110
 49
-0.000110
  0
LTYPE
  2
PHANTOM
 70
    64
  3
_____ _ _ _____ _ _ _____ _ _ _____ _ _ ____
 72
    65
 73
     6
 40
0.001100
 49
0.000550
 49
-0.000110
 49
0.000110
 49
-0.000110
 49
0.000110
 49
-0.000110
  0
LTYPE
  2
DOT
 70
    64
  3
...............................................
 72
    65
 73
     2
 40
0.000110
 49
0.000000
 49
-0.000110
  0
LTYPE
  2
DASHDOT
 70
    64
  3
__ . __ . __ . __ . __ . __ . __ . __ . __ . __
 72
    65
 73
     4
 40
0.000440
 49
0.000220
 49
-0.000110
 49
0.000000
 49
-0.000110
  0
LTYPE
  2
BORDER
 70
    64
  3
__ __ . __ __ . __ __ . __ __ . __ __ . __ __
 72
    65
 73
     6
 40
0.000770
 49
0.000220
 49
-0.000110
 49
0.000220
 49
-0.000110
 49
0.000000
 49
-0.000110
  0
LTYPE
  2
DIVIDE
 70
    64
  3
__ . . __ . . __ . . __ . . __ . . __ . . __
 72
    65
 73
     6
 40
0.000550
 49
0.000220
 49
-0.000110
 49
0.000000
 49
-0.000110
 49
0.000000
 49
-0.000110
  0
LTYPE
  2
DOTDOT
 70
    64
  3
 . .  . .  . .  . .  . .  . . 
 72
    65
 73
     5
 40
0.000242
 49
-0.000110
 49
0.000000
 49
-0.000110
 49
0.000000
 49
-0.000110
  0
ENDTAB
  0
TABLE
  2
STYLE
 70
     2
  0
STYLE
 70
     0
  2
SN0
 40
0.000000
 41
0.000440
 50
0.000000
 71
     0
 42
0.000000
  3
ROMAND
  0
STYLE
 70
    68
  2
SV0
 40
0.000000
 41
0.000440
 50
0.000000
 71
     0
 42
0.000000
  3
ROMAND
  0
ENDTAB
  0
TABLE
  2
LAYER
 70
     3
  0
LAYER
  2
FOREGROUND
 70
    64
 62
     7
  6
CONTINUOUS
  0
LAYER
  2
BACKGROUND
 70
    65
 62
    -7
  6
CONTINUOUS
  0
LAYER
  2
0
 70
    64
 62
     7
  6
CONTINUOUS
  0
ENDTAB
  0
ENDSEC
  0
SECTION
  2
ENTITIES
  0
POLYLINE
  8
FOREGROUND
  6
CONTINUOUS
 66
     1
 40
0.000000
 41
0.000000
  0
VERTEX
  8
FOREGROUND
  6
CONTINUOUS
 10
0.000000
 20
9.880640
  0
VERTEX
  8
FOREGROUND
  6
CONTINUOUS
 10
8.499920
 20
9.880640
  0
VERTEX
  8
FOREGROUND
  6
CONTINUOUS
 10
8.499920
 20
-1.119360
  0
VERTEX
  8
FOREGROUND
  6
CONTINUOUS
 10
0.000000
 20
-1.119360
  0
VERTEX
  8
FOREGROUND
  6
CONTINUOUS
 10
0.000000
 20
9.880640
  0
SEQEND
  8
0
  0
POLYLINE
  8
FOREGROUND
  6
CONTINUOUS
 66
     1
 40
0.000000
 41
0.000000
  0
VERTEX
  8
FOREGROUND
  6
CONTINUOUS
 10
0.000000
 20
9.880640
  0
VERTEX
  8
FOREGROUND
  6
CONTINUOUS
 10
8.499920
 20
9.880640
  0
VERTEX
  8
FOREGROUND
  6
CONTINUOUS
 10
8.499920
 20
-1.119360
  0
VERTEX
  8
FOREGROUND
  6
CONTINUOUS
 10
0.000000
 20
-1.119360
  0
VERTEX
  8
FOREGROUND
  6
CONTINUOUS
 10
0.000000
 20
9.880640
  0
SEQEND
  8
0
  0
POLYLINE
  8
0
  6
CONTINUOUS
 66
     1
 40
0.000000
 41
0.000000
  0
VERTEX
  8
0
  6
CONTINUOUS
 10
5.609120
 20
3.912480
  0
VERTEX
  8
0
  6
CONTINUOUS
 10
2.890800
 20
3.912480
  0
VERTEX
  8
0
  6
CONTINUOUS
 10
2.890800
 20
4.119280
  0
VERTEX
  8
0
  6
CONTINUOUS
 10
2.960320
 20
4.126320
  0
VERTEX
  8
0
  6
CONTINUOUS
 10
3.006520
 20
4.133800
  0
VERTEX
  8
0
  6
CONTINUOUS
 10
3.047440
 20
4.143920
  0
VERTEX
  8
0
  6
CONTINUOUS
 10
3.072080
 20
4.153160
  0
VERTEX
  8
0
  6
CONTINUOUS
 10
3.104200
 20
4.171200
  0
VERTEX
  8
0
  6
CONTINUOUS
 10
3.113880
 20
4.178240
  0
VERTEX
  8
0
  6
CONTINUOUS
 10
3.131480
 20
4.194960
  0
VERTEX
  8
0
  6
CONTINUOUS
 10
3.153040
 20
4.225760
  0
VERTEX
  8
0
  6
CONTINUOUS
 10
3.164480
 20
4.250400
  0
VERTEX
  8
0
  6
CONTINUOUS
 10
3.173720
 20
4.279440
  0
VERTEX
  8
0
  6
CONTINUOUS
 10
3.180760
 20
4.312000
  0
VERTEX
  8
0
  6
CONTINUOUS
 10
3.185160
 20
4.349400
  0
VERTEX
  8
0
  6
CONTINUOUS
 10
3.187360
 20
4.391640
  0
VERTEX
  8
0
  6
CONTINUOUS
 10
3.187360
 20
4.414520
  0
VERTEX
  8
0
  6
CONTINUOUS
 10
3.261280
 20
4.413640
  0
VERTEX
  8
0
  6
CONTINUOUS
 10
3.264360
 20
4.467320
  0
VERTEX
  8
0
  6
CONTINUOUS
 10
3.273160
 20
4.517480
  0
VERTEX
  8
0
  6
CONTINUOUS
 10
3.279320
 20
4.541240
  0
VERTEX
  8
0
  6
CONTINUOUS
 10
3.295160
 20
4.585680
  0
VERTEX
  8
0
  6
CONTINUOUS
 10
3.315400
 20
4.626600
  0
VERTEX
  8
0
  6
CONTINUOUS
 10
3.339600
 20
4.664440
  0
VERTEX
  8
0
  6
CONTINUOUS
 10
3.367760
 20
4.698320
  0
VERTEX
  8
0
  6
CONTINUOUS
 10
3.399000
 20
4.728680
  0
VERTEX
  8
0
  6
CONTINUOUS
 10
3.433760
 20
4.755520
  0
VERTEX
  8
0
  6
CONTINUOUS
 10
3.471160
 20
4.779280
  0
VERTEX
  8
0
  6
CONTINUOUS
 10
3.510760
 20
4.799080
  0
VERTEX
  8
0
  6
CONTINUOUS
 10
3.552120
 20
4.815800
  0
VERTEX
  8
0
  6
CONTINUOUS
 10
3.595680
 20
4.829000
  0
VERTEX
  8
0
  6
CONTINUOUS
 10
3.663440
 20
4.842640
  0
VERTEX
  8
0
  6
CONTINUOUS
 10
3.709200
 20
4.847480
  0
VERTEX
  8
0
  6
CONTINUOUS
 10
3.756280
 20
4.848800
  0
VERTEX
  8
0
  6
CONTINUOUS
 10
3.802920
 20
4.847040
  0
VERTEX
  8
0
  6
CONTINUOUS
 10
3.849560
 20
4.842200
  0
VERTEX
  8
0
  6
CONTINUOUS
 10
3.895760
 20
4.833840
  0
VERTEX
  8
0
  6
CONTINUOUS
 10
3.963520
 20
4.815800
  0
VERTEX
  8
0
  6
CONTINUOUS
 10
4.027760
 20
4.790280
  0
VERTEX
  8
0
  6
CONTINUOUS
 10
4.068680
 20
4.769160
  0
VERTEX
  8
0
  6
CONTINUOUS
 10
4.107400
 20
4.744960
  0
VERTEX
  8
0
  6
CONTINUOUS
 10
4.143040
 20
4.718120
  0
VERTEX
  8
0
  6
CONTINUOUS
 10
4.176480
 20
4.687760
  0
VERTEX
  8
0
  6
CONTINUOUS
 10
4.206400
 20
4.654320
  0
VERTEX
  8
0
  6
CONTINUOUS
 10
4.232800
 20
4.618240
  0
VERTEX
  8
0
  6
CONTINUOUS
 10
4.255240
 20
4.578640
  0
VERTEX
  8
0
  6
CONTINUOUS
 10
4.273280
 20
4.536400
  0
VERTEX
  8
0
  6
CONTINUOUS
 10
4.280760
 20
4.514400
  0
VERTEX
  8
0
  6
CONTINUOUS
 10
4.292200
 20
4.467760
  0
VERTEX
  8
0
  6
CONTINUOUS
 10
4.295720
 20
4.443120
  0
VERTEX
  8
0
  6
CONTINUOUS
 10
4.411440
 20
4.443120
  0
VERTEX
  8
0
  6
CONTINUOUS
 10
4.418920
 20
4.392520
  0
VERTEX
  8
0
  6
CONTINUOUS
 10
4.432120
 20
4.347640
  0
VERTEX
  8
0
  6
CONTINUOUS
 10
4.440920
 20
4.326960
  0
VERTEX
  8
0
  6
CONTINUOUS
 10
4.462040
 20
4.290000
  0
VERTEX
  8
0
  6
CONTINUOUS
 10
4.488000
 20
4.257880
  0
VERTEX
  8
0
  6
CONTINUOUS
 10
4.518360
 20
4.230160
  0
VERTEX
  8
0
  6
CONTINUOUS
 10
4.552240
 20
4.206840
  0
VERTEX
  8
0
  6
CONTINUOUS
 10
4.589640
 20
4.187040
  0
VERTEX
  8
0
  6
CONTINUOUS
 10
4.630120
 20
4.171200
  0
VERTEX
  8
0
  6
CONTINUOUS
 10
4.673680
 20
4.158000
  0
VERTEX
  8
0
  6
CONTINUOUS
 10
4.719000
 20
4.147880
  0
VERTEX
  8
0
  6
CONTINUOUS
 10
4.790280
 20
4.137320
  0
VERTEX
  8
0
  6
CONTINUOUS
 10
4.889280
 20
4.129840
  0
VERTEX
  8
0
  6
CONTINUOUS
 10
4.990040
 20
4.127640
  0
VERTEX
  8
0
  6
CONTINUOUS
 10
5.007200
 20
4.171640
  0
VERTEX
  8
0
  6
CONTINUOUS
 10
5.034920
 20
4.227080
  0
VERTEX
  8
0
  6
CONTINUOUS
 10
5.064840
 20
4.270640
  0
VERTEX
  8
0
  6
CONTINUOUS
 10
5.096080
 20
4.303200
  0
VERTEX
  8
0
  6
CONTINUOUS
 10
5.117640
 20
4.319040
  0
VERTEX
  8
0
  6
CONTINUOUS
 10
5.139200
 20
4.330480
  0
VERTEX
  8
0
  6
CONTINUOUS
 10
5.160320
 20
4.337520
  0
VERTEX
  8
0
  6
CONTINUOUS
 10
5.181880
 20
4.340600
  0
VERTEX
  8
0
  6
CONTINUOUS
 10
5.202560
 20
4.340160
  0
VERTEX
  8
0
  6
CONTINUOUS
 10
5.223240
 20
4.335760
  0
VERTEX
  8
0
  6
CONTINUOUS
 10
5.243040
 20
4.328280
  0
VERTEX
  8
0
  6
CONTINUOUS
 10
5.270760
 20
4.311120
  0
VERTEX
  8
0
  6
CONTINUOUS
 10
5.296280
 20
4.287360
  0
VERTEX
  8
0
  6
CONTINUOUS
 10
5.331040
 20
4.241600
  0
VERTEX
  8
0
  6
CONTINUOUS
 10
5.363600
 20
4.193200
  0
VERTEX
  8
0
  6
CONTINUOUS
 10
5.386480
 20
4.165480
  0
VERTEX
  8
0
  6
CONTINUOUS
 10
5.399240
 20
4.153160
  0
VERTEX
  8
0
  6
CONTINUOUS
 10
5.422560
 20
4.136440
  0
VERTEX
  8
0
  6
CONTINUOUS
 10
5.451160
 20
4.122360
  0
VERTEX
  8
0
  6
CONTINUOUS
 10
5.487240
 20
4.110480
  0
VERTEX
  8
0
  6
CONTINUOUS
 10
5.532120
 20
4.101680
  0
VERTEX
  8
0
  6
CONTINUOUS
 10
5.588000
 20
4.095080
  0
VERTEX
  8
0
  6
CONTINUOUS
 10
5.609120
 20
4.093760
  0
VERTEX
  8
0
  6
CONTINUOUS
 10
5.609120
 20
3.912480
  0
SEQEND
  8
0
  0
POLYLINE
  8
0
  6
CONTINUOUS
 66
     1
 40
0.000000
 41
0.000000
  0
VERTEX
  8
0
  6
CONTINUOUS
 10
3.161840
 20
1.363560
  0
VERTEX
  8
0
  6
CONTINUOUS
 10
5.880160
 20
1.363560
  0
VERTEX
  8
0
  6
CONTINUOUS
 10
5.880160
 20
1.570800
  0
VERTEX
  8
0
  6
CONTINUOUS
 10
5.794800
 20
1.579600
  0
VERTEX
  8
0
  6
CONTINUOUS
 10
5.750360
 20
1.587960
  0
VERTEX
  8
0
  6
CONTINUOUS
 10
5.711200
 20
1.599840
  0
VERTEX
  8
0
  6
CONTINUOUS
 10
5.677320
 20
1.615680
  0
VERTEX
  8
0
  6
CONTINUOUS
 10
5.657520
 20
1.629760
  0
VERTEX
  8
0
  6
CONTINUOUS
 10
5.639920
 20
1.646040
  0
VERTEX
  8
0
  6
CONTINUOUS
 10
5.617920
 20
1.676840
  0
VERTEX
  8
0
  6
CONTINUOUS
 10
5.606480
 20
1.701480
  0
VERTEX
  8
0
  6
CONTINUOUS
 10
5.597240
 20
1.730520
  0
VERTEX
  8
0
  6
CONTINUOUS
 10
5.588000
 20
1.781120
  0
VERTEX
  8
0
  6
CONTINUOUS
 10
5.584040
 20
1.842720
  0
VERTEX
  8
0
  6
CONTINUOUS
 10
5.584040
 20
1.865600
  0
VERTEX
  8
0
  6
CONTINUOUS
 10
5.510120
 20
1.865160
  0
VERTEX
  8
0
  6
CONTINUOUS
 10
5.509240
 20
1.892440
  0
VERTEX
  8
0
  6
CONTINUOUS
 10
5.503080
 20
1.944360
  0
VERTEX
  8
0
  6
CONTINUOUS
 10
5.492080
 20
1.992760
  0
VERTEX
  8
0
  6
CONTINUOUS
 10
5.476240
 20
2.037200
  0
VERTEX
  8
0
  6
CONTINUOUS
 10
5.456000
 20
2.078120
  0
VERTEX
  8
0
  6
CONTINUOUS
 10
5.431360
 20
2.115520
  0
VERTEX
  8
0
  6
CONTINUOUS
 10
5.403640
 20
2.149840
  0
VERTEX
  8
0
  6
CONTINUOUS
 10
5.371960
 20
2.180200
  0
VERTEX
  8
0
  6
CONTINUOUS
 10
5.337200
 20
2.207040
  0
VERTEX
  8
0
  6
CONTINUOUS
 10
5.300240
 20
2.230360
  0
VERTEX
  8
0
  6
CONTINUOUS
 10
5.260640
 20
2.250600
  0
VERTEX
  8
0
  6
CONTINUOUS
 10
5.218840
 20
2.267320
  0
VERTEX
  8
0
  6
CONTINUOUS
 10
5.175280
 20
2.280520
  0
VERTEX
  8
0
  6
CONTINUOUS
 10
5.130840
 20
2.290200
  0
VERTEX
  8
0
  6
CONTINUOUS
 10
5.084640
 20
2.296800
  0
VERTEX
  8
0
  6
CONTINUOUS
 10
5.038440
 20
2.299880
  0
VERTEX
  8
0
  6
CONTINUOUS
 10
4.991800
 20
2.299880
  0
VERTEX
  8
0
  6
CONTINUOUS
 10
4.944720
 20
2.296360
  0
VERTEX
  8
0
  6
CONTINUOUS
 10
4.875200
 20
2.285360
  0
VERTEX
  8
0
  6
CONTINUOUS
 10
4.829880
 20
2.273920
  0
VERTEX
  8
0
  6
CONTINUOUS
 10
4.764320
 20
2.250600
  0
VERTEX
  8
0
  6
CONTINUOUS
 10
4.722520
 20
2.231240
  0
VERTEX
  8
0
  6
CONTINUOUS
 10
4.682920
 20
2.208800
  0
VERTEX
  8
0
  6
CONTINUOUS
 10
4.627920
 20
2.169200
  0
VERTEX
  8
0
  6
CONTINUOUS
 10
4.594920
 20
2.138840
  0
VERTEX
  8
0
  6
CONTINUOUS
 10
4.565000
 20
2.105400
  0
VERTEX
  8
0
  6
CONTINUOUS
 10
4.538600
 20
2.069320
  0
VERTEX
  8
0
  6
CONTINUOUS
 10
4.516160
 20
2.029720
  0
VERTEX
  8
0
  6
CONTINUOUS
 10
4.498120
 20
1.987480
  0
VERTEX
  8
0
  6
CONTINUOUS
 10
4.484480
 20
1.942160
  0
VERTEX
  8
0
  6
CONTINUOUS
 10
4.479200
 20
1.918840
  0
VERTEX
  8
0
  6
CONTINUOUS
 10
4.475680
 20
1.894200
  0
VERTEX
  8
0
  6
CONTINUOUS
 10
4.359960
 20
1.894200
  0
VERTEX
  8
0
  6
CONTINUOUS
 10
4.356880
 20
1.868240
  0
VERTEX
  8
0
  6
CONTINUOUS
 10
4.352480
 20
1.843600
  0
VERTEX
  8
0
  6
CONTINUOUS
 10
4.339280
 20
1.798720
  0
VERTEX
  8
0
  6
CONTINUOUS
 10
4.320360
 20
1.759120
  0
VERTEX
  8
0
  6
CONTINUOUS
 10
4.297040
 20
1.724800
  0
VERTEX
  8
0
  6
CONTINUOUS
 10
4.268880
 20
1.694880
  0
VERTEX
  8
0
  6
CONTINUOUS
 10
4.236760
 20
1.669360
  0
VERTEX
  8
0
  6
CONTINUOUS
 10
4.200680
 20
1.648240
  0
VERTEX
  8
0
  6
CONTINUOUS
 10
4.181760
 20
1.638560
  0
VERTEX
  8
0
  6
CONTINUOUS
 10
4.119720
 20
1.615680
  0
VERTEX
  8
0
  6
CONTINUOUS
 10
4.075280
 20
1.604240
  0
VERTEX
  8
0
  6
CONTINUOUS
 10
4.029080
 20
1.595440
  0
VERTEX
  8
0
  6
CONTINUOUS
 10
3.980680
 20
1.588840
  0
VERTEX
  8
0
  6
CONTINUOUS
 10
3.931840
 20
1.584440
  0
VERTEX
  8
0
  6
CONTINUOUS
 10
3.881680
 20
1.581360
  0
VERTEX
  8
0
  6
CONTINUOUS
 10
3.780920
 20
1.579160
  0
VERTEX
  8
0
  6
CONTINUOUS
 10
3.763760
 20
1.623160
  0
VERTEX
  8
0
  6
CONTINUOUS
 10
3.745280
 20
1.661440
  0
VERTEX
  8
0
  6
CONTINUOUS
 10
3.726360
 20
1.694440
  0
VERTEX
  8
0
  6
CONTINUOUS
 10
3.696000
 20
1.734040
  0
VERTEX
  8
0
  6
CONTINUOUS
 10
3.674880
 20
1.754720
  0
VERTEX
  8
0
  6
CONTINUOUS
 10
3.653760
 20
1.770120
  0
VERTEX
  8
0
  6
CONTINUOUS
 10
3.632200
 20
1.781560
  0
VERTEX
  8
0
  6
CONTINUOUS
 10
3.610640
 20
1.788600
  0
VERTEX
  8
0
  6
CONTINUOUS
 10
3.589520
 20
1.792120
  0
VERTEX
  8
0
  6
CONTINUOUS
 10
3.568400
 20
1.791240
  0
VERTEX
  8
0
  6
CONTINUOUS
 10
3.548160
 20
1.787280
  0
VERTEX
  8
0
  6
CONTINUOUS
 10
3.518680
 20
1.774520
  0
VERTEX
  8
0
  6
CONTINUOUS
 10
3.491400
 20
1.755160
  0
VERTEX
  8
0
  6
CONTINUOUS
 10
3.467200
 20
1.729640
  0
VERTEX
  8
0
  6
CONTINUOUS
 10
3.396360
 20
1.630640
  0
VERTEX
  8
0
  6
CONTINUOUS
 10
3.384920
 20
1.617000
  0
VERTEX
  8
0
  6
CONTINUOUS
 10
3.356760
 20
1.593240
  0
VERTEX
  8
0
  6
CONTINUOUS
 10
3.330360
 20
1.578280
  0
VERTEX
  8
0
  6
CONTINUOUS
 10
3.296920
 20
1.565520
  0
VERTEX
  8
0
  6
CONTINUOUS
 10
3.270080
 20
1.558480
  0
VERTEX
  8
0
  6
CONTINUOUS
 10
3.221680
 20
1.550560
  0
VERTEX
  8
0
  6
CONTINUOUS
 10
3.161840
 20
1.545280
  0
VERTEX
  8
0
  6
CONTINUOUS
 10
3.161840
 20
1.363560
  0
SEQEND
  8
0
  0
POLYLINE
  8
0
  6
CONTINUOUS
 66
     1
 40
0.000000
 41
0.000000
  0
VERTEX
  8
0
  6
CONTINUOUS
 10
5.663240
 20
2.610960
  0
VERTEX
  8
0
  6
CONTINUOUS
 10
2.945360
 20
2.610960
  0
VERTEX
  8
0
  6
CONTINUOUS
 10
2.945360
 20
2.817760
  0
VERTEX
  8
0
  6
CONTINUOUS
 10
3.014880
 20
2.824800
  0
VERTEX
  8
0
  6
CONTINUOUS
 10
3.061080
 20
2.832280
  0
VERTEX
  8
0
  6
CONTINUOUS
 10
3.102000
 20
2.842400
  0
VERTEX
  8
0
  6
CONTINUOUS
 10
3.137640
 20
2.857360
  0
VERTEX
  8
0
  6
CONTINUOUS
 10
3.158760
 20
2.869680
  0
VERTEX
  8
0
  6
CONTINUOUS
 10
3.185600
 20
2.893440
  0
VERTEX
  8
0
  6
CONTINUOUS
 10
3.207600
 20
2.924240
  0
VERTEX
  8
0
  6
CONTINUOUS
 10
3.219040
 20
2.948880
  0
VERTEX
  8
0
  6
CONTINUOUS
 10
3.228280
 20
2.977920
  0
VERTEX
  8
0
  6
CONTINUOUS
 10
3.237520
 20
3.028520
  0
VERTEX
  8
0
  6
CONTINUOUS
 10
3.241480
 20
3.090120
  0
VERTEX
  8
0
  6
CONTINUOUS
 10
3.241480
 20
3.113000
  0
VERTEX
  8
0
  6
CONTINUOUS
 10
3.315400
 20
3.112120
  0
VERTEX
  8
0
  6
CONTINUOUS
 10
3.316280
 20
3.139400
  0
VERTEX
  8
0
  6
CONTINUOUS
 10
3.322440
 20
3.191320
  0
VERTEX
  8
0
  6
CONTINUOUS
 10
3.333440
 20
3.239720
  0
VERTEX
  8
0
  6
CONTINUOUS
 10
3.349280
 20
3.284160
  0
VERTEX
  8
0
  6
CONTINUOUS
 10
3.369520
 20
3.325080
  0
VERTEX
  8
0
  6
CONTINUOUS
 10
3.394160
 20
3.362920
  0
VERTEX
  8
0
  6
CONTINUOUS
 10
3.421880
 20
3.396800
  0
VERTEX
  8
0
  6
CONTINUOUS
 10
3.453560
 20
3.427160
  0
VERTEX
  8
0
  6
CONTINUOUS
 10
3.488320
 20
3.454000
  0
VERTEX
  8
0
  6
CONTINUOUS
 10
3.525280
 20
3.477760
  0
VERTEX
  8
0
  6
CONTINUOUS
 10
3.564880
 20
3.497560
  0
VERTEX
  8
0
  6
CONTINUOUS
 10
3.606680
 20
3.514280
  0
VERTEX
  8
0
  6
CONTINUOUS
 10
3.650240
 20
3.527480
  0
VERTEX
  8
0
  6
CONTINUOUS
 10
3.694680
 20
3.537160
  0
VERTEX
  8
0
  6
CONTINUOUS
 10
3.740880
 20
3.543760
  0
VERTEX
  8
0
  6
CONTINUOUS
 10
3.787080
 20
3.547280
  0
VERTEX
  8
0
  6
CONTINUOUS
 10
3.833720
 20
3.546840
  0
VERTEX
  8
0
  6
CONTINUOUS
 10
3.880800
 20
3.543760
  0
VERTEX
  8
0
  6
CONTINUOUS
 10
3.927000
 20
3.537160
  0
VERTEX
  8
0
  6
CONTINUOUS
 10
3.973200
 20
3.527040
  0
VERTEX
  8
0
  6
CONTINUOUS
 10
4.017640
 20
3.514280
  0
VERTEX
  8
0
  6
CONTINUOUS
 10
4.082320
 20
3.488760
  0
VERTEX
  8
0
  6
CONTINUOUS
 10
4.123240
 20
3.467640
  0
VERTEX
  8
0
  6
CONTINUOUS
 10
4.161520
 20
3.443440
  0
VERTEX
  8
0
  6
CONTINUOUS
 10
4.197600
 20
3.416600
  0
VERTEX
  8
0
  6
CONTINUOUS
 10
4.230600
 20
3.386240
  0
VERTEX
  8
0
  6
CONTINUOUS
 10
4.260520
 20
3.352800
  0
VERTEX
  8
0
  6
CONTINUOUS
 10
4.286920
 20
3.316720
  0
VERTEX
  8
0
  6
CONTINUOUS
 10
4.309360
 20
3.277120
  0
VERTEX
  8
0
  6
CONTINUOUS
 10
4.327400
 20
3.234880
  0
VERTEX
  8
0
  6
CONTINUOUS
 10
4.334880
 20
3.212880
  0
VERTEX
  8
0
  6
CONTINUOUS
 10
4.346320
 20
3.166240
  0
VERTEX
  8
0
  6
CONTINUOUS
 10
4.349840
 20
3.141600
  0
VERTEX
  8
0
  6
CONTINUOUS
 10
4.465560
 20
3.141600
  0
VERTEX
  8
0
  6
CONTINUOUS
 10
4.473040
 20
3.091000
  0
VERTEX
  8
0
  6
CONTINUOUS
 10
4.486240
 20
3.046120
  0
VERTEX
  8
0
  6
CONTINUOUS
 10
4.505160
 20
3.006520
  0
VERTEX
  8
0
  6
CONTINUOUS
 10
4.528480
 20
2.972200
  0
VERTEX
  8
0
  6
CONTINUOUS
 10
4.556640
 20
2.942280
  0
VERTEX
  8
0
  6
CONTINUOUS
 10
4.588760
 20
2.916760
  0
VERTEX
  8
0
  6
CONTINUOUS
 10
4.624840
 20
2.895200
  0
VERTEX
  8
0
  6
CONTINUOUS
 10
4.664000
 20
2.877600
  0
VERTEX
  8
0
  6
CONTINUOUS
 10
4.705800
 20
2.863080
  0
VERTEX
  8
0
  6
CONTINUOUS
 10
4.750240
 20
2.851640
  0
VERTEX
  8
0
  6
CONTINUOUS
 10
4.796440
 20
2.842840
  0
VERTEX
  8
0
  6
CONTINUOUS
 10
4.844840
 20
2.836240
  0
VERTEX
  8
0
  6
CONTINUOUS
 10
4.893680
 20
2.831400
  0
VERTEX
  8
0
  6
CONTINUOUS
 10
4.994440
 20
2.827000
  0
VERTEX
  8
0
  6
CONTINUOUS
 10
5.044600
 20
2.826120
  0
VERTEX
  8
0
  6
CONTINUOUS
 10
5.061760
 20
2.870120
  0
VERTEX
  8
0
  6
CONTINUOUS
 10
5.079800
 20
2.908400
  0
VERTEX
  8
0
  6
CONTINUOUS
 10
5.099160
 20
2.941400
  0
VERTEX
  8
0
  6
CONTINUOUS
 10
5.129520
 20
2.981000
  0
VERTEX
  8
0
  6
CONTINUOUS
 10
5.150640
 20
3.001680
  0
VERTEX
  8
0
  6
CONTINUOUS
 10
5.171760
 20
3.017520
  0
VERTEX
  8
0
  6
CONTINUOUS
 10
5.193320
 20
3.028960
  0
VERTEX
  8
0
  6
CONTINUOUS
 10
5.214440
 20
3.036000
  0
VERTEX
  8
0
  6
CONTINUOUS
 10
5.236000
 20
3.039080
  0
VERTEX
  8
0
  6
CONTINUOUS
 10
5.257120
 20
3.038640
  0
VERTEX
  8
0
  6
CONTINUOUS
 10
5.277360
 20
3.034240
  0
VERTEX
  8
0
  6
CONTINUOUS
 10
5.297160
 20
3.026760
  0
VERTEX
  8
0
  6
CONTINUOUS
 10
5.324880
 20
3.009600
  0
VERTEX
  8
0
  6
CONTINUOUS
 10
5.350400
 20
2.985840
  0
VERTEX
  8
0
  6
CONTINUOUS
 10
5.385160
 20
2.940520
  0
VERTEX
  8
0
  6
CONTINUOUS
 10
5.429160
 20
2.877600
  0
VERTEX
  8
0
  6
CONTINUOUS
 10
5.440600
 20
2.864400
  0
VERTEX
  8
0
  6
CONTINUOUS
 10
5.468320
 20
2.840640
  0
VERTEX
  8
0
  6
CONTINUOUS
 10
5.495160
 20
2.825240
  0
VERTEX
  8
0
  6
CONTINUOUS
 10
5.528600
 20
2.812920
  0
VERTEX
  8
0
  6
CONTINUOUS
 10
5.570400
 20
2.802800
  0
VERTEX
  8
0
  6
CONTINUOUS
 10
5.622320
 20
2.795320
  0
VERTEX
  8
0
  6
CONTINUOUS
 10
5.663240
 20
2.792240
  0
VERTEX
  8
0
  6
CONTINUOUS
 10
5.663240
 20
2.610960
  0
SEQEND
  8
0
  0
SOLID
  8
0
 62
    15
 10
2.783880
 20
7.111720
 11
3.538480
 21
7.109520
 12
2.783880
 22
6.996000
 13
3.538480
 23
6.993800
  0
POLYLINE
  8
0
  6
CONTINUOUS
 66
     1
 40
0.000000
 41
0.000000
  0
VERTEX
  8
0
  6
CONTINUOUS
 10
2.783880
 20
7.111720
  0
VERTEX
  8
0
  6
CONTINUOUS
 10
3.538480
 20
7.109520
  0
VERTEX
  8
0
  6
CONTINUOUS
 10
3.538480
 20
6.993800
  0
VERTEX
  8
0
  6
CONTINUOUS
 10
2.783880
 20
6.996000
  0
VERTEX
  8
0
  6
CONTINUOUS
 10
2.783880
 20
7.111720
  0
SEQEND
  8
0
  0
SOLID
  8
0
 62
    15
 10
2.466640
 20
8.447120
 11
3.221680
 21
8.444920
 12
2.477200
 22
8.386400
 13
3.232240
 23
8.384640
  0
POLYLINE
  8
0
  6
CONTINUOUS
 66
     1
 40
0.000000
 41
0.000000
  0
VERTEX
  8
0
  6
CONTINUOUS
 10
2.466640
 20
8.447120
  0
VERTEX
  8
0
  6
CONTINUOUS
 10
3.221680
 20
8.444920
  0
VERTEX
  8
0
  6
CONTINUOUS
 10
3.232240
 20
8.384640
  0
VERTEX
  8
0
  6
CONTINUOUS
 10
2.477200
 20
8.386400
  0
VERTEX
  8
0
  6
CONTINUOUS
 10
2.466640
 20
8.447120
  0
SEQEND
  8
0
  0
SOLID
  8
0
 62
    15
 10
2.477200
 20
8.386400
 11
3.232240
 21
8.384640
 12
2.493920
 22
8.335360
 13
3.248520
 23
8.333160
  0
POLYLINE
  8
0
  6
CONTINUOUS
 66
     1
 40
0.000000
 41
0.000000
  0
VERTEX
  8
0
  6
CONTINUOUS
 10
2.477200
 20
8.386400
  0
VERTEX
  8
0
  6
CONTINUOUS
 10
3.232240
 20
8.384640
  0
VERTEX
  8
0
  6
CONTINUOUS
 10
3.248520
 20
8.333160
  0
VERTEX
  8
0
  6
CONTINUOUS
 10
2.493920
 20
8.335360
  0
VERTEX
  8
0
  6
CONTINUOUS
 10
2.477200
 20
8.386400
  0
SEQEND
  8
0
  0
SOLID
  8
0
 62
    15
 10
2.493920
 20
8.335360
 11
3.248520
 21
8.333160
 12
2.519000
 22
8.293560
 13
3.273600
 23
8.291360
  0
POLYLINE
  8
0
  6
CONTINUOUS
 66
     1
 40
0.000000
 41
0.000000
  0
VERTEX
  8
0
  6
CONTINUOUS
 10
2.493920
 20
8.335360
  0
VERTEX
  8
0
  6
CONTINUOUS
 10
3.248520
 20
8.333160
  0
VERTEX
  8
0
  6
CONTINUOUS
 10
3.273600
 20
8.291360
  0
VERTEX
  8
0
  6
CONTINUOUS
 10
2.519000
 20
8.293560
  0
VERTEX
  8
0
  6
CONTINUOUS
 10
2.493920
 20
8.335360
  0
SEQEND
  8
0
  0
SOLID
  8
0
 62
    15
 10
2.519000
 20
8.293560
 11
3.273600
 21
8.291360
 12
2.555080
 22
8.261000
 13
3.310120
 23
8.258800
  0
POLYLINE
  8
0
  6
CONTINUOUS
 66
     1
 40
0.000000
 41
0.000000
  0
VERTEX
  8
0
  6
CONTINUOUS
 10
2.519000
 20
8.293560
  0
VERTEX
  8
0
  6
CONTINUOUS
 10
3.273600
 20
8.291360
  0
VERTEX
  8
0
  6
CONTINUOUS
 10
3.310120
 20
8.258800
  0
VERTEX
  8
0
  6
CONTINUOUS
 10
2.555080
 20
8.261000
  0
VERTEX
  8
0
  6
CONTINUOUS
 10
2.519000
 20
8.293560
  0
SEQEND
  8
0
  0
SOLID
  8
0
 62
    15
 10
2.555080
 20
8.261000
 11
3.310120
 21
8.258800
 12
2.578400
 22
8.248240
 13
3.333000
 23
8.246040
  0
POLYLINE
  8
0
  6
CONTINUOUS
 66
     1
 40
0.000000
 41
0.000000
  0
VERTEX
  8
0
  6
CONTINUOUS
 10
2.555080
 20
8.261000
  0
VERTEX
  8
0
  6
CONTINUOUS
 10
3.310120
 20
8.258800
  0
VERTEX
  8
0
  6
CONTINUOUS
 10
3.333000
 20
8.246040
  0
VERTEX
  8
0
  6
CONTINUOUS
 10
2.578400
 20
8.248240
  0
VERTEX
  8
0
  6
CONTINUOUS
 10
2.555080
 20
8.261000
  0
SEQEND
  8
0
  0
SOLID
  8
0
 62
    15
 10
2.578400
 20
8.248240
 11
3.333000
 21
8.246040
 12
2.604800
 22
8.237680
 13
3.359840
 23
8.235480
  0
POLYLINE
  8
0
  6
CONTINUOUS
 66
     1
 40
0.000000
 41
0.000000
  0
VERTEX
  8
0
  6
CONTINUOUS
 10
2.578400
 20
8.248240
  0
VERTEX
  8
0
  6
CONTINUOUS
 10
3.333000
 20
8.246040
  0
VERTEX
  8
0
  6
CONTINUOUS
 10
3.359840
 20
8.235480
  0
VERTEX
  8
0
  6
CONTINUOUS
 10
2.604800
 20
8.237680
  0
VERTEX
  8
0
  6
CONTINUOUS
 10
2.578400
 20
8.248240
  0
SEQEND
  8
0
  0
SOLID
  8
0
 62
    15
 10
2.604800
 20
8.237680
 11
3.359840
 21
8.235480
 12
2.635600
 22
8.229760
 13
3.390200
 23
8.227560
  0
POLYLINE
  8
0
  6
CONTINUOUS
 66
     1
 40
0.000000
 41
0.000000
  0
VERTEX
  8
0
  6
CONTINUOUS
 10
2.604800
 20
8.237680
  0
VERTEX
  8
0
  6
CONTINUOUS
 10
3.359840
 20
8.235480
  0
VERTEX
  8
0
  6
CONTINUOUS
 10
3.390200
 20
8.227560
  0
VERTEX
  8
0
  6
CONTINUOUS
 10
2.635600
 20
8.229760
  0
VERTEX
  8
0
  6
CONTINUOUS
 10
2.604800
 20
8.237680
  0
SEQEND
  8
0
  0
SOLID
  8
0
 62
    15
 10
2.635600
 20
8.229760
 11
3.390200
 21
8.227560
 12
2.670800
 22
8.224040
 13
3.425400
 23
8.221840
  0
POLYLINE
  8
0
  6
CONTINUOUS
 66
     1
 40
0.000000
 41
0.000000
  0
VERTEX
  8
0
  6
CONTINUOUS
 10
2.635600
 20
8.229760
  0
VERTEX
  8
0
  6
CONTINUOUS
 10
3.390200
 20
8.227560
  0
VERTEX
  8
0
  6
CONTINUOUS
 10
3.425400
 20
8.221840
  0
VERTEX
  8
0
  6
CONTINUOUS
 10
2.670800
 20
8.224040
  0
VERTEX
  8
0
  6
CONTINUOUS
 10
2.635600
 20
8.229760
  0
SEQEND
  8
0
  0
SOLID
  8
0
 62
    15
 10
2.670800
 20
8.224040
 11
3.425400
 21
8.221840
 12
2.710400
 22
8.220960
 13
3.465000
 23
8.218760
  0
POLYLINE
  8
0
  6
CONTINUOUS
 66
     1
 40
0.000000
 41
0.000000
  0
VERTEX
  8
0
  6
CONTINUOUS
 10
2.670800
 20
8.224040
  0
VERTEX
  8
0
  6
CONTINUOUS
 10
3.425400
 20
8.221840
  0
VERTEX
  8
0
  6
CONTINUOUS
 10
3.465000
 20
8.218760
  0
VERTEX
  8
0
  6
CONTINUOUS
 10
2.710400
 20
8.220960
  0
VERTEX
  8
0
  6
CONTINUOUS
 10
2.670800
 20
8.224040
  0
SEQEND
  8
0
  0
SOLID
  8
0
 62
    15
 10
2.710400
 20
8.220960
 11
3.465000
 21
8.218760
 12
2.754840
 22
8.220080
 13
3.509880
 23
8.217880
  0
POLYLINE
  8
0
  6
CONTINUOUS
 66
     1
 40
0.000000
 41
0.000000
  0
VERTEX
  8
0
  6
CONTINUOUS
 10
2.710400
 20
8.220960
  0
VERTEX
  8
0
  6
CONTINUOUS
 10
3.465000
 20
8.218760
  0
VERTEX
  8
0
  6
CONTINUOUS
 10
3.509880
 20
8.217880
  0
VERTEX
  8
0
  6
CONTINUOUS
 10
2.754840
 20
8.220080
  0
VERTEX
  8
0
  6
CONTINUOUS
 10
2.710400
 20
8.220960
  0
SEQEND
  8
0
  0
SOLID
  8
0
 62
    15
 10
2.754840
 20
8.220080
 11
3.509880
 21
8.217880
 12
2.754400
 22
8.146160
 13
3.509000
 23
8.143960
  0
POLYLINE
  8
0
  6
CONTINUOUS
 66
     1
 40
0.000000
 41
0.000000
  0
VERTEX
  8
0
  6
CONTINUOUS
 10
2.754840
 20
8.220080
  0
VERTEX
  8
0
  6
CONTINUOUS
 10
3.509880
 20
8.217880
  0
VERTEX
  8
0
  6
CONTINUOUS
 10
3.509000
 20
8.143960
  0
VERTEX
  8
0
  6
CONTINUOUS
 10
2.754400
 20
8.146160
  0
VERTEX
  8
0
  6
CONTINUOUS
 10
2.754840
 20
8.220080
  0
SEQEND
  8
0
  0
SOLID
  8
0
 62
    15
 10
2.754400
 20
8.146160
 11
3.509000
 21
8.143960
 12
2.808080
 22
8.142640
 13
3.562680
 23
8.140440
  0
POLYLINE
  8
0
  6
CONTINUOUS
 66
     1
 40
0.000000
 41
0.000000
  0
VERTEX
  8
0
  6
CONTINUOUS
 10
2.754400
 20
8.146160
  0
VERTEX
  8
0
  6
CONTINUOUS
 10
3.509000
 20
8.143960
  0
VERTEX
  8
0
  6
CONTINUOUS
 10
3.562680
 20
8.140440
  0
VERTEX
  8
0
  6
CONTINUOUS
 10
2.808080
 20
8.142640
  0
VERTEX
  8
0
  6
CONTINUOUS
 10
2.754400
 20
8.146160
  0
SEQEND
  8
0
  0
SOLID
  8
0
 62
    15
 10
2.808080
 20
8.142640
 11
3.562680
 21
8.140440
 12
2.858240
 22
8.134280
 13
3.612840
 23
8.132080
  0
POLYLINE
  8
0
  6
CONTINUOUS
 66
     1
 40
0.000000
 41
0.000000
  0
VERTEX
  8
0
  6
CONTINUOUS
 10
2.808080
 20
8.142640
  0
VERTEX
  8
0
  6
CONTINUOUS
 10
3.562680
 20
8.140440
  0
VERTEX
  8
0
  6
CONTINUOUS
 10
3.612840
 20
8.132080
  0
VERTEX
  8
0
  6
CONTINUOUS
 10
2.858240
 20
8.134280
  0
VERTEX
  8
0
  6
CONTINUOUS
 10
2.808080
 20
8.142640
  0
SEQEND
  8
0
  0
SOLID
  8
0
 62
    15
 10
2.858240
 20
8.134280
 11
3.612840
 21
8.132080
 12
2.904440
 22
8.120640
 13
3.659480
 23
8.118440
  0
POLYLINE
  8
0
  6
CONTINUOUS
 66
     1
 40
0.000000
 41
0.000000
  0
VERTEX
  8
0
  6
CONTINUOUS
 10
2.858240
 20
8.134280
  0
VERTEX
  8
0
  6
CONTINUOUS
 10
3.612840
 20
8.132080
  0
VERTEX
  8
0
  6
CONTINUOUS
 10
3.659480
 20
8.118440
  0
VERTEX
  8
0
  6
CONTINUOUS
 10
2.904440
 20
8.120640
  0
VERTEX
  8
0
  6
CONTINUOUS
 10
2.858240
 20
8.134280
  0
SEQEND
  8
0
  0
SOLID
  8
0
 62
    15
 10
2.904440
 20
8.120640
 11
3.659480
 21
8.118440
 12
2.947560
 22
8.102600
 13
3.702160
 23
8.100400
  0
POLYLINE
  8
0
  6
CONTINUOUS
 66
     1
 40
0.000000
 41
0.000000
  0
VERTEX
  8
0
  6
CONTINUOUS
 10
2.904440
 20
8.120640
  0
VERTEX
  8
0
  6
CONTINUOUS
 10
3.659480
 20
8.118440
  0
VERTEX
  8
0
  6
CONTINUOUS
 10
3.702160
 20
8.100400
  0
VERTEX
  8
0
  6
CONTINUOUS
 10
2.947560
 20
8.102600
  0
VERTEX
  8
0
  6
CONTINUOUS
 10
2.904440
 20
8.120640
  0
SEQEND
  8
0
  0
SOLID
  8
0
 62
    15
 10
2.947560
 20
8.102600
 11
3.702160
 21
8.100400
 12
2.986720
 22
8.080160
 13
3.741320
 23
8.077960
  0
POLYLINE
  8
0
  6
CONTINUOUS
 66
     1
 40
0.000000
 41
0.000000
  0
VERTEX
  8
0
  6
CONTINUOUS
 10
2.947560
 20
8.102600
  0
VERTEX
  8
0
  6
CONTINUOUS
 10
3.702160
 20
8.100400
  0
VERTEX
  8
0
  6
CONTINUOUS
 10
3.741320
 20
8.077960
  0
VERTEX
  8
0
  6
CONTINUOUS
 10
2.986720
 20
8.080160
  0
VERTEX
  8
0
  6
CONTINUOUS
 10
2.947560
 20
8.102600
  0
SEQEND
  8
0
  0
SOLID
  8
0
 62
    15
 10
2.986720
 20
8.080160
 11
3.741320
 21
8.077960
 12
3.022360
 22
8.053760
 13
3.776960
 23
8.052000
  0
POLYLINE
  8
0
  6
CONTINUOUS
 66
     1
 40
0.000000
 41
0.000000
  0
VERTEX
  8
0
  6
CONTINUOUS
 10
2.986720
 20
8.080160
  0
VERTEX
  8
0
  6
CONTINUOUS
 10
3.741320
 20
8.077960
  0
VERTEX
  8
0
  6
CONTINUOUS
 10
3.776960
 20
8.052000
  0
VERTEX
  8
0
  6
CONTINUOUS
 10
3.022360
 20
8.053760
  0
VERTEX
  8
0
  6
CONTINUOUS
 10
2.986720
 20
8.080160
  0
SEQEND
  8
0
  0
SOLID
  8
0
 62
    15
 10
3.022360
 20
8.053760
 11
3.776960
 21
8.052000
 12
3.054480
 22
8.024280
 13
3.809520
 23
8.022080
  0
POLYLINE
  8
0
  6
CONTINUOUS
 66
     1
 40
0.000000
 41
0.000000
  0
VERTEX
  8
0
  6
CONTINUOUS
 10
3.022360
 20
8.053760
  0
VERTEX
  8
0
  6
CONTINUOUS
 10
3.776960
 20
8.052000
  0
VERTEX
  8
0
  6
CONTINUOUS
 10
3.809520
 20
8.022080
  0
VERTEX
  8
0
  6
CONTINUOUS
 10
3.054480
 20
8.024280
  0
VERTEX
  8
0
  6
CONTINUOUS
 10
3.022360
 20
8.053760
  0
SEQEND
  8
0
  0
SOLID
  8
0
 62
    15
 10
3.054480
 20
8.024280
 11
3.809520
 21
8.022080
 12
3.083080
 22
7.991280
 13
3.838120
 23
7.989080
  0
POLYLINE
  8
0
  6
CONTINUOUS
 66
     1
 40
0.000000
 41
0.000000
  0
VERTEX
  8
0
  6
CONTINUOUS
 10
3.054480
 20
8.024280
  0
VERTEX
  8
0
  6
CONTINUOUS
 10
3.809520
 20
8.022080
  0
VERTEX
  8
0
  6
CONTINUOUS
 10
3.838120
 20
7.989080
  0
VERTEX
  8
0
  6
CONTINUOUS
 10
3.083080
 20
7.991280
  0
VERTEX
  8
0
  6
CONTINUOUS
 10
3.054480
 20
8.024280
  0
SEQEND
  8
0
  0
SOLID
  8
0
 62
    15
 10
3.083080
 20
7.991280
 11
3.838120
 21
7.989080
 12
3.130160
 22
7.916480
 13
3.885200
 23
7.914720
  0
POLYLINE
  8
0
  6
CONTINUOUS
 66
     1
 40
0.000000
 41
0.000000
  0
VERTEX
  8
0
  6
CONTINUOUS
 10
3.083080
 20
7.991280
  0
VERTEX
  8
0
  6
CONTINUOUS
 10
3.838120
 20
7.989080
  0
VERTEX
  8
0
  6
CONTINUOUS
 10
3.885200
 20
7.914720
  0
VERTEX
  8
0
  6
CONTINUOUS
 10
3.130160
 20
7.916480
  0
VERTEX
  8
0
  6
CONTINUOUS
 10
3.083080
 20
7.991280
  0
SEQEND
  8
0
  0
SOLID
  8
0
 62
    15
 10
3.130160
 20
7.916480
 11
3.885200
 21
7.914720
 12
3.163600
 22
7.833320
 13
3.918200
 23
7.831120
  0
POLYLINE
  8
0
  6
CONTINUOUS
 66
     1
 40
0.000000
 41
0.000000
  0
VERTEX
  8
0
  6
CONTINUOUS
 10
3.130160
 20
7.916480
  0
VERTEX
  8
0
  6
CONTINUOUS
 10
3.885200
 20
7.914720
  0
VERTEX
  8
0
  6
CONTINUOUS
 10
3.918200
 20
7.831120
  0
VERTEX
  8
0
  6
CONTINUOUS
 10
3.163600
 20
7.833320
  0
VERTEX
  8
0
  6
CONTINUOUS
 10
3.130160
 20
7.916480
  0
SEQEND
  8
0
  0
SOLID
  8
0
 62
    15
 10
3.163600
 20
7.833320
 11
3.918200
 21
7.831120
 12
3.183400
 22
7.744000
 13
3.938000
 23
7.741800
  0
POLYLINE
  8
0
  6
CONTINUOUS
 66
     1
 40
0.000000
 41
0.000000
  0
VERTEX
  8
0
  6
CONTINUOUS
 10
3.163600
 20
7.833320
  0
VERTEX
  8
0
  6
CONTINUOUS
 10
3.918200
 20
7.831120
  0
VERTEX
  8
0
  6
CONTINUOUS
 10
3.938000
 20
7.741800
  0
VERTEX
  8
0
  6
CONTINUOUS
 10
3.183400
 20
7.744000
  0
VERTEX
  8
0
  6
CONTINUOUS
 10
3.163600
 20
7.833320
  0
SEQEND
  8
0
  0
SOLID
  8
0
 62
    15
 10
3.183400
 20
7.744000
 11
3.938000
 21
7.741800
 12
3.189560
 22
7.651160
 13
3.944600
 23
7.648960
  0
POLYLINE
  8
0
  6
CONTINUOUS
 66
     1
 40
0.000000
 41
0.000000
  0
VERTEX
  8
0
  6
CONTINUOUS
 10
3.183400
 20
7.744000
  0
VERTEX
  8
0
  6
CONTINUOUS
 10
3.938000
 20
7.741800
  0
VERTEX
  8
0
  6
CONTINUOUS
 10
3.944600
 20
7.648960
  0
VERTEX
  8
0
  6
CONTINUOUS
 10
3.189560
 20
7.651160
  0
VERTEX
  8
0
  6
CONTINUOUS
 10
3.183400
 20
7.744000
  0
SEQEND
  8
0
  0
SOLID
  8
0
 62
    15
 10
3.189560
 20
7.651160
 11
3.944600
 21
7.648960
 12
3.182960
 22
7.557440
 13
3.937560
 23
7.555680
  0
POLYLINE
  8
0
  6
CONTINUOUS
 66
     1
 40
0.000000
 41
0.000000
  0
VERTEX
  8
0
  6
CONTINUOUS
 10
3.189560
 20
7.651160
  0
VERTEX
  8
0
  6
CONTINUOUS
 10
3.944600
 20
7.648960
  0
VERTEX
  8
0
  6
CONTINUOUS
 10
3.937560
 20
7.555680
  0
VERTEX
  8
0
  6
CONTINUOUS
 10
3.182960
 20
7.557440
  0
VERTEX
  8
0
  6
CONTINUOUS
 10
3.189560
 20
7.651160
  0
SEQEND
  8
0
  0
SOLID
  8
0
 62
    15
 10
3.182960
 20
7.557440
 11
3.937560
 21
7.555680
 12
3.163160
 22
7.465920
 13
3.917760
 23
7.464160
  0
POLYLINE
  8
0
  6
CONTINUOUS
 66
     1
 40
0.000000
 41
0.000000
  0
VERTEX
  8
0
  6
CONTINUOUS
 10
3.182960
 20
7.557440
  0
VERTEX
  8
0
  6
CONTINUOUS
 10
3.937560
 20
7.555680
  0
VERTEX
  8
0
  6
CONTINUOUS
 10
3.917760
 20
7.464160
  0
VERTEX
  8
0
  6
CONTINUOUS
 10
3.163160
 20
7.465920
  0
VERTEX
  8
0
  6
CONTINUOUS
 10
3.182960
 20
7.557440
  0
SEQEND
  8
0
  0
SOLID
  8
0
 62
    15
 10
3.163160
 20
7.465920
 11
3.917760
 21
7.464160
 12
3.130600
 22
7.379240
 13
3.885640
 23
7.377040
  0
POLYLINE
  8
0
  6
CONTINUOUS
 66
     1
 40
0.000000
 41
0.000000
  0
VERTEX
  8
0
  6
CONTINUOUS
 10
3.163160
 20
7.465920
  0
VERTEX
  8
0
  6
CONTINUOUS
 10
3.917760
 20
7.464160
  0
VERTEX
  8
0
  6
CONTINUOUS
 10
3.885640
 20
7.377040
  0
VERTEX
  8
0
  6
CONTINUOUS
 10
3.130600
 20
7.379240
  0
VERTEX
  8
0
  6
CONTINUOUS
 10
3.163160
 20
7.465920
  0
SEQEND
  8
0
  0
SOLID
  8
0
 62
    15
 10
3.130600
 20
7.379240
 11
3.885640
 21
7.377040
 12
3.085720
 22
7.300040
 13
3.840320
 23
7.297840
  0
POLYLINE
  8
0
  6
CONTINUOUS
 66
     1
 40
0.000000
 41
0.000000
  0
VERTEX
  8
0
  6
CONTINUOUS
 10
3.130600
 20
7.379240
  0
VERTEX
  8
0
  6
CONTINUOUS
 10
3.885640
 20
7.377040
  0
VERTEX
  8
0
  6
CONTINUOUS
 10
3.840320
 20
7.297840
  0
VERTEX
  8
0
  6
CONTINUOUS
 10
3.085720
 20
7.300040
  0
VERTEX
  8
0
  6
CONTINUOUS
 10
3.130600
 20
7.379240
  0
SEQEND
  8
0
  0
SOLID
  8
0
 62
    15
 10
3.085720
 20
7.300040
 11
3.840320
 21
7.297840
 12
3.028080
 22
7.230960
 13
3.783120
 23
7.228760
  0
POLYLINE
  8
0
  6
CONTINUOUS
 66
     1
 40
0.000000
 41
0.000000
  0
VERTEX
  8
0
  6
CONTINUOUS
 10
3.085720
 20
7.300040
  0
VERTEX
  8
0
  6
CONTINUOUS
 10
3.840320
 20
7.297840
  0
VERTEX
  8
0
  6
CONTINUOUS
 10
3.783120
 20
7.228760
  0
VERTEX
  8
0
  6
CONTINUOUS
 10
3.028080
 20
7.230960
  0
VERTEX
  8
0
  6
CONTINUOUS
 10
3.085720
 20
7.300040
  0
SEQEND
  8
0
  0
SOLID
  8
0
 62
    15
 10
3.028080
 20
7.230960
 11
3.783120
 21
7.228760
 12
2.995080
 22
7.201040
 13
3.749680
 23
7.198840
  0
POLYLINE
  8
0
  6
CONTINUOUS
 66
     1
 40
0.000000
 41
0.000000
  0
VERTEX
  8
0
  6
CONTINUOUS
 10
3.028080
 20
7.230960
  0
VERTEX
  8
0
  6
CONTINUOUS
 10
3.783120
 20
7.228760
  0
VERTEX
  8
0
  6
CONTINUOUS
 10
3.749680
 20
7.198840
  0
VERTEX
  8
0
  6
CONTINUOUS
 10
2.995080
 20
7.201040
  0
VERTEX
  8
0
  6
CONTINUOUS
 10
3.028080
 20
7.230960
  0
SEQEND
  8
0
  0
SOLID
  8
0
 62
    15
 10
2.995080
 20
7.201040
 11
3.749680
 21
7.198840
 12
2.958560
 22
7.174640
 13
3.713600
 23
7.172440
  0
POLYLINE
  8
0
  6
CONTINUOUS
 66
     1
 40
0.000000
 41
0.000000
  0
VERTEX
  8
0
  6
CONTINUOUS
 10
2.995080
 20
7.201040
  0
VERTEX
  8
0
  6
CONTINUOUS
 10
3.749680
 20
7.198840
  0
VERTEX
  8
0
  6
CONTINUOUS
 10
3.713600
 20
7.172440
  0
VERTEX
  8
0
  6
CONTINUOUS
 10
2.958560
 20
7.174640
  0
VERTEX
  8
0
  6
CONTINUOUS
 10
2.995080
 20
7.201040
  0
SEQEND
  8
0
  0
SOLID
  8
0
 62
    15
 10
2.958560
 20
7.174640
 11
3.713600
 21
7.172440
 12
2.919400
 22
7.152200
 13
3.674000
 23
7.150000
  0
POLYLINE
  8
0
  6
CONTINUOUS
 66
     1
 40
0.000000
 41
0.000000
  0
VERTEX
  8
0
  6
CONTINUOUS
 10
2.958560
 20
7.174640
  0
VERTEX
  8
0
  6
CONTINUOUS
 10
3.713600
 20
7.172440
  0
VERTEX
  8
0
  6
CONTINUOUS
 10
3.674000
 20
7.150000
  0
VERTEX
  8
0
  6
CONTINUOUS
 10
2.919400
 20
7.152200
  0
VERTEX
  8
0
  6
CONTINUOUS
 10
2.958560
 20
7.174640
  0
SEQEND
  8
0
  0
SOLID
  8
0
 62
    15
 10
2.919400
 20
7.152200
 11
3.674000
 21
7.150000
 12
2.877160
 22
7.133720
 13
3.631760
 23
7.131960
  0
POLYLINE
  8
0
  6
CONTINUOUS
 66
     1
 40
0.000000
 41
0.000000
  0
VERTEX
  8
0
  6
CONTINUOUS
 10
2.919400
 20
7.152200
  0
VERTEX
  8
0
  6
CONTINUOUS
 10
3.674000
 20
7.150000
  0
VERTEX
  8
0
  6
CONTINUOUS
 10
3.631760
 20
7.131960
  0
VERTEX
  8
0
  6
CONTINUOUS
 10
2.877160
 20
7.133720
  0
VERTEX
  8
0
  6
CONTINUOUS
 10
2.919400
 20
7.152200
  0
SEQEND
  8
0
  0
SOLID
  8
0
 62
    15
 10
2.877160
 20
7.133720
 11
3.631760
 21
7.131960
 12
2.831840
 22
7.120080
 13
3.586440
 23
7.118320
  0
POLYLINE
  8
0
  6
CONTINUOUS
 66
     1
 40
0.000000
 41
0.000000
  0
VERTEX
  8
0
  6
CONTINUOUS
 10
2.877160
 20
7.133720
  0
VERTEX
  8
0
  6
CONTINUOUS
 10
3.631760
 20
7.131960
  0
VERTEX
  8
0
  6
CONTINUOUS
 10
3.586440
 20
7.118320
  0
VERTEX
  8
0
  6
CONTINUOUS
 10
2.831840
 20
7.120080
  0
VERTEX
  8
0
  6
CONTINUOUS
 10
2.877160
 20
7.133720
  0
SEQEND
  8
0
  0
SOLID
  8
0
 62
    15
 10
2.831840
 20
7.120080
 11
3.586440
 21
7.118320
 12
2.783880
 22
7.111720
 13
3.538480
 23
7.109520
  0
POLYLINE
  8
0
  6
CONTINUOUS
 66
     1
 40
0.000000
 41
0.000000
  0
VERTEX
  8
0
  6
CONTINUOUS
 10
2.831840
 20
7.120080
  0
VERTEX
  8
0
  6
CONTINUOUS
 10
3.586440
 20
7.118320
  0
VERTEX
  8
0
  6
CONTINUOUS
 10
3.538480
 20
7.109520
  0
VERTEX
  8
0
  6
CONTINUOUS
 10
2.783880
 20
7.111720
  0
VERTEX
  8
0
  6
CONTINUOUS
 10
2.831840
 20
7.120080
  0
SEQEND
  8
0
  0
SOLID
  8
0
 62
    15
 10
2.460040
 20
8.516200
 11
3.214640
 21
8.514440
 12
2.466640
 22
8.447120
 13
3.221680
 23
8.444920
  0
POLYLINE
  8
0
  6
CONTINUOUS
 66
     1
 40
0.000000
 41
0.000000
  0
VERTEX
  8
0
  6
CONTINUOUS
 10
2.460040
 20
8.516200
  0
VERTEX
  8
0
  6
CONTINUOUS
 10
3.214640
 20
8.514440
  0
VERTEX
  8
0
  6
CONTINUOUS
 10
3.221680
 20
8.444920
  0
VERTEX
  8
0
  6
CONTINUOUS
 10
2.466640
 20
8.447120
  0
VERTEX
  8
0
  6
CONTINUOUS
 10
2.460040
 20
8.516200
  0
SEQEND
  8
0
  0
SOLID
  8
0
 62
    15
 10
2.783880
 20
6.996000
 11
3.538480
 21
6.993800
 12
2.733280
 22
6.988520
 13
3.487880
 23
6.986320
  0
POLYLINE
  8
0
  6
CONTINUOUS
 66
     1
 40
0.000000
 41
0.000000
  0
VERTEX
  8
0
  6
CONTINUOUS
 10
2.783880
 20
6.996000
  0
VERTEX
  8
0
  6
CONTINUOUS
 10
3.538480
 20
6.993800
  0
VERTEX
  8
0
  6
CONTINUOUS
 10
3.487880
 20
6.986320
  0
VERTEX
  8
0
  6
CONTINUOUS
 10
2.733280
 20
6.988520
  0
VERTEX
  8
0
  6
CONTINUOUS
 10
2.783880
 20
6.996000
  0
SEQEND
  8
0
  0
SOLID
  8
0
 62
    15
 10
2.733280
 20
6.988520
 11
3.487880
 21
6.986320
 12
2.687960
 22
6.975320
 13
3.443000
 23
6.973120
  0
POLYLINE
  8
0
  6
CONTINUOUS
 66
     1
 40
0.000000
 41
0.000000
  0
VERTEX
  8
0
  6
CONTINUOUS
 10
2.733280
 20
6.988520
  0
VERTEX
  8
0
  6
CONTINUOUS
 10
3.487880
 20
6.986320
  0
VERTEX
  8
0
  6
CONTINUOUS
 10
3.443000
 20
6.973120
  0
VERTEX
  8
0
  6
CONTINUOUS
 10
2.687960
 20
6.975320
  0
VERTEX
  8
0
  6
CONTINUOUS
 10
2.733280
 20
6.988520
  0
SEQEND
  8
0
  0
SOLID
  8
0
 62
    15
 10
2.687960
 20
6.975320
 11
3.443000
 21
6.973120
 12
2.648800
 22
6.956400
 13
3.403400
 23
6.954200
  0
POLYLINE
  8
0
  6
CONTINUOUS
 66
     1
 40
0.000000
 41
0.000000
  0
VERTEX
  8
0
  6
CONTINUOUS
 10
2.687960
 20
6.975320
  0
VERTEX
  8
0
  6
CONTINUOUS
 10
3.443000
 20
6.973120
  0
VERTEX
  8
0
  6
CONTINUOUS
 10
3.403400
 20
6.954200
  0
VERTEX
  8
0
  6
CONTINUOUS
 10
2.648800
 20
6.956400
  0
VERTEX
  8
0
  6
CONTINUOUS
 10
2.687960
 20
6.975320
  0
SEQEND
  8
0
  0
SOLID
  8
0
 62
    15
 10
2.648800
 20
6.956400
 11
3.403400
 21
6.954200
 12
2.614040
 22
6.933080
 13
3.369080
 23
6.930880
  0
POLYLINE
  8
0
  6
CONTINUOUS
 66
     1
 40
0.000000
 41
0.000000
  0
VERTEX
  8
0
  6
CONTINUOUS
 10
2.648800
 20
6.956400
  0
VERTEX
  8
0
  6
CONTINUOUS
 10
3.403400
 20
6.954200
  0
VERTEX
  8
0
  6
CONTINUOUS
 10
3.369080
 20
6.930880
  0
VERTEX
  8
0
  6
CONTINUOUS
 10
2.614040
 20
6.933080
  0
VERTEX
  8
0
  6
CONTINUOUS
 10
2.648800
 20
6.956400
  0
SEQEND
  8
0
  0
SOLID
  8
0
 62
    15
 10
2.614040
 20
6.933080
 11
3.369080
 21
6.930880
 12
2.584120
 22
6.904920
 13
3.339160
 23
6.902720
  0
POLYLINE
  8
0
  6
CONTINUOUS
 66
     1
 40
0.000000
 41
0.000000
  0
VERTEX
  8
0
  6
CONTINUOUS
 10
2.614040
 20
6.933080
  0
VERTEX
  8
0
  6
CONTINUOUS
 10
3.369080
 20
6.930880
  0
VERTEX
  8
0
  6
CONTINUOUS
 10
3.339160
 20
6.902720
  0
VERTEX
  8
0
  6
CONTINUOUS
 10
2.584120
 20
6.904920
  0
VERTEX
  8
0
  6
CONTINUOUS
 10
2.614040
 20
6.933080
  0
SEQEND
  8
0
  0
SOLID
  8
0
 62
    15
 10
2.584120
 20
6.904920
 11
3.339160
 21
6.902720
 12
2.558600
 22
6.872800
 13
3.313640
 23
6.870600
  0
POLYLINE
  8
0
  6
CONTINUOUS
 66
     1
 40
0.000000
 41
0.000000
  0
VERTEX
  8
0
  6
CONTINUOUS
 10
2.584120
 20
6.904920
  0
VERTEX
  8
0
  6
CONTINUOUS
 10
3.339160
 20
6.902720
  0
VERTEX
  8
0
  6
CONTINUOUS
 10
3.313640
 20
6.870600
  0
VERTEX
  8
0
  6
CONTINUOUS
 10
2.558600
 20
6.872800
  0
VERTEX
  8
0
  6
CONTINUOUS
 10
2.584120
 20
6.904920
  0
SEQEND
  8
0
  0
SOLID
  8
0
 62
    15
 10
2.558600
 20
6.872800
 11
3.313640
 21
6.870600
 12
2.537480
 22
6.836720
 13
3.292080
 23
6.834960
  0
POLYLINE
  8
0
  6
CONTINUOUS
 66
     1
 40
0.000000
 41
0.000000
  0
VERTEX
  8
0
  6
CONTINUOUS
 10
2.558600
 20
6.872800
  0
VERTEX
  8
0
  6
CONTINUOUS
 10
3.313640
 20
6.870600
  0
VERTEX
  8
0
  6
CONTINUOUS
 10
3.292080
 20
6.834960
  0
VERTEX
  8
0
  6
CONTINUOUS
 10
2.537480
 20
6.836720
  0
VERTEX
  8
0
  6
CONTINUOUS
 10
2.558600
 20
6.872800
  0
SEQEND
  8
0
  0
SOLID
  8
0
 62
    15
 10
2.537480
 20
6.836720
 11
3.292080
 21
6.834960
 12
2.519440
 22
6.797560
 13
3.274480
 23
6.795800
  0
POLYLINE
  8
0
  6
CONTINUOUS
 66
     1
 40
0.000000
 41
0.000000
  0
VERTEX
  8
0
  6
CONTINUOUS
 10
2.537480
 20
6.836720
  0
VERTEX
  8
0
  6
CONTINUOUS
 10
3.292080
 20
6.834960
  0
VERTEX
  8
0
  6
CONTINUOUS
 10
3.274480
 20
6.795800
  0
VERTEX
  8
0
  6
CONTINUOUS
 10
2.519440
 20
6.797560
  0
VERTEX
  8
0
  6
CONTINUOUS
 10
2.537480
 20
6.836720
  0
SEQEND
  8
0
  0
SOLID
  8
0
 62
    15
 10
2.519440
 20
6.797560
 11
3.274480
 21
6.795800
 12
2.493480
 22
6.711320
 13
3.248520
 23
6.709120
  0
POLYLINE
  8
0
  6
CONTINUOUS
 66
     1
 40
0.000000
 41
0.000000
  0
VERTEX
  8
0
  6
CONTINUOUS
 10
2.519440
 20
6.797560
  0
VERTEX
  8
0
  6
CONTINUOUS
 10
3.274480
 20
6.795800
  0
VERTEX
  8
0
  6
CONTINUOUS
 10
3.248520
 20
6.709120
  0
VERTEX
  8
0
  6
CONTINUOUS
 10
2.493480
 20
6.711320
  0
VERTEX
  8
0
  6
CONTINUOUS
 10
2.519440
 20
6.797560
  0
SEQEND
  8
0
  0
SOLID
  8
0
 62
    15
 10
2.493480
 20
6.711320
 11
3.248520
 21
6.709120
 12
2.478080
 22
6.617160
 13
3.233120
 23
6.614960
  0
POLYLINE
  8
0
  6
CONTINUOUS
 66
     1
 40
0.000000
 41
0.000000
  0
VERTEX
  8
0
  6
CONTINUOUS
 10
2.493480
 20
6.711320
  0
VERTEX
  8
0
  6
CONTINUOUS
 10
3.248520
 20
6.709120
  0
VERTEX
  8
0
  6
CONTINUOUS
 10
3.233120
 20
6.614960
  0
VERTEX
  8
0
  6
CONTINUOUS
 10
2.478080
 20
6.617160
  0
VERTEX
  8
0
  6
CONTINUOUS
 10
2.493480
 20
6.711320
  0
SEQEND
  8
0
  0
SOLID
  8
0
 62
    15
 10
2.478080
 20
6.617160
 11
3.233120
 21
6.614960
 12
2.470600
 22
6.517720
 13
3.225640
 23
6.515520
  0
POLYLINE
  8
0
  6
CONTINUOUS
 66
     1
 40
0.000000
 41
0.000000
  0
VERTEX
  8
0
  6
CONTINUOUS
 10
2.478080
 20
6.617160
  0
VERTEX
  8
0
  6
CONTINUOUS
 10
3.233120
 20
6.614960
  0
VERTEX
  8
0
  6
CONTINUOUS
 10
3.225640
 20
6.515520
  0
VERTEX
  8
0
  6
CONTINUOUS
 10
2.470600
 20
6.517720
  0
VERTEX
  8
0
  6
CONTINUOUS
 10
2.478080
 20
6.617160
  0
SEQEND
  8
0
  0
SOLID
  8
0
 62
    15
 10
2.470600
 20
6.517720
 11
3.225640
 21
6.515520
 12
2.468400
 22
6.416960
 13
3.223000
 23
6.415200
  0
POLYLINE
  8
0
  6
CONTINUOUS
 66
     1
 40
0.000000
 41
0.000000
  0
VERTEX
  8
0
  6
CONTINUOUS
 10
2.470600
 20
6.517720
  0
VERTEX
  8
0
  6
CONTINUOUS
 10
3.225640
 20
6.515520
  0
VERTEX
  8
0
  6
CONTINUOUS
 10
3.223000
 20
6.415200
  0
VERTEX
  8
0
  6
CONTINUOUS
 10
2.468400
 20
6.416960
  0
VERTEX
  8
0
  6
CONTINUOUS
 10
2.470600
 20
6.517720
  0
SEQEND
  8
0
  0
SOLID
  8
0
 62
    15
 10
2.468400
 20
6.416960
 11
3.223000
 21
6.415200
 12
2.512400
 22
6.399800
 13
3.267000
 23
6.398040
  0
POLYLINE
  8
0
  6
CONTINUOUS
 66
     1
 40
0.000000
 41
0.000000
  0
VERTEX
  8
0
  6
CONTINUOUS
 10
2.468400
 20
6.416960
  0
VERTEX
  8
0
  6
CONTINUOUS
 10
3.223000
 20
6.415200
  0
VERTEX
  8
0
  6
CONTINUOUS
 10
3.267000
 20
6.398040
  0
VERTEX
  8
0
  6
CONTINUOUS
 10
2.512400
 20
6.399800
  0
VERTEX
  8
0
  6
CONTINUOUS
 10
2.468400
 20
6.416960
  0
SEQEND
  8
0
  0
SOLID
  8
0
 62
    15
 10
2.512400
 20
6.399800
 11
3.267000
 21
6.398040
 12
2.550680
 22
6.381760
 13
3.305280
 23
6.379560
  0
POLYLINE
  8
0
  6
CONTINUOUS
 66
     1
 40
0.000000
 41
0.000000
  0
VERTEX
  8
0
  6
CONTINUOUS
 10
2.512400
 20
6.399800
  0
VERTEX
  8
0
  6
CONTINUOUS
 10
3.267000
 20
6.398040
  0
VERTEX
  8
0
  6
CONTINUOUS
 10
3.305280
 20
6.379560
  0
VERTEX
  8
0
  6
CONTINUOUS
 10
2.550680
 20
6.381760
  0
VERTEX
  8
0
  6
CONTINUOUS
 10
2.512400
 20
6.399800
  0
SEQEND
  8
0
  0
SOLID
  8
0
 62
    15
 10
2.550680
 20
6.381760
 11
3.305280
 21
6.379560
 12
2.583680
 22
6.362400
 13
3.338280
 23
6.360200
  0
POLYLINE
  8
0
  6
CONTINUOUS
 66
     1
 40
0.000000
 41
0.000000
  0
VERTEX
  8
0
  6
CONTINUOUS
 10
2.550680
 20
6.381760
  0
VERTEX
  8
0
  6
CONTINUOUS
 10
3.305280
 20
6.379560
  0
VERTEX
  8
0
  6
CONTINUOUS
 10
3.338280
 20
6.360200
  0
VERTEX
  8
0
  6
CONTINUOUS
 10
2.583680
 20
6.362400
  0
VERTEX
  8
0
  6
CONTINUOUS
 10
2.550680
 20
6.381760
  0
SEQEND
  8
0
  0
SOLID
  8
0
 62
    15
 10
2.583680
 20
6.362400
 11
3.338280
 21
6.360200
 12
2.611400
 22
6.342160
 13
3.366000
 23
6.340400
  0
POLYLINE
  8
0
  6
CONTINUOUS
 66
     1
 40
0.000000
 41
0.000000
  0
VERTEX
  8
0
  6
CONTINUOUS
 10
2.583680
 20
6.362400
  0
VERTEX
  8
0
  6
CONTINUOUS
 10
3.338280
 20
6.360200
  0
VERTEX
  8
0
  6
CONTINUOUS
 10
3.366000
 20
6.340400
  0
VERTEX
  8
0
  6
CONTINUOUS
 10
2.611400
 20
6.342160
  0
VERTEX
  8
0
  6
CONTINUOUS
 10
2.583680
 20
6.362400
  0
SEQEND
  8
0
  0
SOLID
  8
0
 62
    15
 10
2.611400
 20
6.342160
 11
3.366000
 21
6.340400
 12
2.634280
 22
6.321480
 13
3.388880
 23
6.319720
  0
POLYLINE
  8
0
  6
CONTINUOUS
 66
     1
 40
0.000000
 41
0.000000
  0
VERTEX
  8
0
  6
CONTINUOUS
 10
2.611400
 20
6.342160
  0
VERTEX
  8
0
  6
CONTINUOUS
 10
3.366000
 20
6.340400
  0
VERTEX
  8
0
  6
CONTINUOUS
 10
3.388880
 20
6.319720
  0
VERTEX
  8
0
  6
CONTINUOUS
 10
2.634280
 20
6.321480
  0
VERTEX
  8
0
  6
CONTINUOUS
 10
2.611400
 20
6.342160
  0
SEQEND
  8
0
  0
SOLID
  8
0
 62
    15
 10
2.634280
 20
6.321480
 11
3.388880
 21
6.319720
 12
2.652320
 22
6.300360
 13
3.406920
 23
6.298600
  0
POLYLINE
  8
0
  6
CONTINUOUS
 66
     1
 40
0.000000
 41
0.000000
  0
VERTEX
  8
0
  6
CONTINUOUS
 10
2.634280
 20
6.321480
  0
VERTEX
  8
0
  6
CONTINUOUS
 10
3.388880
 20
6.319720
  0
VERTEX
  8
0
  6
CONTINUOUS
 10
3.406920
 20
6.298600
  0
VERTEX
  8
0
  6
CONTINUOUS
 10
2.652320
 20
6.300360
  0
VERTEX
  8
0
  6
CONTINUOUS
 10
2.634280
 20
6.321480
  0
SEQEND
  8
0
  0
SOLID
  8
0
 62
    15
 10
2.652320
 20
6.300360
 11
3.406920
 21
6.298600
 12
2.675200
 22
6.257680
 13
3.429800
 23
6.255480
  0
POLYLINE
  8
0
  6
CONTINUOUS
 66
     1
 40
0.000000
 41
0.000000
  0
VERTEX
  8
0
  6
CONTINUOUS
 10
2.652320
 20
6.300360
  0
VERTEX
  8
0
  6
CONTINUOUS
 10
3.406920
 20
6.298600
  0
VERTEX
  8
0
  6
CONTINUOUS
 10
3.429800
 20
6.255480
  0
VERTEX
  8
0
  6
CONTINUOUS
 10
2.675200
 20
6.257680
  0
VERTEX
  8
0
  6
CONTINUOUS
 10
2.652320
 20
6.300360
  0
SEQEND
  8
0
  0
SOLID
  8
0
 62
    15
 10
2.675200
 20
6.257680
 11
3.429800
 21
6.255480
 12
2.681360
 22
6.215000
 13
3.435960
 23
6.212800
  0
POLYLINE
  8
0
  6
CONTINUOUS
 66
     1
 40
0.000000
 41
0.000000
  0
VERTEX
  8
0
  6
CONTINUOUS
 10
2.675200
 20
6.257680
  0
VERTEX
  8
0
  6
CONTINUOUS
 10
3.429800
 20
6.255480
  0
VERTEX
  8
0
  6
CONTINUOUS
 10
3.435960
 20
6.212800
  0
VERTEX
  8
0
  6
CONTINUOUS
 10
2.681360
 20
6.215000
  0
VERTEX
  8
0
  6
CONTINUOUS
 10
2.675200
 20
6.257680
  0
SEQEND
  8
0
  0
SOLID
  8
0
 62
    15
 10
2.681360
 20
6.215000
 11
3.435960
 21
6.212800
 12
2.673000
 22
6.174080
 13
3.427600
 23
6.171880
  0
POLYLINE
  8
0
  6
CONTINUOUS
 66
     1
 40
0.000000
 41
0.000000
  0
VERTEX
  8
0
  6
CONTINUOUS
 10
2.681360
 20
6.215000
  0
VERTEX
  8
0
  6
CONTINUOUS
 10
3.435960
 20
6.212800
  0
VERTEX
  8
0
  6
CONTINUOUS
 10
3.427600
 20
6.171880
  0
VERTEX
  8
0
  6
CONTINUOUS
 10
2.673000
 20
6.174080
  0
VERTEX
  8
0
  6
CONTINUOUS
 10
2.681360
 20
6.215000
  0
SEQEND
  8
0
  0
SOLID
  8
0
 62
    15
 10
2.673000
 20
6.174080
 11
3.427600
 21
6.171880
 12
2.651440
 22
6.136240
 13
3.406480
 23
6.134480
  0
POLYLINE
  8
0
  6
CONTINUOUS
 66
     1
 40
0.000000
 41
0.000000
  0
VERTEX
  8
0
  6
CONTINUOUS
 10
2.673000
 20
6.174080
  0
VERTEX
  8
0
  6
CONTINUOUS
 10
3.427600
 20
6.171880
  0
VERTEX
  8
0
  6
CONTINUOUS
 10
3.406480
 20
6.134480
  0
VERTEX
  8
0
  6
CONTINUOUS
 10
2.651440
 20
6.136240
  0
VERTEX
  8
0
  6
CONTINUOUS
 10
2.673000
 20
6.174080
  0
SEQEND
  8
0
  0
SOLID
  8
0
 62
    15
 10
2.651440
 20
6.136240
 11
3.406480
 21
6.134480
 12
2.618880
 22
6.103240
 13
3.373480
 23
6.101040
  0
POLYLINE
  8
0
  6
CONTINUOUS
 66
     1
 40
0.000000
 41
0.000000
  0
VERTEX
  8
0
  6
CONTINUOUS
 10
2.651440
 20
6.136240
  0
VERTEX
  8
0
  6
CONTINUOUS
 10
3.406480
 20
6.134480
  0
VERTEX
  8
0
  6
CONTINUOUS
 10
3.373480
 20
6.101040
  0
VERTEX
  8
0
  6
CONTINUOUS
 10
2.618880
 20
6.103240
  0
VERTEX
  8
0
  6
CONTINUOUS
 10
2.651440
 20
6.136240
  0
SEQEND
  8
0
  0
SOLID
  8
0
 62
    15
 10
2.618880
 20
6.103240
 11
3.373480
 21
6.101040
 12
2.582360
 22
6.076400
 13
3.336960
 23
6.074200
  0
POLYLINE
  8
0
  6
CONTINUOUS
 66
     1
 40
0.000000
 41
0.000000
  0
VERTEX
  8
0
  6
CONTINUOUS
 10
2.618880
 20
6.103240
  0
VERTEX
  8
0
  6
CONTINUOUS
 10
3.373480
 20
6.101040
  0
VERTEX
  8
0
  6
CONTINUOUS
 10
3.336960
 20
6.074200
  0
VERTEX
  8
0
  6
CONTINUOUS
 10
2.582360
 20
6.076400
  0
VERTEX
  8
0
  6
CONTINUOUS
 10
2.618880
 20
6.103240
  0
SEQEND
  8
0
  0
SOLID
  8
0
 62
    15
 10
2.582360
 20
6.076400
 11
3.336960
 21
6.074200
 12
2.549360
 22
6.054400
 13
3.303960
 23
6.052200
  0
POLYLINE
  8
0
  6
CONTINUOUS
 66
     1
 40
0.000000
 41
0.000000
  0
VERTEX
  8
0
  6
CONTINUOUS
 10
2.582360
 20
6.076400
  0
VERTEX
  8
0
  6
CONTINUOUS
 10
3.336960
 20
6.074200
  0
VERTEX
  8
0
  6
CONTINUOUS
 10
3.303960
 20
6.052200
  0
VERTEX
  8
0
  6
CONTINUOUS
 10
2.549360
 20
6.054400
  0
VERTEX
  8
0
  6
CONTINUOUS
 10
2.582360
 20
6.076400
  0
SEQEND
  8
0
  0
SOLID
  8
0
 62
    15
 10
2.549360
 20
6.054400
 11
3.303960
 21
6.052200
 12
2.519880
 22
6.032840
 13
3.274480
 23
6.030640
  0
POLYLINE
  8
0
  6
CONTINUOUS
 66
     1
 40
0.000000
 41
0.000000
  0
VERTEX
  8
0
  6
CONTINUOUS
 10
2.549360
 20
6.054400
  0
VERTEX
  8
0
  6
CONTINUOUS
 10
3.303960
 20
6.052200
  0
VERTEX
  8
0
  6
CONTINUOUS
 10
3.274480
 20
6.030640
  0
VERTEX
  8
0
  6
CONTINUOUS
 10
2.519880
 20
6.032840
  0
VERTEX
  8
0
  6
CONTINUOUS
 10
2.549360
 20
6.054400
  0
SEQEND
  8
0
  0
SOLID
  8
0
 62
    15
 10
2.519880
 20
6.032840
 11
3.274480
 21
6.030640
 12
2.493920
 22
6.007760
 13
3.248960
 23
6.006000
  0
POLYLINE
  8
0
  6
CONTINUOUS
 66
     1
 40
0.000000
 41
0.000000
  0
VERTEX
  8
0
  6
CONTINUOUS
 10
2.519880
 20
6.032840
  0
VERTEX
  8
0
  6
CONTINUOUS
 10
3.274480
 20
6.030640
  0
VERTEX
  8
0
  6
CONTINUOUS
 10
3.248960
 20
6.006000
  0
VERTEX
  8
0
  6
CONTINUOUS
 10
2.493920
 20
6.007760
  0
VERTEX
  8
0
  6
CONTINUOUS
 10
2.519880
 20
6.032840
  0
SEQEND
  8
0
  0
SOLID
  8
0
 62
    15
 10
2.493920
 20
6.007760
 11
3.248960
 21
6.006000
 12
2.472360
 22
5.976080
 13
3.226960
 23
5.973880
  0
POLYLINE
  8
0
  6
CONTINUOUS
 66
     1
 40
0.000000
 41
0.000000
  0
VERTEX
  8
0
  6
CONTINUOUS
 10
2.493920
 20
6.007760
  0
VERTEX
  8
0
  6
CONTINUOUS
 10
3.248960
 20
6.006000
  0
VERTEX
  8
0
  6
CONTINUOUS
 10
3.226960
 20
5.973880
  0
VERTEX
  8
0
  6
CONTINUOUS
 10
2.472360
 20
5.976080
  0
VERTEX
  8
0
  6
CONTINUOUS
 10
2.493920
 20
6.007760
  0
SEQEND
  8
0
  0
SOLID
  8
0
 62
    15
 10
2.472360
 20
5.976080
 11
3.226960
 21
5.973880
 12
2.454760
 22
5.932960
 13
3.209800
 23
5.931200
  0
POLYLINE
  8
0
  6
CONTINUOUS
 66
     1
 40
0.000000
 41
0.000000
  0
VERTEX
  8
0
  6
CONTINUOUS
 10
2.472360
 20
5.976080
  0
VERTEX
  8
0
  6
CONTINUOUS
 10
3.226960
 20
5.973880
  0
VERTEX
  8
0
  6
CONTINUOUS
 10
3.209800
 20
5.931200
  0
VERTEX
  8
0
  6
CONTINUOUS
 10
2.454760
 20
5.932960
  0
VERTEX
  8
0
  6
CONTINUOUS
 10
2.472360
 20
5.976080
  0
SEQEND
  8
0
  0
SOLID
  8
0
 62
    15
 10
2.454760
 20
5.932960
 11
3.209800
 21
5.931200
 12
2.448160
 22
5.906120
 13
3.202760
 23
5.904360
  0
POLYLINE
  8
0
  6
CONTINUOUS
 66
     1
 40
0.000000
 41
0.000000
  0
VERTEX
  8
0
  6
CONTINUOUS
 10
2.454760
 20
5.932960
  0
VERTEX
  8
0
  6
CONTINUOUS
 10
3.209800
 20
5.931200
  0
VERTEX
  8
0
  6
CONTINUOUS
 10
3.202760
 20
5.904360
  0
VERTEX
  8
0
  6
CONTINUOUS
 10
2.448160
 20
5.906120
  0
VERTEX
  8
0
  6
CONTINUOUS
 10
2.454760
 20
5.932960
  0
SEQEND
  8
0
  0
SOLID
  8
0
 62
    15
 10
2.448160
 20
5.906120
 11
3.202760
 21
5.904360
 12
2.442440
 22
5.875320
 13
3.197040
 23
5.873120
  0
POLYLINE
  8
0
  6
CONTINUOUS
 66
     1
 40
0.000000
 41
0.000000
  0
VERTEX
  8
0
  6
CONTINUOUS
 10
2.448160
 20
5.906120
  0
VERTEX
  8
0
  6
CONTINUOUS
 10
3.202760
 20
5.904360
  0
VERTEX
  8
0
  6
CONTINUOUS
 10
3.197040
 20
5.873120
  0
VERTEX
  8
0
  6
CONTINUOUS
 10
2.442440
 20
5.875320
  0
VERTEX
  8
0
  6
CONTINUOUS
 10
2.448160
 20
5.906120
  0
SEQEND
  8
0
  0
SOLID
  8
0
 62
    15
 10
2.442440
 20
5.875320
 11
3.197040
 21
5.873120
 12
2.437600
 22
5.839240
 13
3.192640
 23
5.837040
  0
POLYLINE
  8
0
  6
CONTINUOUS
 66
     1
 40
0.000000
 41
0.000000
  0
VERTEX
  8
0
  6
CONTINUOUS
 10
2.442440
 20
5.875320
  0
VERTEX
  8
0
  6
CONTINUOUS
 10
3.197040
 20
5.873120
  0
VERTEX
  8
0
  6
CONTINUOUS
 10
3.192640
 20
5.837040
  0
VERTEX
  8
0
  6
CONTINUOUS
 10
2.437600
 20
5.839240
  0
VERTEX
  8
0
  6
CONTINUOUS
 10
2.442440
 20
5.875320
  0
SEQEND
  8
0
  0
SOLID
  8
0
 62
    15
 10
2.434520
 20
5.798320
 11
3.189120
 21
5.796120
 12
2.253240
 22
5.798320
 13
3.008280
 23
5.796120
  0
POLYLINE
  8
0
  6
CONTINUOUS
 66
     1
 40
0.000000
 41
0.000000
  0
VERTEX
  8
0
  6
CONTINUOUS
 10
2.434520
 20
5.798320
  0
VERTEX
  8
0
  6
CONTINUOUS
 10
3.189120
 20
5.796120
  0
VERTEX
  8
0
  6
CONTINUOUS
 10
3.008280
 20
5.796120
  0
VERTEX
  8
0
  6
CONTINUOUS
 10
2.253240
 20
5.798320
  0
VERTEX
  8
0
  6
CONTINUOUS
 10
2.434520
 20
5.798320
  0
SEQEND
  8
0
  0
SOLID
  8
0
 62
    15
 10
2.437600
 20
5.839240
 11
3.192640
 21
5.837040
 12
2.434520
 22
5.798320
 13
3.189120
 23
5.796120
  0
POLYLINE
  8
0
  6
CONTINUOUS
 66
     1
 40
0.000000
 41
0.000000
  0
VERTEX
  8
0
  6
CONTINUOUS
 10
2.437600
 20
5.839240
  0
VERTEX
  8
0
  6
CONTINUOUS
 10
3.192640
 20
5.837040
  0
VERTEX
  8
0
  6
CONTINUOUS
 10
3.189120
 20
5.796120
  0
VERTEX
  8
0
  6
CONTINUOUS
 10
2.434520
 20
5.798320
  0
VERTEX
  8
0
  6
CONTINUOUS
 10
2.437600
 20
5.839240
  0
SEQEND
  8
0
  0
SOLID
  8
0
 62
    15
 10
2.253240
 20
5.798320
 11
3.008280
 21
5.796120
 12
2.253240
 22
5.798320
 13
3.007840
 23
5.796120
  0
POLYLINE
  8
0
  6
CONTINUOUS
 66
     1
 40
0.000000
 41
0.000000
  0
VERTEX
  8
0
  6
CONTINUOUS
 10
2.253240
 20
5.798320
  0
VERTEX
  8
0
  6
CONTINUOUS
 10
3.008280
 20
5.796120
  0
VERTEX
  8
0
  6
CONTINUOUS
 10
3.007840
 20
5.796120
  0
VERTEX
  8
0
  6
CONTINUOUS
 10
2.253240
 20
5.798320
  0
SEQEND
  8
0
  0
POLYLINE
  8
0
  6
CONTINUOUS
 66
     1
 40
0.000000
 41
0.000000
  0
VERTEX
  8
0
  6
CONTINUOUS
 10
2.253240
 20
5.798320
  0
VERTEX
  8
0
  6
CONTINUOUS
 10
2.253240
 20
8.516200
  0
VERTEX
  8
0
  6
CONTINUOUS
 10
2.460040
 20
8.516200
  0
VERTEX
  8
0
  6
CONTINUOUS
 10
2.466640
 20
8.447120
  0
VERTEX
  8
0
  6
CONTINUOUS
 10
2.477200
 20
8.386400
  0
VERTEX
  8
0
  6
CONTINUOUS
 10
2.493920
 20
8.335360
  0
VERTEX
  8
0
  6
CONTINUOUS
 10
2.519000
 20
8.293560
  0
VERTEX
  8
0
  6
CONTINUOUS
 10
2.555080
 20
8.261000
  0
VERTEX
  8
0
  6
CONTINUOUS
 10
2.578400
 20
8.248240
  0
VERTEX
  8
0
  6
CONTINUOUS
 10
2.604800
 20
8.237680
  0
VERTEX
  8
0
  6
CONTINUOUS
 10
2.635600
 20
8.229760
  0
VERTEX
  8
0
  6
CONTINUOUS
 10
2.670800
 20
8.224040
  0
VERTEX
  8
0
  6
CONTINUOUS
 10
2.710400
 20
8.220960
  0
VERTEX
  8
0
  6
CONTINUOUS
 10
2.754840
 20
8.220080
  0
VERTEX
  8
0
  6
CONTINUOUS
 10
2.754400
 20
8.146160
  0
VERTEX
  8
0
  6
CONTINUOUS
 10
2.808080
 20
8.142640
  0
VERTEX
  8
0
  6
CONTINUOUS
 10
2.858240
 20
8.134280
  0
VERTEX
  8
0
  6
CONTINUOUS
 10
2.904440
 20
8.120640
  0
VERTEX
  8
0
  6
CONTINUOUS
 10
2.947560
 20
8.102600
  0
VERTEX
  8
0
  6
CONTINUOUS
 10
2.986720
 20
8.080160
  0
VERTEX
  8
0
  6
CONTINUOUS
 10
3.022360
 20
8.053760
  0
VERTEX
  8
0
  6
CONTINUOUS
 10
3.054480
 20
8.024280
  0
VERTEX
  8
0
  6
CONTINUOUS
 10
3.083080
 20
7.991280
  0
VERTEX
  8
0
  6
CONTINUOUS
 10
3.130160
 20
7.916480
  0
VERTEX
  8
0
  6
CONTINUOUS
 10
3.163600
 20
7.833320
  0
VERTEX
  8
0
  6
CONTINUOUS
 10
3.183400
 20
7.744000
  0
VERTEX
  8
0
  6
CONTINUOUS
 10
3.189560
 20
7.651160
  0
VERTEX
  8
0
  6
CONTINUOUS
 10
3.182960
 20
7.557440
  0
VERTEX
  8
0
  6
CONTINUOUS
 10
3.163160
 20
7.465920
  0
VERTEX
  8
0
  6
CONTINUOUS
 10
3.130600
 20
7.379240
  0
VERTEX
  8
0
  6
CONTINUOUS
 10
3.085720
 20
7.300040
  0
VERTEX
  8
0
  6
CONTINUOUS
 10
3.028080
 20
7.230960
  0
VERTEX
  8
0
  6
CONTINUOUS
 10
2.995080
 20
7.201040
  0
VERTEX
  8
0
  6
CONTINUOUS
 10
2.958560
 20
7.174640
  0
VERTEX
  8
0
  6
CONTINUOUS
 10
2.919400
 20
7.152200
  0
VERTEX
  8
0
  6
CONTINUOUS
 10
2.877160
 20
7.133720
  0
VERTEX
  8
0
  6
CONTINUOUS
 10
2.831840
 20
7.120080
  0
VERTEX
  8
0
  6
CONTINUOUS
 10
2.783880
 20
7.111720
  0
VERTEX
  8
0
  6
CONTINUOUS
 10
2.783880
 20
6.996000
  0
VERTEX
  8
0
  6
CONTINUOUS
 10
2.733280
 20
6.988520
  0
VERTEX
  8
0
  6
CONTINUOUS
 10
2.687960
 20
6.975320
  0
VERTEX
  8
0
  6
CONTINUOUS
 10
2.648800
 20
6.956400
  0
VERTEX
  8
0
  6
CONTINUOUS
 10
2.614040
 20
6.933080
  0
VERTEX
  8
0
  6
CONTINUOUS
 10
2.584120
 20
6.904920
  0
VERTEX
  8
0
  6
CONTINUOUS
 10
2.558600
 20
6.872800
  0
VERTEX
  8
0
  6
CONTINUOUS
 10
2.537480
 20
6.836720
  0
VERTEX
  8
0
  6
CONTINUOUS
 10
2.519440
 20
6.797560
  0
VERTEX
  8
0
  6
CONTINUOUS
 10
2.493480
 20
6.711320
  0
VERTEX
  8
0
  6
CONTINUOUS
 10
2.478080
 20
6.617160
  0
VERTEX
  8
0
  6
CONTINUOUS
 10
2.470600
 20
6.517720
  0
VERTEX
  8
0
  6
CONTINUOUS
 10
2.468400
 20
6.416960
  0
VERTEX
  8
0
  6
CONTINUOUS
 10
2.512400
 20
6.399800
  0
VERTEX
  8
0
  6
CONTINUOUS
 10
2.550680
 20
6.381760
  0
VERTEX
  8
0
  6
CONTINUOUS
 10
2.583680
 20
6.362400
  0
VERTEX
  8
0
  6
CONTINUOUS
 10
2.611400
 20
6.342160
  0
VERTEX
  8
0
  6
CONTINUOUS
 10
2.634280
 20
6.321480
  0
VERTEX
  8
0
  6
CONTINUOUS
 10
2.652320
 20
6.300360
  0
VERTEX
  8
0
  6
CONTINUOUS
 10
2.675200
 20
6.257680
  0
VERTEX
  8
0
  6
CONTINUOUS
 10
2.681360
 20
6.215000
  0
VERTEX
  8
0
  6
CONTINUOUS
 10
2.673000
 20
6.174080
  0
VERTEX
  8
0
  6
CONTINUOUS
 10
2.651440
 20
6.136240
  0
VERTEX
  8
0
  6
CONTINUOUS
 10
2.618880
 20
6.103240
  0
VERTEX
  8
0
  6
CONTINUOUS
 10
2.519880
 20
6.032840
  0
VERTEX
  8
0
  6
CONTINUOUS
 10
2.493920
 20
6.007760
  0
VERTEX
  8
0
  6
CONTINUOUS
 10
2.472360
 20
5.976080
  0
VERTEX
  8
0
  6
CONTINUOUS
 10
2.454760
 20
5.932960
  0
VERTEX
  8
0
  6
CONTINUOUS
 10
2.448160
 20
5.906120
  0
VERTEX
  8
0
  6
CONTINUOUS
 10
2.442440
 20
5.875320
  0
VERTEX
  8
0
  6
CONTINUOUS
 10
2.437600
 20
5.839240
  0
VERTEX
  8
0
  6
CONTINUOUS
 10
2.434520
 20
5.798320
  0
VERTEX
  8
0
  6
CONTINUOUS
 10
2.253240
 20
5.798320
  0
SEQEND
  8
0
  0
TEXT
  8
0
 10
2.756160
 20
5.536080
 40
0.138038
  1
BA  1139
 41
1.000000
  7
SN0
 71
     0
 72
     5
 11
3.438248
 21
5.536080
  0
TEXT
  8
0
 10
2.716120
 20
5.344240
 40
0.138038
  1
1" x 2-3/4"
 41
1.000000
  7
SN0
 71
     0
 72
     5
 11
3.478328
 21
5.344240
  0
POLYLINE
  8
0
  6
CONTINUOUS
 66
     1
 40
0.014080
 41
0.014080
  0
VERTEX
  8
0
  6
CONTINUOUS
 10
6.689320
 20
5.584040
  0
VERTEX
  8
0
  6
CONTINUOUS
 10
3.971000
 20
5.584040
  0
VERTEX
  8
0
  6
CONTINUOUS
 10
3.971000
 20
5.790840
  0
VERTEX
  8
0
  6
CONTINUOUS
 10
4.040520
 20
5.797880
  0
VERTEX
  8
0
  6
CONTINUOUS
 10
4.086720
 20
5.805360
  0
VERTEX
  8
0
  6
CONTINUOUS
 10
4.127640
 20
5.815480
  0
VERTEX
  8
0
  6
CONTINUOUS
 10
4.163280
 20
5.830000
  0
VERTEX
  8
0
  6
CONTINUOUS
 10
4.193640
 20
5.849800
  0
VERTEX
  8
0
  6
CONTINUOUS
 10
4.211240
 20
5.866520
  0
VERTEX
  8
0
  6
CONTINUOUS
 10
4.226200
 20
5.886320
  0
VERTEX
  8
0
  6
CONTINUOUS
 10
4.238960
 20
5.909200
  0
VERTEX
  8
0
  6
CONTINUOUS
 10
4.249520
 20
5.935600
  0
VERTEX
  8
0
  6
CONTINUOUS
 10
4.257440
 20
5.966400
  0
VERTEX
  8
0
  6
CONTINUOUS
 10
4.263160
 20
6.001600
  0
VERTEX
  8
0
  6
CONTINUOUS
 10
4.267120
 20
6.062760
  0
VERTEX
  8
0
  6
CONTINUOUS
 10
4.267120
 20
6.085640
  0
VERTEX
  8
0
  6
CONTINUOUS
 10
4.341480
 20
6.085200
  0
VERTEX
  8
0
  6
CONTINUOUS
 10
4.344560
 20
6.138880
  0
VERTEX
  8
0
  6
CONTINUOUS
 10
4.353360
 20
6.189040
  0
VERTEX
  8
0
  6
CONTINUOUS
 10
4.359520
 20
6.212800
  0
VERTEX
  8
0
  6
CONTINUOUS
 10
4.375360
 20
6.257240
  0
VERTEX
  8
0
  6
CONTINUOUS
 10
4.395600
 20
6.298160
  0
VERTEX
  8
0
  6
CONTINUOUS
 10
4.419800
 20
6.336000
  0
VERTEX
  8
0
  6
CONTINUOUS
 10
4.447960
 20
6.369880
  0
VERTEX
  8
0
  6
CONTINUOUS
 10
4.479200
 20
6.400240
  0
VERTEX
  8
0
  6
CONTINUOUS
 10
4.513960
 20
6.427080
  0
VERTEX
  8
0
  6
CONTINUOUS
 10
4.551360
 20
6.450840
  0
VERTEX
  8
0
  6
CONTINUOUS
 10
4.590960
 20
6.470640
  0
VERTEX
  8
0
  6
CONTINUOUS
 10
4.632320
 20
6.487360
  0
VERTEX
  8
0
  6
CONTINUOUS
 10
4.675880
 20
6.500560
  0
VERTEX
  8
0
  6
CONTINUOUS
 10
4.743640
 20
6.514200
  0
VERTEX
  8
0
  6
CONTINUOUS
 10
4.789400
 20
6.519040
  0
VERTEX
  8
0
  6
CONTINUOUS
 10
4.836480
 20
6.520360
  0
VERTEX
  8
0
  6
CONTINUOUS
 10
4.883120
 20
6.518600
  0
VERTEX
  8
0
  6
CONTINUOUS
 10
4.929760
 20
6.513760
  0
VERTEX
  8
0
  6
CONTINUOUS
 10
4.975960
 20
6.505400
  0
VERTEX
  8
0
  6
CONTINUOUS
 10
5.043720
 20
6.487360
  0
VERTEX
  8
0
  6
CONTINUOUS
 10
5.107960
 20
6.461840
  0
VERTEX
  8
0
  6
CONTINUOUS
 10
5.148880
 20
6.440720
  0
VERTEX
  8
0
  6
CONTINUOUS
 10
5.187600
 20
6.416520
  0
VERTEX
  8
0
  6
CONTINUOUS
 10
5.223240
 20
6.389680
  0
VERTEX
  8
0
  6
CONTINUOUS
 10
5.256680
 20
6.359320
  0
VERTEX
  8
0
  6
CONTINUOUS
 10
5.286600
 20
6.325880
  0
VERTEX
  8
0
  6
CONTINUOUS
 10
5.313000
 20
6.289800
  0
VERTEX
  8
0
  6
CONTINUOUS
 10
5.335440
 20
6.250200
  0
VERTEX
  8
0
  6
CONTINUOUS
 10
5.353480
 20
6.207960
  0
VERTEX
  8
0
  6
CONTINUOUS
 10
5.360960
 20
6.185960
  0
VERTEX
  8
0
  6
CONTINUOUS
 10
5.372400
 20
6.139320
  0
VERTEX
  8
0
  6
CONTINUOUS
 10
5.375920
 20
6.114680
  0
VERTEX
  8
0
  6
CONTINUOUS
 10
5.491200
 20
6.114680
  0
VERTEX
  8
0
  6
CONTINUOUS
 10
5.498680
 20
6.064080
  0
VERTEX
  8
0
  6
CONTINUOUS
 10
5.511880
 20
6.019200
  0
VERTEX
  8
0
  6
CONTINUOUS
 10
5.520680
 20
5.998520
  0
VERTEX
  8
0
  6
CONTINUOUS
 10
5.541800
 20
5.961560
  0
VERTEX
  8
0
  6
CONTINUOUS
 10
5.567760
 20
5.929440
  0
VERTEX
  8
0
  6
CONTINUOUS
 10
5.598120
 20
5.901720
  0
VERTEX
  8
0
  6
CONTINUOUS
 10
5.632000
 20
5.878400
  0
VERTEX
  8
0
  6
CONTINUOUS
 10
5.669400
 20
5.858600
  0
VERTEX
  8
0
  6
CONTINUOUS
 10
5.731440
 20
5.835720
  0
VERTEX
  8
0
  6
CONTINUOUS
 10
5.775880
 20
5.824280
  0
VERTEX
  8
0
  6
CONTINUOUS
 10
5.822080
 20
5.815480
  0
VERTEX
  8
0
  6
CONTINUOUS
 10
5.870480
 20
5.808880
  0
VERTEX
  8
0
  6
CONTINUOUS
 10
5.969480
 20
5.801400
  0
VERTEX
  8
0
  6
CONTINUOUS
 10
6.070240
 20
5.799200
  0
VERTEX
  8
0
  6
CONTINUOUS
 10
6.087400
 20
5.843200
  0
VERTEX
  8
0
  6
CONTINUOUS
 10
6.105880
 20
5.881480
  0
VERTEX
  8
0
  6
CONTINUOUS
 10
6.124800
 20
5.914480
  0
VERTEX
  8
0
  6
CONTINUOUS
 10
6.155160
 20
5.954080
  0
VERTEX
  8
0
  6
CONTINUOUS
 10
6.176280
 20
5.974760
  0
VERTEX
  8
0
  6
CONTINUOUS
 10
6.197400
 20
5.990160
  0
VERTEX
  8
0
  6
CONTINUOUS
 10
6.218960
 20
6.001600
  0
VERTEX
  8
0
  6
CONTINUOUS
 10
6.251080
 20
6.010840
  0
VERTEX
  8
0
  6
CONTINUOUS
 10
6.272200
 20
6.012160
  0
VERTEX
  8
0
  6
CONTINUOUS
 10
6.292880
 20
6.009520
  0
VERTEX
  8
0
  6
CONTINUOUS
 10
6.313120
 20
6.003800
  0
VERTEX
  8
0
  6
CONTINUOUS
 10
6.341720
 20
5.988840
  0
VERTEX
  8
0
  6
CONTINUOUS
 10
6.368120
 20
5.967280
  0
VERTEX
  8
0
  6
CONTINUOUS
 10
6.383960
 20
5.949680
  0
VERTEX
  8
0
  6
CONTINUOUS
 10
6.454800
 20
5.850680
  0
VERTEX
  8
0
  6
CONTINUOUS
 10
6.466240
 20
5.837040
  0
VERTEX
  8
0
  6
CONTINUOUS
 10
6.494400
 20
5.813280
  0
VERTEX
  8
0
  6
CONTINUOUS
 10
6.520800
 20
5.798320
  0
VERTEX
  8
0
  6
CONTINUOUS
 10
6.567440
 20
5.782040
  0
VERTEX
  8
0
  6
CONTINUOUS
 10
6.612320
 20
5.773240
  0
VERTEX
  8
0
  6
CONTINUOUS
 10
6.668200
 20
5.766640
  0
VERTEX
  8
0
  6
CONTINUOUS
 10
6.689320
 20
5.765320
  0
VERTEX
  8
0
  6
CONTINUOUS
 10
6.689320
 20
5.584040
  0
SEQEND
  8
0
  0
TEXT
  8
0
 10
4.580840
 20
5.868280
 40
0.138038
  1
BA  1139
 41
1.000000
  7
SN0
 71
     0
 72
     5
 11
5.262928
 21
5.868280
  0
TEXT
  8
0
 10
4.540360
 20
5.676880
 40
0.138038
  1
1" x 2-3/4"
 41
1.000000
  7
SN0
 71
     0
 72
     5
 11
5.302568
 21
5.676880
  0
ENDSEC
  0
EOF
