  0
SECTION
  2
HEADER
  9
$ACADVER
  1
AC1006
  9
$EXTMIN
 10
2.498320
 20
0.848760
  9
$EXTMAX
 10
6.354040
 20
5.791280
  9
$LTSCALE
 40
0.044000
  9
$PDMODE
 70
    35
  9
$PDSIZE
 40
0.035200
  0
ENDSEC
  0
SECTION
  2
TABLES
  0
TABLE
  2
LTYPE
 70
     9
  0
LTYPE
  2
CONTINUOUS
 70
    64
  3
Solid line
 72
    65
 73
     0
 40
0.000000
  0
LTYPE
  2
DASHED
 70
    64
  3
__ __ __ __ __ __ __ __ __ __ __ __ __ __ __
 72
    65
 73
     2
 40
0.000330
 49
0.000220
 49
-0.000110
  0
LTYPE
  2
HIDDEN
 70
    64
  3
 _ _ _ _ _ _ _ _ _ _ _ _ _ _ _ _ _ _ _ _ _ _
 72
    65
 73
     2
 40
0.000165
 49
0.000110
 49
-0.000055
  0
LTYPE
  2
CENTER
 70
    64
  3
____ _ ____ _ ____ _ ____ _ ____ _ ____ _ ____
 72
    65
 73
     4
 40
0.000880
 49
0.000550
 49
-0.000110
 49
0.000110
 49
-0.000110
  0
LTYPE
  2
PHANTOM
 70
    64
  3
_____ _ _ _____ _ _ _____ _ _ _____ _ _ ____
 72
    65
 73
     6
 40
0.001100
 49
0.000550
 49
-0.000110
 49
0.000110
 49
-0.000110
 49
0.000110
 49
-0.000110
  0
LTYPE
  2
DOT
 70
    64
  3
...............................................
 72
    65
 73
     2
 40
0.000110
 49
0.000000
 49
-0.000110
  0
LTYPE
  2
DASHDOT
 70
    64
  3
__ . __ . __ . __ . __ . __ . __ . __ . __ . __
 72
    65
 73
     4
 40
0.000440
 49
0.000220
 49
-0.000110
 49
0.000000
 49
-0.000110
  0
LTYPE
  2
BORDER
 70
    64
  3
__ __ . __ __ . __ __ . __ __ . __ __ . __ __
 72
    65
 73
     6
 40
0.000770
 49
0.000220
 49
-0.000110
 49
0.000220
 49
-0.000110
 49
0.000000
 49
-0.000110
  0
LTYPE
  2
DIVIDE
 70
    64
  3
__ . . __ . . __ . . __ . . __ . . __ . . __
 72
    65
 73
     6
 40
0.000550
 49
0.000220
 49
-0.000110
 49
0.000000
 49
-0.000110
 49
0.000000
 49
-0.000110
  0
LTYPE
  2
DOTDOT
 70
    64
  3
 . .  . .  . .  . .  . .  . . 
 72
    65
 73
     5
 40
0.000242
 49
-0.000110
 49
0.000000
 49
-0.000110
 49
0.000000
 49
-0.000110
  0
ENDTAB
  0
TABLE
  2
STYLE
 70
     2
  0
STYLE
 70
     0
  2
SN0
 40
0.000000
 41
0.000440
 50
0.000000
 71
     0
 42
0.000000
  3
ROMAND
  0
STYLE
 70
    68
  2
SV0
 40
0.000000
 41
0.000440
 50
0.000000
 71
     0
 42
0.000000
  3
ROMAND
  0
ENDTAB
  0
TABLE
  2
LAYER
 70
     3
  0
LAYER
  2
FOREGROUND
 70
    64
 62
     7
  6
CONTINUOUS
  0
LAYER
  2
BACKGROUND
 70
    65
 62
    -7
  6
CONTINUOUS
  0
LAYER
  2
0
 70
    64
 62
     7
  6
CONTINUOUS
  0
ENDTAB
  0
ENDSEC
  0
SECTION
  2
ENTITIES
  0
POLYLINE
  8
FOREGROUND
  6
CONTINUOUS
 66
     1
 40
0.000000
 41
0.000000
  0
VERTEX
  8
FOREGROUND
  6
CONTINUOUS
 10
0.000000
 20
6.640040
  0
VERTEX
  8
FOREGROUND
  6
CONTINUOUS
 10
8.499920
 20
6.640040
  0
VERTEX
  8
FOREGROUND
  6
CONTINUOUS
 10
8.499920
 20
-4.359960
  0
VERTEX
  8
FOREGROUND
  6
CONTINUOUS
 10
0.000000
 20
-4.359960
  0
VERTEX
  8
FOREGROUND
  6
CONTINUOUS
 10
0.000000
 20
6.640040
  0
SEQEND
  8
0
  0
POLYLINE
  8
FOREGROUND
  6
CONTINUOUS
 66
     1
 40
0.000000
 41
0.000000
  0
VERTEX
  8
FOREGROUND
  6
CONTINUOUS
 10
0.000000
 20
6.640040
  0
VERTEX
  8
FOREGROUND
  6
CONTINUOUS
 10
8.499920
 20
6.640040
  0
VERTEX
  8
FOREGROUND
  6
CONTINUOUS
 10
8.499920
 20
-4.359960
  0
VERTEX
  8
FOREGROUND
  6
CONTINUOUS
 10
0.000000
 20
-4.359960
  0
VERTEX
  8
FOREGROUND
  6
CONTINUOUS
 10
0.000000
 20
6.640040
  0
SEQEND
  8
0
  0
POLYLINE
  8
0
  6
CONTINUOUS
 66
     1
 40
0.000000
 41
0.000000
  0
VERTEX
  8
0
  6
CONTINUOUS
 10
6.353600
 20
0.848760
  0
VERTEX
  8
0
  6
CONTINUOUS
 10
4.640680
 20
0.848760
  0
VERTEX
  8
0
  6
CONTINUOUS
 10
4.640680
 20
1.470480
  0
VERTEX
  8
0
  6
CONTINUOUS
 10
4.690840
 20
1.470480
  0
VERTEX
  8
0
  6
CONTINUOUS
 10
4.696120
 20
1.490280
  0
VERTEX
  8
0
  6
CONTINUOUS
 10
4.708440
 20
1.516680
  0
VERTEX
  8
0
  6
CONTINUOUS
 10
4.725600
 20
1.539560
  0
VERTEX
  8
0
  6
CONTINUOUS
 10
4.739240
 20
1.552320
  0
VERTEX
  8
0
  6
CONTINUOUS
 10
4.754200
 20
1.563320
  0
VERTEX
  8
0
  6
CONTINUOUS
 10
4.770920
 20
1.572560
  0
VERTEX
  8
0
  6
CONTINUOUS
 10
4.788960
 20
1.580480
  0
VERTEX
  8
0
  6
CONTINUOUS
 10
4.828560
 20
1.590600
  0
VERTEX
  8
0
  6
CONTINUOUS
 10
4.872120
 20
1.593680
  0
VERTEX
  8
0
  6
CONTINUOUS
 10
4.894560
 20
1.592800
  0
VERTEX
  8
0
  6
CONTINUOUS
 10
4.917880
 20
1.590160
  0
VERTEX
  8
0
  6
CONTINUOUS
 10
4.941640
 20
1.585760
  0
VERTEX
  8
0
  6
CONTINUOUS
 10
4.988720
 20
1.572120
  0
VERTEX
  8
0
  6
CONTINUOUS
 10
5.012480
 20
1.562880
  0
VERTEX
  8
0
  6
CONTINUOUS
 10
5.058680
 20
1.539120
  0
VERTEX
  8
0
  6
CONTINUOUS
 10
5.103120
 20
1.509200
  0
VERTEX
  8
0
  6
CONTINUOUS
 10
5.143600
 20
1.472680
  0
VERTEX
  8
0
  6
CONTINUOUS
 10
5.162520
 20
1.452000
  0
VERTEX
  8
0
  6
CONTINUOUS
 10
5.180120
 20
1.429560
  0
VERTEX
  8
0
  6
CONTINUOUS
 10
5.210480
 20
1.380280
  0
VERTEX
  8
0
  6
CONTINUOUS
 10
5.223240
 20
1.353000
  0
VERTEX
  8
0
  6
CONTINUOUS
 10
5.238640
 20
1.309440
  0
VERTEX
  8
0
  6
CONTINUOUS
 10
5.249640
 20
1.262360
  0
VERTEX
  8
0
  6
CONTINUOUS
 10
5.365800
 20
1.262360
  0
VERTEX
  8
0
  6
CONTINUOUS
 10
5.374600
 20
1.239480
  0
VERTEX
  8
0
  6
CONTINUOUS
 10
5.397480
 20
1.199000
  0
VERTEX
  8
0
  6
CONTINUOUS
 10
5.430040
 20
1.154560
  0
VERTEX
  8
0
  6
CONTINUOUS
 10
5.470520
 20
1.109240
  0
VERTEX
  8
0
  6
CONTINUOUS
 10
5.517160
 20
1.065680
  0
VERTEX
  8
0
  6
CONTINUOUS
 10
5.567760
 20
1.027840
  0
VERTEX
  8
0
  6
CONTINUOUS
 10
5.602960
 20
1.007160
  0
VERTEX
  8
0
  6
CONTINUOUS
 10
5.638600
 20
0.991760
  0
VERTEX
  8
0
  6
CONTINUOUS
 10
5.673800
 20
0.981640
  0
VERTEX
  8
0
  6
CONTINUOUS
 10
5.691400
 20
0.979000
  0
VERTEX
  8
0
  6
CONTINUOUS
 10
5.708560
 20
0.978560
  0
VERTEX
  8
0
  6
CONTINUOUS
 10
5.725280
 20
0.979880
  0
VERTEX
  8
0
  6
CONTINUOUS
 10
5.742000
 20
0.982960
  0
VERTEX
  8
0
  6
CONTINUOUS
 10
5.757840
 20
0.988680
  0
VERTEX
  8
0
  6
CONTINUOUS
 10
5.781160
 20
1.001440
  0
VERTEX
  8
0
  6
CONTINUOUS
 10
5.802720
 20
1.019480
  0
VERTEX
  8
0
  6
CONTINUOUS
 10
5.816360
 20
1.034880
  0
VERTEX
  8
0
  6
CONTINUOUS
 10
5.898200
 20
1.034880
  0
VERTEX
  8
0
  6
CONTINUOUS
 10
5.900400
 20
1.056440
  0
VERTEX
  8
0
  6
CONTINUOUS
 10
5.906120
 20
1.074920
  0
VERTEX
  8
0
  6
CONTINUOUS
 10
5.915360
 20
1.090760
  0
VERTEX
  8
0
  6
CONTINUOUS
 10
5.933840
 20
1.108800
  0
VERTEX
  8
0
  6
CONTINUOUS
 10
5.948800
 20
1.117600
  0
VERTEX
  8
0
  6
CONTINUOUS
 10
5.973440
 20
1.124640
  0
VERTEX
  8
0
  6
CONTINUOUS
 10
5.990600
 20
1.125960
  0
VERTEX
  8
0
  6
CONTINUOUS
 10
6.007760
 20
1.124200
  0
VERTEX
  8
0
  6
CONTINUOUS
 10
6.024480
 20
1.119800
  0
VERTEX
  8
0
  6
CONTINUOUS
 10
6.040320
 20
1.112320
  0
VERTEX
  8
0
  6
CONTINUOUS
 10
6.060120
 20
1.095600
  0
VERTEX
  8
0
  6
CONTINUOUS
 10
6.070680
 20
1.080640
  0
VERTEX
  8
0
  6
CONTINUOUS
 10
6.078600
 20
1.062600
  0
VERTEX
  8
0
  6
CONTINUOUS
 10
6.082560
 20
1.041920
  0
VERTEX
  8
0
  6
CONTINUOUS
 10
6.083000
 20
1.030480
  0
VERTEX
  8
0
  6
CONTINUOUS
 10
6.152960
 20
1.030040
  0
VERTEX
  8
0
  6
CONTINUOUS
 10
6.153400
 20
1.013760
  0
VERTEX
  8
0
  6
CONTINUOUS
 10
6.159560
 20
0.991320
  0
VERTEX
  8
0
  6
CONTINUOUS
 10
6.167040
 20
0.975480
  0
VERTEX
  8
0
  6
CONTINUOUS
 10
6.178040
 20
0.960520
  0
VERTEX
  8
0
  6
CONTINUOUS
 10
6.193000
 20
0.948200
  0
VERTEX
  8
0
  6
CONTINUOUS
 10
6.211920
 20
0.939840
  0
VERTEX
  8
0
  6
CONTINUOUS
 10
6.235680
 20
0.936760
  0
VERTEX
  8
0
  6
CONTINUOUS
 10
6.353600
 20
0.936760
  0
VERTEX
  8
0
  6
CONTINUOUS
 10
6.353600
 20
0.848760
  0
SEQEND
  8
0
  0
POLYLINE
  8
0
  6
CONTINUOUS
 66
     1
 40
0.000000
 41
0.000000
  0
VERTEX
  8
0
  6
CONTINUOUS
 10
2.607440
 20
0.903320
  0
VERTEX
  8
0
  6
CONTINUOUS
 10
4.320360
 20
0.903320
  0
VERTEX
  8
0
  6
CONTINUOUS
 10
4.320360
 20
1.525040
  0
VERTEX
  8
0
  6
CONTINUOUS
 10
4.270200
 20
1.525040
  0
VERTEX
  8
0
  6
CONTINUOUS
 10
4.264920
 20
1.544840
  0
VERTEX
  8
0
  6
CONTINUOUS
 10
4.252600
 20
1.571240
  0
VERTEX
  8
0
  6
CONTINUOUS
 10
4.235440
 20
1.593680
  0
VERTEX
  8
0
  6
CONTINUOUS
 10
4.221800
 20
1.606880
  0
VERTEX
  8
0
  6
CONTINUOUS
 10
4.206840
 20
1.617880
  0
VERTEX
  8
0
  6
CONTINUOUS
 10
4.190120
 20
1.627120
  0
VERTEX
  8
0
  6
CONTINUOUS
 10
4.172080
 20
1.634600
  0
VERTEX
  8
0
  6
CONTINUOUS
 10
4.132480
 20
1.644720
  0
VERTEX
  8
0
  6
CONTINUOUS
 10
4.088920
 20
1.647800
  0
VERTEX
  8
0
  6
CONTINUOUS
 10
4.066480
 20
1.646920
  0
VERTEX
  8
0
  6
CONTINUOUS
 10
4.043160
 20
1.644280
  0
VERTEX
  8
0
  6
CONTINUOUS
 10
4.019400
 20
1.639880
  0
VERTEX
  8
0
  6
CONTINUOUS
 10
3.972320
 20
1.626240
  0
VERTEX
  8
0
  6
CONTINUOUS
 10
3.948560
 20
1.617000
  0
VERTEX
  8
0
  6
CONTINUOUS
 10
3.902360
 20
1.593240
  0
VERTEX
  8
0
  6
CONTINUOUS
 10
3.857920
 20
1.563320
  0
VERTEX
  8
0
  6
CONTINUOUS
 10
3.817440
 20
1.526800
  0
VERTEX
  8
0
  6
CONTINUOUS
 10
3.798520
 20
1.506120
  0
VERTEX
  8
0
  6
CONTINUOUS
 10
3.780920
 20
1.483680
  0
VERTEX
  8
0
  6
CONTINUOUS
 10
3.750560
 20
1.434400
  0
VERTEX
  8
0
  6
CONTINUOUS
 10
3.737800
 20
1.407120
  0
VERTEX
  8
0
  6
CONTINUOUS
 10
3.722400
 20
1.363560
  0
VERTEX
  8
0
  6
CONTINUOUS
 10
3.711400
 20
1.316480
  0
VERTEX
  8
0
  6
CONTINUOUS
 10
3.595240
 20
1.316480
  0
VERTEX
  8
0
  6
CONTINUOUS
 10
3.586440
 20
1.293600
  0
VERTEX
  8
0
  6
CONTINUOUS
 10
3.563560
 20
1.253560
  0
VERTEX
  8
0
  6
CONTINUOUS
 10
3.531000
 20
1.208680
  0
VERTEX
  8
0
  6
CONTINUOUS
 10
3.490520
 20
1.163360
  0
VERTEX
  8
0
  6
CONTINUOUS
 10
3.443880
 20
1.119800
  0
VERTEX
  8
0
  6
CONTINUOUS
 10
3.393280
 20
1.081960
  0
VERTEX
  8
0
  6
CONTINUOUS
 10
3.340480
 20
1.052920
  0
VERTEX
  8
0
  6
CONTINUOUS
 10
3.304840
 20
1.040160
  0
VERTEX
  8
0
  6
CONTINUOUS
 10
3.287240
 20
1.035760
  0
VERTEX
  8
0
  6
CONTINUOUS
 10
3.252480
 20
1.032680
  0
VERTEX
  8
0
  6
CONTINUOUS
 10
3.235760
 20
1.034000
  0
VERTEX
  8
0
  6
CONTINUOUS
 10
3.219040
 20
1.037520
  0
VERTEX
  8
0
  6
CONTINUOUS
 10
3.187360
 20
1.050720
  0
VERTEX
  8
0
  6
CONTINUOUS
 10
3.165360
 20
1.067440
  0
VERTEX
  8
0
  6
CONTINUOUS
 10
3.144680
 20
1.089440
  0
VERTEX
  8
0
  6
CONTINUOUS
 10
3.062400
 20
1.089000
  0
VERTEX
  8
0
  6
CONTINUOUS
 10
3.060200
 20
1.110560
  0
VERTEX
  8
0
  6
CONTINUOUS
 10
3.054480
 20
1.129480
  0
VERTEX
  8
0
  6
CONTINUOUS
 10
3.045240
 20
1.144880
  0
VERTEX
  8
0
  6
CONTINUOUS
 10
3.033800
 20
1.158080
  0
VERTEX
  8
0
  6
CONTINUOUS
 10
3.019720
 20
1.168200
  0
VERTEX
  8
0
  6
CONTINUOUS
 10
2.995960
 20
1.177440
  0
VERTEX
  8
0
  6
CONTINUOUS
 10
2.978800
 20
1.180080
  0
VERTEX
  8
0
  6
CONTINUOUS
 10
2.961640
 20
1.180080
  0
VERTEX
  8
0
  6
CONTINUOUS
 10
2.944480
 20
1.177000
  0
VERTEX
  8
0
  6
CONTINUOUS
 10
2.920720
 20
1.166880
  0
VERTEX
  8
0
  6
CONTINUOUS
 10
2.906640
 20
1.156320
  0
VERTEX
  8
0
  6
CONTINUOUS
 10
2.889920
 20
1.134760
  0
VERTEX
  8
0
  6
CONTINUOUS
 10
2.882440
 20
1.117160
  0
VERTEX
  8
0
  6
CONTINUOUS
 10
2.878480
 20
1.096040
  0
VERTEX
  8
0
  6
CONTINUOUS
 10
2.878040
 20
1.084600
  0
VERTEX
  8
0
  6
CONTINUOUS
 10
2.808080
 20
1.084160
  0
VERTEX
  8
0
  6
CONTINUOUS
 10
2.807640
 20
1.067880
  0
VERTEX
  8
0
  6
CONTINUOUS
 10
2.801480
 20
1.045440
  0
VERTEX
  8
0
  6
CONTINUOUS
 10
2.794000
 20
1.029600
  0
VERTEX
  8
0
  6
CONTINUOUS
 10
2.783000
 20
1.014640
  0
VERTEX
  8
0
  6
CONTINUOUS
 10
2.768040
 20
1.002320
  0
VERTEX
  8
0
  6
CONTINUOUS
 10
2.759240
 20
0.997480
  0
VERTEX
  8
0
  6
CONTINUOUS
 10
2.749120
 20
0.993960
  0
VERTEX
  8
0
  6
CONTINUOUS
 10
2.725360
 20
0.990880
  0
VERTEX
  8
0
  6
CONTINUOUS
 10
2.607440
 20
0.990880
  0
VERTEX
  8
0
  6
CONTINUOUS
 10
2.607440
 20
0.903320
  0
SEQEND
  8
0
  0
POLYLINE
  8
0
  6
CONTINUOUS
 66
     1
 40
0.000000
 41
0.000000
  0
VERTEX
  8
0
  6
CONTINUOUS
 10
6.299480
 20
1.987920
  0
VERTEX
  8
0
  6
CONTINUOUS
 10
4.586560
 20
1.987920
  0
VERTEX
  8
0
  6
CONTINUOUS
 10
4.586560
 20
2.609200
  0
VERTEX
  8
0
  6
CONTINUOUS
 10
4.636720
 20
2.609200
  0
VERTEX
  8
0
  6
CONTINUOUS
 10
4.642000
 20
2.629000
  0
VERTEX
  8
0
  6
CONTINUOUS
 10
4.654320
 20
2.655400
  0
VERTEX
  8
0
  6
CONTINUOUS
 10
4.671480
 20
2.678280
  0
VERTEX
  8
0
  6
CONTINUOUS
 10
4.685120
 20
2.691040
  0
VERTEX
  8
0
  6
CONTINUOUS
 10
4.700080
 20
2.702040
  0
VERTEX
  8
0
  6
CONTINUOUS
 10
4.716800
 20
2.711280
  0
VERTEX
  8
0
  6
CONTINUOUS
 10
4.734840
 20
2.719200
  0
VERTEX
  8
0
  6
CONTINUOUS
 10
4.774440
 20
2.729320
  0
VERTEX
  8
0
  6
CONTINUOUS
 10
4.818000
 20
2.732400
  0
VERTEX
  8
0
  6
CONTINUOUS
 10
4.840440
 20
2.731520
  0
VERTEX
  8
0
  6
CONTINUOUS
 10
4.863760
 20
2.728880
  0
VERTEX
  8
0
  6
CONTINUOUS
 10
4.887080
 20
2.724480
  0
VERTEX
  8
0
  6
CONTINUOUS
 10
4.934600
 20
2.710840
  0
VERTEX
  8
0
  6
CONTINUOUS
 10
4.958360
 20
2.701600
  0
VERTEX
  8
0
  6
CONTINUOUS
 10
5.004560
 20
2.677840
  0
VERTEX
  8
0
  6
CONTINUOUS
 10
5.027000
 20
2.663760
  0
VERTEX
  8
0
  6
CONTINUOUS
 10
5.069680
 20
2.630320
  0
VERTEX
  8
0
  6
CONTINUOUS
 10
5.089480
 20
2.611400
  0
VERTEX
  8
0
  6
CONTINUOUS
 10
5.125560
 20
2.568280
  0
VERTEX
  8
0
  6
CONTINUOUS
 10
5.155920
 20
2.519000
  0
VERTEX
  8
0
  6
CONTINUOUS
 10
5.168680
 20
2.491720
  0
VERTEX
  8
0
  6
CONTINUOUS
 10
5.184080
 20
2.448160
  0
VERTEX
  8
0
  6
CONTINUOUS
 10
5.195080
 20
2.401080
  0
VERTEX
  8
0
  6
CONTINUOUS
 10
5.311240
 20
2.401080
  0
VERTEX
  8
0
  6
CONTINUOUS
 10
5.320040
 20
2.378200
  0
VERTEX
  8
0
  6
CONTINUOUS
 10
5.342920
 20
2.337720
  0
VERTEX
  8
0
  6
CONTINUOUS
 10
5.388240
 20
2.278320
  0
VERTEX
  8
0
  6
CONTINUOUS
 10
5.431360
 20
2.233000
  0
VERTEX
  8
0
  6
CONTINUOUS
 10
5.479320
 20
2.191200
  0
VERTEX
  8
0
  6
CONTINUOUS
 10
5.513640
 20
2.166560
  0
VERTEX
  8
0
  6
CONTINUOUS
 10
5.548840
 20
2.145880
  0
VERTEX
  8
0
  6
CONTINUOUS
 10
5.584040
 20
2.130480
  0
VERTEX
  8
0
  6
CONTINUOUS
 10
5.619680
 20
2.120360
  0
VERTEX
  8
0
  6
CONTINUOUS
 10
5.637280
 20
2.117720
  0
VERTEX
  8
0
  6
CONTINUOUS
 10
5.654440
 20
2.117280
  0
VERTEX
  8
0
  6
CONTINUOUS
 10
5.671160
 20
2.118600
  0
VERTEX
  8
0
  6
CONTINUOUS
 10
5.687880
 20
2.121680
  0
VERTEX
  8
0
  6
CONTINUOUS
 10
5.703720
 20
2.127400
  0
VERTEX
  8
0
  6
CONTINUOUS
 10
5.727040
 20
2.140160
  0
VERTEX
  8
0
  6
CONTINUOUS
 10
5.748600
 20
2.158200
  0
VERTEX
  8
0
  6
CONTINUOUS
 10
5.762240
 20
2.173600
  0
VERTEX
  8
0
  6
CONTINUOUS
 10
5.844080
 20
2.173600
  0
VERTEX
  8
0
  6
CONTINUOUS
 10
5.846280
 20
2.195160
  0
VERTEX
  8
0
  6
CONTINUOUS
 10
5.852000
 20
2.214080
  0
VERTEX
  8
0
  6
CONTINUOUS
 10
5.866960
 20
2.236520
  0
VERTEX
  8
0
  6
CONTINUOUS
 10
5.886760
 20
2.252800
  0
VERTEX
  8
0
  6
CONTINUOUS
 10
5.902600
 20
2.259840
  0
VERTEX
  8
0
  6
CONTINUOUS
 10
5.927680
 20
2.264680
  0
VERTEX
  8
0
  6
CONTINUOUS
 10
5.945280
 20
2.264680
  0
VERTEX
  8
0
  6
CONTINUOUS
 10
5.970360
 20
2.258960
  0
VERTEX
  8
0
  6
CONTINUOUS
 10
5.986200
 20
2.251480
  0
VERTEX
  8
0
  6
CONTINUOUS
 10
5.999840
 20
2.240920
  0
VERTEX
  8
0
  6
CONTINUOUS
 10
6.011720
 20
2.227280
  0
VERTEX
  8
0
  6
CONTINUOUS
 10
6.020960
 20
2.211000
  0
VERTEX
  8
0
  6
CONTINUOUS
 10
6.026680
 20
2.191640
  0
VERTEX
  8
0
  6
CONTINUOUS
 10
6.028880
 20
2.169200
  0
VERTEX
  8
0
  6
CONTINUOUS
 10
6.098400
 20
2.168760
  0
VERTEX
  8
0
  6
CONTINUOUS
 10
6.098400
 20
2.158640
  0
VERTEX
  8
0
  6
CONTINUOUS
 10
6.102360
 20
2.137960
  0
VERTEX
  8
0
  6
CONTINUOUS
 10
6.112920
 20
2.114200
  0
VERTEX
  8
0
  6
CONTINUOUS
 10
6.123920
 20
2.099240
  0
VERTEX
  8
0
  6
CONTINUOUS
 10
6.138440
 20
2.086920
  0
VERTEX
  8
0
  6
CONTINUOUS
 10
6.157360
 20
2.078560
  0
VERTEX
  8
0
  6
CONTINUOUS
 10
6.181120
 20
2.075480
  0
VERTEX
  8
0
  6
CONTINUOUS
 10
6.299480
 20
2.075480
  0
VERTEX
  8
0
  6
CONTINUOUS
 10
6.299480
 20
1.987920
  0
SEQEND
  8
0
  0
POLYLINE
  8
0
  6
CONTINUOUS
 66
     1
 40
0.000000
 41
0.000000
  0
VERTEX
  8
0
  6
CONTINUOUS
 10
2.498760
 20
2.042040
  0
VERTEX
  8
0
  6
CONTINUOUS
 10
4.211680
 20
2.042040
  0
VERTEX
  8
0
  6
CONTINUOUS
 10
4.211680
 20
2.663760
  0
VERTEX
  8
0
  6
CONTINUOUS
 10
4.161520
 20
2.663760
  0
VERTEX
  8
0
  6
CONTINUOUS
 10
4.156240
 20
2.683560
  0
VERTEX
  8
0
  6
CONTINUOUS
 10
4.143920
 20
2.709960
  0
VERTEX
  8
0
  6
CONTINUOUS
 10
4.126760
 20
2.732400
  0
VERTEX
  8
0
  6
CONTINUOUS
 10
4.113120
 20
2.745600
  0
VERTEX
  8
0
  6
CONTINUOUS
 10
4.098160
 20
2.756600
  0
VERTEX
  8
0
  6
CONTINUOUS
 10
4.081440
 20
2.765840
  0
VERTEX
  8
0
  6
CONTINUOUS
 10
4.063400
 20
2.773320
  0
VERTEX
  8
0
  6
CONTINUOUS
 10
4.023800
 20
2.783440
  0
VERTEX
  8
0
  6
CONTINUOUS
 10
3.980240
 20
2.786520
  0
VERTEX
  8
0
  6
CONTINUOUS
 10
3.957800
 20
2.785640
  0
VERTEX
  8
0
  6
CONTINUOUS
 10
3.934480
 20
2.783000
  0
VERTEX
  8
0
  6
CONTINUOUS
 10
3.911160
 20
2.778600
  0
VERTEX
  8
0
  6
CONTINUOUS
 10
3.863640
 20
2.764960
  0
VERTEX
  8
0
  6
CONTINUOUS
 10
3.839880
 20
2.755720
  0
VERTEX
  8
0
  6
CONTINUOUS
 10
3.793680
 20
2.731960
  0
VERTEX
  8
0
  6
CONTINUOUS
 10
3.771240
 20
2.717880
  0
VERTEX
  8
0
  6
CONTINUOUS
 10
3.728560
 20
2.684440
  0
VERTEX
  8
0
  6
CONTINUOUS
 10
3.708760
 20
2.665520
  0
VERTEX
  8
0
  6
CONTINUOUS
 10
3.672680
 20
2.622400
  0
VERTEX
  8
0
  6
CONTINUOUS
 10
3.642320
 20
2.573120
  0
VERTEX
  8
0
  6
CONTINUOUS
 10
3.629560
 20
2.545840
  0
VERTEX
  8
0
  6
CONTINUOUS
 10
3.614160
 20
2.502280
  0
VERTEX
  8
0
  6
CONTINUOUS
 10
3.603160
 20
2.455200
  0
VERTEX
  8
0
  6
CONTINUOUS
 10
3.487000
 20
2.455200
  0
VERTEX
  8
0
  6
CONTINUOUS
 10
3.478200
 20
2.432320
  0
VERTEX
  8
0
  6
CONTINUOUS
 10
3.455320
 20
2.392280
  0
VERTEX
  8
0
  6
CONTINUOUS
 10
3.422320
 20
2.347400
  0
VERTEX
  8
0
  6
CONTINUOUS
 10
3.381840
 20
2.302080
  0
VERTEX
  8
0
  6
CONTINUOUS
 10
3.335200
 20
2.258520
  0
VERTEX
  8
0
  6
CONTINUOUS
 10
3.284600
 20
2.220680
  0
VERTEX
  8
0
  6
CONTINUOUS
 10
3.231800
 20
2.191640
  0
VERTEX
  8
0
  6
CONTINUOUS
 10
3.196160
 20
2.178880
  0
VERTEX
  8
0
  6
CONTINUOUS
 10
3.178560
 20
2.174480
  0
VERTEX
  8
0
  6
CONTINUOUS
 10
3.143800
 20
2.171400
  0
VERTEX
  8
0
  6
CONTINUOUS
 10
3.127080
 20
2.172720
  0
VERTEX
  8
0
  6
CONTINUOUS
 10
3.110360
 20
2.176240
  0
VERTEX
  8
0
  6
CONTINUOUS
 10
3.078680
 20
2.189440
  0
VERTEX
  8
0
  6
CONTINUOUS
 10
3.056680
 20
2.206160
  0
VERTEX
  8
0
  6
CONTINUOUS
 10
3.036000
 20
2.228160
  0
VERTEX
  8
0
  6
CONTINUOUS
 10
2.954160
 20
2.227720
  0
VERTEX
  8
0
  6
CONTINUOUS
 10
2.951960
 20
2.249280
  0
VERTEX
  8
0
  6
CONTINUOUS
 10
2.946240
 20
2.268200
  0
VERTEX
  8
0
  6
CONTINUOUS
 10
2.931280
 20
2.290640
  0
VERTEX
  8
0
  6
CONTINUOUS
 10
2.911480
 20
2.306920
  0
VERTEX
  8
0
  6
CONTINUOUS
 10
2.895640
 20
2.313960
  0
VERTEX
  8
0
  6
CONTINUOUS
 10
2.870560
 20
2.318800
  0
VERTEX
  8
0
  6
CONTINUOUS
 10
2.852960
 20
2.318800
  0
VERTEX
  8
0
  6
CONTINUOUS
 10
2.827880
 20
2.313080
  0
VERTEX
  8
0
  6
CONTINUOUS
 10
2.812040
 20
2.305600
  0
VERTEX
  8
0
  6
CONTINUOUS
 10
2.798400
 20
2.295040
  0
VERTEX
  8
0
  6
CONTINUOUS
 10
2.786520
 20
2.281400
  0
VERTEX
  8
0
  6
CONTINUOUS
 10
2.777280
 20
2.265120
  0
VERTEX
  8
0
  6
CONTINUOUS
 10
2.771560
 20
2.245760
  0
VERTEX
  8
0
  6
CONTINUOUS
 10
2.769360
 20
2.223320
  0
VERTEX
  8
0
  6
CONTINUOUS
 10
2.699840
 20
2.222880
  0
VERTEX
  8
0
  6
CONTINUOUS
 10
2.699840
 20
2.212760
  0
VERTEX
  8
0
  6
CONTINUOUS
 10
2.695880
 20
2.192080
  0
VERTEX
  8
0
  6
CONTINUOUS
 10
2.685760
 20
2.168320
  0
VERTEX
  8
0
  6
CONTINUOUS
 10
2.674760
 20
2.153360
  0
VERTEX
  8
0
  6
CONTINUOUS
 10
2.659800
 20
2.141040
  0
VERTEX
  8
0
  6
CONTINUOUS
 10
2.651000
 20
2.136200
  0
VERTEX
  8
0
  6
CONTINUOUS
 10
2.640880
 20
2.132680
  0
VERTEX
  8
0
  6
CONTINUOUS
 10
2.617120
 20
2.129600
  0
VERTEX
  8
0
  6
CONTINUOUS
 10
2.498760
 20
2.129600
  0
VERTEX
  8
0
  6
CONTINUOUS
 10
2.498760
 20
2.042040
  0
SEQEND
  8
0
  0
SOLID
  8
0
 62
    15
 10
2.780360
 20
4.675880
 11
3.436400
 21
5.057800
 12
2.798840
 22
4.640240
 13
3.454440
 23
5.022160
  0
POLYLINE
  8
0
  6
CONTINUOUS
 66
     1
 40
0.000000
 41
0.000000
  0
VERTEX
  8
0
  6
CONTINUOUS
 10
2.780360
 20
4.675880
  0
VERTEX
  8
0
  6
CONTINUOUS
 10
3.436400
 20
5.057800
  0
VERTEX
  8
0
  6
CONTINUOUS
 10
3.454440
 20
5.022160
  0
VERTEX
  8
0
  6
CONTINUOUS
 10
2.798840
 20
4.640240
  0
VERTEX
  8
0
  6
CONTINUOUS
 10
2.780360
 20
4.675880
  0
SEQEND
  8
0
  0
SOLID
  8
0
 62
    15
 10
2.718320
 20
5.290560
 11
3.374360
 21
5.672480
 12
2.721400
 22
5.267240
 13
3.377440
 23
5.648720
  0
POLYLINE
  8
0
  6
CONTINUOUS
 66
     1
 40
0.000000
 41
0.000000
  0
VERTEX
  8
0
  6
CONTINUOUS
 10
2.718320
 20
5.290560
  0
VERTEX
  8
0
  6
CONTINUOUS
 10
3.374360
 20
5.672480
  0
VERTEX
  8
0
  6
CONTINUOUS
 10
3.377440
 20
5.648720
  0
VERTEX
  8
0
  6
CONTINUOUS
 10
2.721400
 20
5.267240
  0
VERTEX
  8
0
  6
CONTINUOUS
 10
2.718320
 20
5.290560
  0
SEQEND
  8
0
  0
SOLID
  8
0
 62
    15
 10
2.721400
 20
5.267240
 11
3.377440
 21
5.648720
 12
2.730200
 22
5.247880
 13
3.385800
 23
5.629800
  0
POLYLINE
  8
0
  6
CONTINUOUS
 66
     1
 40
0.000000
 41
0.000000
  0
VERTEX
  8
0
  6
CONTINUOUS
 10
2.721400
 20
5.267240
  0
VERTEX
  8
0
  6
CONTINUOUS
 10
3.377440
 20
5.648720
  0
VERTEX
  8
0
  6
CONTINUOUS
 10
3.385800
 20
5.629800
  0
VERTEX
  8
0
  6
CONTINUOUS
 10
2.730200
 20
5.247880
  0
VERTEX
  8
0
  6
CONTINUOUS
 10
2.721400
 20
5.267240
  0
SEQEND
  8
0
  0
SOLID
  8
0
 62
    15
 10
2.730200
 20
5.247880
 11
3.385800
 21
5.629800
 12
2.742520
 22
5.233360
 13
3.398120
 23
5.615280
  0
POLYLINE
  8
0
  6
CONTINUOUS
 66
     1
 40
0.000000
 41
0.000000
  0
VERTEX
  8
0
  6
CONTINUOUS
 10
2.730200
 20
5.247880
  0
VERTEX
  8
0
  6
CONTINUOUS
 10
3.385800
 20
5.629800
  0
VERTEX
  8
0
  6
CONTINUOUS
 10
3.398120
 20
5.615280
  0
VERTEX
  8
0
  6
CONTINUOUS
 10
2.742520
 20
5.233360
  0
VERTEX
  8
0
  6
CONTINUOUS
 10
2.730200
 20
5.247880
  0
SEQEND
  8
0
  0
SOLID
  8
0
 62
    15
 10
2.742520
 20
5.233360
 11
3.398120
 21
5.615280
 12
2.757040
 22
5.222360
 13
3.413080
 23
5.603840
  0
POLYLINE
  8
0
  6
CONTINUOUS
 66
     1
 40
0.000000
 41
0.000000
  0
VERTEX
  8
0
  6
CONTINUOUS
 10
2.742520
 20
5.233360
  0
VERTEX
  8
0
  6
CONTINUOUS
 10
3.398120
 20
5.615280
  0
VERTEX
  8
0
  6
CONTINUOUS
 10
3.413080
 20
5.603840
  0
VERTEX
  8
0
  6
CONTINUOUS
 10
2.757040
 20
5.222360
  0
VERTEX
  8
0
  6
CONTINUOUS
 10
2.742520
 20
5.233360
  0
SEQEND
  8
0
  0
SOLID
  8
0
 62
    15
 10
2.757040
 20
5.222360
 11
3.413080
 21
5.603840
 12
2.788280
 22
5.210040
 13
3.443880
 23
5.591960
  0
POLYLINE
  8
0
  6
CONTINUOUS
 66
     1
 40
0.000000
 41
0.000000
  0
VERTEX
  8
0
  6
CONTINUOUS
 10
2.757040
 20
5.222360
  0
VERTEX
  8
0
  6
CONTINUOUS
 10
3.413080
 20
5.603840
  0
VERTEX
  8
0
  6
CONTINUOUS
 10
3.443880
 20
5.591960
  0
VERTEX
  8
0
  6
CONTINUOUS
 10
2.788280
 20
5.210040
  0
VERTEX
  8
0
  6
CONTINUOUS
 10
2.757040
 20
5.222360
  0
SEQEND
  8
0
  0
SOLID
  8
0
 62
    15
 10
2.788280
 20
5.210040
 11
3.443880
 21
5.591960
 12
2.801480
 22
5.207840
 13
3.457080
 23
5.589760
  0
POLYLINE
  8
0
  6
CONTINUOUS
 66
     1
 40
0.000000
 41
0.000000
  0
VERTEX
  8
0
  6
CONTINUOUS
 10
2.788280
 20
5.210040
  0
VERTEX
  8
0
  6
CONTINUOUS
 10
3.443880
 20
5.591960
  0
VERTEX
  8
0
  6
CONTINUOUS
 10
3.457080
 20
5.589760
  0
VERTEX
  8
0
  6
CONTINUOUS
 10
2.801480
 20
5.207840
  0
VERTEX
  8
0
  6
CONTINUOUS
 10
2.788280
 20
5.210040
  0
SEQEND
  8
0
  0
SOLID
  8
0
 62
    15
 10
2.801480
 20
5.207840
 11
3.457080
 21
5.589760
 12
2.811600
 22
5.207840
 13
3.467200
 23
5.589760
  0
POLYLINE
  8
0
  6
CONTINUOUS
 66
     1
 40
0.000000
 41
0.000000
  0
VERTEX
  8
0
  6
CONTINUOUS
 10
2.801480
 20
5.207840
  0
VERTEX
  8
0
  6
CONTINUOUS
 10
3.457080
 20
5.589760
  0
VERTEX
  8
0
  6
CONTINUOUS
 10
3.467200
 20
5.589760
  0
VERTEX
  8
0
  6
CONTINUOUS
 10
2.811600
 20
5.207840
  0
VERTEX
  8
0
  6
CONTINUOUS
 10
2.801480
 20
5.207840
  0
SEQEND
  8
0
  0
SOLID
  8
0
 62
    15
 10
2.811600
 20
5.207840
 11
3.467200
 21
5.589760
 12
2.812040
 22
5.138320
 13
3.467640
 23
5.520240
  0
POLYLINE
  8
0
  6
CONTINUOUS
 66
     1
 40
0.000000
 41
0.000000
  0
VERTEX
  8
0
  6
CONTINUOUS
 10
2.811600
 20
5.207840
  0
VERTEX
  8
0
  6
CONTINUOUS
 10
3.467200
 20
5.589760
  0
VERTEX
  8
0
  6
CONTINUOUS
 10
3.467640
 20
5.520240
  0
VERTEX
  8
0
  6
CONTINUOUS
 10
2.812040
 20
5.138320
  0
VERTEX
  8
0
  6
CONTINUOUS
 10
2.811600
 20
5.207840
  0
SEQEND
  8
0
  0
SOLID
  8
0
 62
    15
 10
2.812040
 20
5.138320
 11
3.467640
 21
5.520240
 12
2.834040
 22
5.136120
 13
3.490080
 23
5.518040
  0
POLYLINE
  8
0
  6
CONTINUOUS
 66
     1
 40
0.000000
 41
0.000000
  0
VERTEX
  8
0
  6
CONTINUOUS
 10
2.812040
 20
5.138320
  0
VERTEX
  8
0
  6
CONTINUOUS
 10
3.467640
 20
5.520240
  0
VERTEX
  8
0
  6
CONTINUOUS
 10
3.490080
 20
5.518040
  0
VERTEX
  8
0
  6
CONTINUOUS
 10
2.834040
 20
5.136120
  0
VERTEX
  8
0
  6
CONTINUOUS
 10
2.812040
 20
5.138320
  0
SEQEND
  8
0
  0
SOLID
  8
0
 62
    15
 10
2.834040
 20
5.136120
 11
3.490080
 21
5.518040
 12
2.853400
 22
5.130400
 13
3.509440
 23
5.512320
  0
POLYLINE
  8
0
  6
CONTINUOUS
 66
     1
 40
0.000000
 41
0.000000
  0
VERTEX
  8
0
  6
CONTINUOUS
 10
2.834040
 20
5.136120
  0
VERTEX
  8
0
  6
CONTINUOUS
 10
3.490080
 20
5.518040
  0
VERTEX
  8
0
  6
CONTINUOUS
 10
3.509440
 20
5.512320
  0
VERTEX
  8
0
  6
CONTINUOUS
 10
2.853400
 20
5.130400
  0
VERTEX
  8
0
  6
CONTINUOUS
 10
2.834040
 20
5.136120
  0
SEQEND
  8
0
  0
SOLID
  8
0
 62
    15
 10
2.853400
 20
5.130400
 11
3.509440
 21
5.512320
 12
2.870120
 22
5.121160
 13
3.525720
 23
5.503080
  0
POLYLINE
  8
0
  6
CONTINUOUS
 66
     1
 40
0.000000
 41
0.000000
  0
VERTEX
  8
0
  6
CONTINUOUS
 10
2.853400
 20
5.130400
  0
VERTEX
  8
0
  6
CONTINUOUS
 10
3.509440
 20
5.512320
  0
VERTEX
  8
0
  6
CONTINUOUS
 10
3.525720
 20
5.503080
  0
VERTEX
  8
0
  6
CONTINUOUS
 10
2.870120
 20
5.121160
  0
VERTEX
  8
0
  6
CONTINUOUS
 10
2.853400
 20
5.130400
  0
SEQEND
  8
0
  0
SOLID
  8
0
 62
    15
 10
2.870120
 20
5.121160
 11
3.525720
 21
5.503080
 12
2.883320
 22
5.109280
 13
3.539360
 23
5.491200
  0
POLYLINE
  8
0
  6
CONTINUOUS
 66
     1
 40
0.000000
 41
0.000000
  0
VERTEX
  8
0
  6
CONTINUOUS
 10
2.870120
 20
5.121160
  0
VERTEX
  8
0
  6
CONTINUOUS
 10
3.525720
 20
5.503080
  0
VERTEX
  8
0
  6
CONTINUOUS
 10
3.539360
 20
5.491200
  0
VERTEX
  8
0
  6
CONTINUOUS
 10
2.883320
 20
5.109280
  0
VERTEX
  8
0
  6
CONTINUOUS
 10
2.870120
 20
5.121160
  0
SEQEND
  8
0
  0
SOLID
  8
0
 62
    15
 10
2.883320
 20
5.109280
 11
3.539360
 21
5.491200
 12
2.901360
 22
5.079800
 13
3.557400
 23
5.461720
  0
POLYLINE
  8
0
  6
CONTINUOUS
 66
     1
 40
0.000000
 41
0.000000
  0
VERTEX
  8
0
  6
CONTINUOUS
 10
2.883320
 20
5.109280
  0
VERTEX
  8
0
  6
CONTINUOUS
 10
3.539360
 20
5.491200
  0
VERTEX
  8
0
  6
CONTINUOUS
 10
3.557400
 20
5.461720
  0
VERTEX
  8
0
  6
CONTINUOUS
 10
2.901360
 20
5.079800
  0
VERTEX
  8
0
  6
CONTINUOUS
 10
2.883320
 20
5.109280
  0
SEQEND
  8
0
  0
SOLID
  8
0
 62
    15
 10
2.901360
 20
5.079800
 11
3.557400
 21
5.461720
 12
2.907960
 22
5.045920
 13
3.563560
 23
5.427840
  0
POLYLINE
  8
0
  6
CONTINUOUS
 66
     1
 40
0.000000
 41
0.000000
  0
VERTEX
  8
0
  6
CONTINUOUS
 10
2.901360
 20
5.079800
  0
VERTEX
  8
0
  6
CONTINUOUS
 10
3.557400
 20
5.461720
  0
VERTEX
  8
0
  6
CONTINUOUS
 10
3.563560
 20
5.427840
  0
VERTEX
  8
0
  6
CONTINUOUS
 10
2.907960
 20
5.045920
  0
VERTEX
  8
0
  6
CONTINUOUS
 10
2.901360
 20
5.079800
  0
SEQEND
  8
0
  0
SOLID
  8
0
 62
    15
 10
2.907960
 20
5.045920
 11
3.563560
 21
5.427840
 12
2.902240
 22
5.012040
 13
3.558280
 23
5.393960
  0
POLYLINE
  8
0
  6
CONTINUOUS
 66
     1
 40
0.000000
 41
0.000000
  0
VERTEX
  8
0
  6
CONTINUOUS
 10
2.907960
 20
5.045920
  0
VERTEX
  8
0
  6
CONTINUOUS
 10
3.563560
 20
5.427840
  0
VERTEX
  8
0
  6
CONTINUOUS
 10
3.558280
 20
5.393960
  0
VERTEX
  8
0
  6
CONTINUOUS
 10
2.902240
 20
5.012040
  0
VERTEX
  8
0
  6
CONTINUOUS
 10
2.907960
 20
5.045920
  0
SEQEND
  8
0
  0
SOLID
  8
0
 62
    15
 10
2.816440
 20
4.953520
 11
3.472040
 21
5.335440
 12
2.816440
 22
4.871680
 13
3.472480
 23
5.253600
  0
POLYLINE
  8
0
  6
CONTINUOUS
 66
     1
 40
0.000000
 41
0.000000
  0
VERTEX
  8
0
  6
CONTINUOUS
 10
2.816440
 20
4.953520
  0
VERTEX
  8
0
  6
CONTINUOUS
 10
3.472040
 20
5.335440
  0
VERTEX
  8
0
  6
CONTINUOUS
 10
3.472480
 20
5.253600
  0
VERTEX
  8
0
  6
CONTINUOUS
 10
2.816440
 20
4.871680
  0
VERTEX
  8
0
  6
CONTINUOUS
 10
2.816440
 20
4.953520
  0
SEQEND
  8
0
  0
SOLID
  8
0
 62
    15
 10
2.885080
 20
4.982560
 11
3.541120
 21
5.364480
 12
2.872320
 22
4.970680
 13
3.528360
 23
5.352600
  0
POLYLINE
  8
0
  6
CONTINUOUS
 66
     1
 40
0.000000
 41
0.000000
  0
VERTEX
  8
0
  6
CONTINUOUS
 10
2.885080
 20
4.982560
  0
VERTEX
  8
0
  6
CONTINUOUS
 10
3.541120
 20
5.364480
  0
VERTEX
  8
0
  6
CONTINUOUS
 10
3.528360
 20
5.352600
  0
VERTEX
  8
0
  6
CONTINUOUS
 10
2.872320
 20
4.970680
  0
VERTEX
  8
0
  6
CONTINUOUS
 10
2.885080
 20
4.982560
  0
SEQEND
  8
0
  0
SOLID
  8
0
 62
    15
 10
2.902240
 20
5.012040
 11
3.558280
 21
5.393960
 12
2.885080
 22
4.982560
 13
3.541120
 23
5.364480
  0
POLYLINE
  8
0
  6
CONTINUOUS
 66
     1
 40
0.000000
 41
0.000000
  0
VERTEX
  8
0
  6
CONTINUOUS
 10
2.902240
 20
5.012040
  0
VERTEX
  8
0
  6
CONTINUOUS
 10
3.558280
 20
5.393960
  0
VERTEX
  8
0
  6
CONTINUOUS
 10
3.541120
 20
5.364480
  0
VERTEX
  8
0
  6
CONTINUOUS
 10
2.885080
 20
4.982560
  0
VERTEX
  8
0
  6
CONTINUOUS
 10
2.902240
 20
5.012040
  0
SEQEND
  8
0
  0
SOLID
  8
0
 62
    15
 10
2.816440
 20
4.871680
 11
3.472480
 21
5.253600
 12
2.788280
 22
4.843520
 13
3.444320
 23
5.225440
  0
POLYLINE
  8
0
  6
CONTINUOUS
 66
     1
 40
0.000000
 41
0.000000
  0
VERTEX
  8
0
  6
CONTINUOUS
 10
2.816440
 20
4.871680
  0
VERTEX
  8
0
  6
CONTINUOUS
 10
3.472480
 20
5.253600
  0
VERTEX
  8
0
  6
CONTINUOUS
 10
3.444320
 20
5.225440
  0
VERTEX
  8
0
  6
CONTINUOUS
 10
2.788280
 20
4.843520
  0
VERTEX
  8
0
  6
CONTINUOUS
 10
2.816440
 20
4.871680
  0
SEQEND
  8
0
  0
SOLID
  8
0
 62
    15
 10
2.788280
 20
4.843520
 11
3.444320
 21
5.225440
 12
2.770240
 22
4.813160
 13
3.426280
 23
5.195080
  0
POLYLINE
  8
0
  6
CONTINUOUS
 66
     1
 40
0.000000
 41
0.000000
  0
VERTEX
  8
0
  6
CONTINUOUS
 10
2.788280
 20
4.843520
  0
VERTEX
  8
0
  6
CONTINUOUS
 10
3.444320
 20
5.225440
  0
VERTEX
  8
0
  6
CONTINUOUS
 10
3.426280
 20
5.195080
  0
VERTEX
  8
0
  6
CONTINUOUS
 10
2.770240
 20
4.813160
  0
VERTEX
  8
0
  6
CONTINUOUS
 10
2.788280
 20
4.843520
  0
SEQEND
  8
0
  0
SOLID
  8
0
 62
    15
 10
2.770240
 20
4.813160
 11
3.426280
 21
5.195080
 12
2.761440
 22
4.780600
 13
3.417480
 23
5.162520
  0
POLYLINE
  8
0
  6
CONTINUOUS
 66
     1
 40
0.000000
 41
0.000000
  0
VERTEX
  8
0
  6
CONTINUOUS
 10
2.770240
 20
4.813160
  0
VERTEX
  8
0
  6
CONTINUOUS
 10
3.426280
 20
5.195080
  0
VERTEX
  8
0
  6
CONTINUOUS
 10
3.417480
 20
5.162520
  0
VERTEX
  8
0
  6
CONTINUOUS
 10
2.761440
 20
4.780600
  0
VERTEX
  8
0
  6
CONTINUOUS
 10
2.770240
 20
4.813160
  0
SEQEND
  8
0
  0
SOLID
  8
0
 62
    15
 10
2.761440
 20
4.780600
 11
3.417480
 21
5.162520
 12
2.761000
 22
4.746280
 13
3.416600
 23
5.128200
  0
POLYLINE
  8
0
  6
CONTINUOUS
 66
     1
 40
0.000000
 41
0.000000
  0
VERTEX
  8
0
  6
CONTINUOUS
 10
2.761440
 20
4.780600
  0
VERTEX
  8
0
  6
CONTINUOUS
 10
3.417480
 20
5.162520
  0
VERTEX
  8
0
  6
CONTINUOUS
 10
3.416600
 20
5.128200
  0
VERTEX
  8
0
  6
CONTINUOUS
 10
2.761000
 20
4.746280
  0
VERTEX
  8
0
  6
CONTINUOUS
 10
2.761440
 20
4.780600
  0
SEQEND
  8
0
  0
SOLID
  8
0
 62
    15
 10
2.761000
 20
4.746280
 11
3.416600
 21
5.128200
 12
2.767600
 22
4.711520
 13
3.423200
 23
5.093440
  0
POLYLINE
  8
0
  6
CONTINUOUS
 66
     1
 40
0.000000
 41
0.000000
  0
VERTEX
  8
0
  6
CONTINUOUS
 10
2.761000
 20
4.746280
  0
VERTEX
  8
0
  6
CONTINUOUS
 10
3.416600
 20
5.128200
  0
VERTEX
  8
0
  6
CONTINUOUS
 10
3.423200
 20
5.093440
  0
VERTEX
  8
0
  6
CONTINUOUS
 10
2.767600
 20
4.711520
  0
VERTEX
  8
0
  6
CONTINUOUS
 10
2.761000
 20
4.746280
  0
SEQEND
  8
0
  0
SOLID
  8
0
 62
    15
 10
2.767600
 20
4.711520
 11
3.423200
 21
5.093440
 12
2.780360
 22
4.675880
 13
3.436400
 23
5.057800
  0
POLYLINE
  8
0
  6
CONTINUOUS
 66
     1
 40
0.000000
 41
0.000000
  0
VERTEX
  8
0
  6
CONTINUOUS
 10
2.767600
 20
4.711520
  0
VERTEX
  8
0
  6
CONTINUOUS
 10
3.423200
 20
5.093440
  0
VERTEX
  8
0
  6
CONTINUOUS
 10
3.436400
 20
5.057800
  0
VERTEX
  8
0
  6
CONTINUOUS
 10
2.780360
 20
4.675880
  0
VERTEX
  8
0
  6
CONTINUOUS
 10
2.767600
 20
4.711520
  0
SEQEND
  8
0
  0
SOLID
  8
0
 62
    15
 10
2.718320
 20
5.408920
 11
3.374360
 21
5.790840
 12
2.718320
 22
5.290560
 13
3.374360
 23
5.672480
  0
POLYLINE
  8
0
  6
CONTINUOUS
 66
     1
 40
0.000000
 41
0.000000
  0
VERTEX
  8
0
  6
CONTINUOUS
 10
2.718320
 20
5.408920
  0
VERTEX
  8
0
  6
CONTINUOUS
 10
3.374360
 20
5.790840
  0
VERTEX
  8
0
  6
CONTINUOUS
 10
3.374360
 20
5.672480
  0
VERTEX
  8
0
  6
CONTINUOUS
 10
2.718320
 20
5.290560
  0
VERTEX
  8
0
  6
CONTINUOUS
 10
2.718320
 20
5.408920
  0
SEQEND
  8
0
  0
SOLID
  8
0
 62
    15
 10
2.798840
 20
4.640240
 11
3.454440
 21
5.022160
 12
2.821280
 22
4.605920
 13
3.477320
 23
4.987400
  0
POLYLINE
  8
0
  6
CONTINUOUS
 66
     1
 40
0.000000
 41
0.000000
  0
VERTEX
  8
0
  6
CONTINUOUS
 10
2.798840
 20
4.640240
  0
VERTEX
  8
0
  6
CONTINUOUS
 10
3.454440
 20
5.022160
  0
VERTEX
  8
0
  6
CONTINUOUS
 10
3.477320
 20
4.987400
  0
VERTEX
  8
0
  6
CONTINUOUS
 10
2.821280
 20
4.605920
  0
VERTEX
  8
0
  6
CONTINUOUS
 10
2.798840
 20
4.640240
  0
SEQEND
  8
0
  0
SOLID
  8
0
 62
    15
 10
2.821280
 20
4.605920
 11
3.477320
 21
4.987400
 12
2.875840
 22
4.540800
 13
3.531880
 23
4.922720
  0
POLYLINE
  8
0
  6
CONTINUOUS
 66
     1
 40
0.000000
 41
0.000000
  0
VERTEX
  8
0
  6
CONTINUOUS
 10
2.821280
 20
4.605920
  0
VERTEX
  8
0
  6
CONTINUOUS
 10
3.477320
 20
4.987400
  0
VERTEX
  8
0
  6
CONTINUOUS
 10
3.531880
 20
4.922720
  0
VERTEX
  8
0
  6
CONTINUOUS
 10
2.875840
 20
4.540800
  0
VERTEX
  8
0
  6
CONTINUOUS
 10
2.821280
 20
4.605920
  0
SEQEND
  8
0
  0
SOLID
  8
0
 62
    15
 10
2.875840
 20
4.540800
 11
3.531880
 21
4.922720
 12
2.936120
 22
4.485360
 13
3.592160
 23
4.867280
  0
POLYLINE
  8
0
  6
CONTINUOUS
 66
     1
 40
0.000000
 41
0.000000
  0
VERTEX
  8
0
  6
CONTINUOUS
 10
2.875840
 20
4.540800
  0
VERTEX
  8
0
  6
CONTINUOUS
 10
3.531880
 20
4.922720
  0
VERTEX
  8
0
  6
CONTINUOUS
 10
3.592160
 20
4.867280
  0
VERTEX
  8
0
  6
CONTINUOUS
 10
2.936120
 20
4.485360
  0
VERTEX
  8
0
  6
CONTINUOUS
 10
2.875840
 20
4.540800
  0
SEQEND
  8
0
  0
SOLID
  8
0
 62
    15
 10
2.936120
 20
4.485360
 11
3.592160
 21
4.867280
 12
2.966480
 22
4.462480
 13
3.622080
 23
4.844400
  0
POLYLINE
  8
0
  6
CONTINUOUS
 66
     1
 40
0.000000
 41
0.000000
  0
VERTEX
  8
0
  6
CONTINUOUS
 10
2.936120
 20
4.485360
  0
VERTEX
  8
0
  6
CONTINUOUS
 10
3.592160
 20
4.867280
  0
VERTEX
  8
0
  6
CONTINUOUS
 10
3.622080
 20
4.844400
  0
VERTEX
  8
0
  6
CONTINUOUS
 10
2.966480
 20
4.462480
  0
VERTEX
  8
0
  6
CONTINUOUS
 10
2.936120
 20
4.485360
  0
SEQEND
  8
0
  0
SOLID
  8
0
 62
    15
 10
2.966480
 20
4.462480
 11
3.622080
 21
4.844400
 12
2.995080
 22
4.443560
 13
3.650680
 23
4.825480
  0
POLYLINE
  8
0
  6
CONTINUOUS
 66
     1
 40
0.000000
 41
0.000000
  0
VERTEX
  8
0
  6
CONTINUOUS
 10
2.966480
 20
4.462480
  0
VERTEX
  8
0
  6
CONTINUOUS
 10
3.622080
 20
4.844400
  0
VERTEX
  8
0
  6
CONTINUOUS
 10
3.650680
 20
4.825480
  0
VERTEX
  8
0
  6
CONTINUOUS
 10
2.995080
 20
4.443560
  0
VERTEX
  8
0
  6
CONTINUOUS
 10
2.966480
 20
4.462480
  0
SEQEND
  8
0
  0
SOLID
  8
0
 62
    15
 10
2.995080
 20
4.443560
 11
3.650680
 21
4.825480
 12
3.021040
 22
4.429480
 13
3.677080
 23
4.811400
  0
POLYLINE
  8
0
  6
CONTINUOUS
 66
     1
 40
0.000000
 41
0.000000
  0
VERTEX
  8
0
  6
CONTINUOUS
 10
2.995080
 20
4.443560
  0
VERTEX
  8
0
  6
CONTINUOUS
 10
3.650680
 20
4.825480
  0
VERTEX
  8
0
  6
CONTINUOUS
 10
3.677080
 20
4.811400
  0
VERTEX
  8
0
  6
CONTINUOUS
 10
3.021040
 20
4.429480
  0
VERTEX
  8
0
  6
CONTINUOUS
 10
2.995080
 20
4.443560
  0
SEQEND
  8
0
  0
SOLID
  8
0
 62
    15
 10
3.021040
 20
4.429480
 11
3.677080
 21
4.811400
 12
3.043920
 22
4.420680
 13
3.699520
 23
4.802600
  0
POLYLINE
  8
0
  6
CONTINUOUS
 66
     1
 40
0.000000
 41
0.000000
  0
VERTEX
  8
0
  6
CONTINUOUS
 10
3.021040
 20
4.429480
  0
VERTEX
  8
0
  6
CONTINUOUS
 10
3.677080
 20
4.811400
  0
VERTEX
  8
0
  6
CONTINUOUS
 10
3.699520
 20
4.802600
  0
VERTEX
  8
0
  6
CONTINUOUS
 10
3.043920
 20
4.420680
  0
VERTEX
  8
0
  6
CONTINUOUS
 10
3.021040
 20
4.429480
  0
SEQEND
  8
0
  0
SOLID
  8
0
 62
    15
 10
3.043920
 20
4.420680
 11
3.699520
 21
4.802600
 12
3.043920
 22
4.304520
 13
3.699520
 23
4.686440
  0
POLYLINE
  8
0
  6
CONTINUOUS
 66
     1
 40
0.000000
 41
0.000000
  0
VERTEX
  8
0
  6
CONTINUOUS
 10
3.043920
 20
4.420680
  0
VERTEX
  8
0
  6
CONTINUOUS
 10
3.699520
 20
4.802600
  0
VERTEX
  8
0
  6
CONTINUOUS
 10
3.699520
 20
4.686440
  0
VERTEX
  8
0
  6
CONTINUOUS
 10
3.043920
 20
4.304520
  0
VERTEX
  8
0
  6
CONTINUOUS
 10
3.043920
 20
4.420680
  0
SEQEND
  8
0
  0
SOLID
  8
0
 62
    15
 10
3.043920
 20
4.304520
 11
3.699520
 21
4.686440
 12
3.105960
 22
4.289120
 13
3.761560
 23
4.671040
  0
POLYLINE
  8
0
  6
CONTINUOUS
 66
     1
 40
0.000000
 41
0.000000
  0
VERTEX
  8
0
  6
CONTINUOUS
 10
3.043920
 20
4.304520
  0
VERTEX
  8
0
  6
CONTINUOUS
 10
3.699520
 20
4.686440
  0
VERTEX
  8
0
  6
CONTINUOUS
 10
3.761560
 20
4.671040
  0
VERTEX
  8
0
  6
CONTINUOUS
 10
3.105960
 20
4.289120
  0
VERTEX
  8
0
  6
CONTINUOUS
 10
3.043920
 20
4.304520
  0
SEQEND
  8
0
  0
SOLID
  8
0
 62
    15
 10
3.105960
 20
4.289120
 11
3.761560
 21
4.671040
 12
3.161400
 22
4.265360
 13
3.817440
 23
4.647280
  0
POLYLINE
  8
0
  6
CONTINUOUS
 66
     1
 40
0.000000
 41
0.000000
  0
VERTEX
  8
0
  6
CONTINUOUS
 10
3.105960
 20
4.289120
  0
VERTEX
  8
0
  6
CONTINUOUS
 10
3.761560
 20
4.671040
  0
VERTEX
  8
0
  6
CONTINUOUS
 10
3.817440
 20
4.647280
  0
VERTEX
  8
0
  6
CONTINUOUS
 10
3.161400
 20
4.265360
  0
VERTEX
  8
0
  6
CONTINUOUS
 10
3.105960
 20
4.289120
  0
SEQEND
  8
0
  0
SOLID
  8
0
 62
    15
 10
3.161400
 20
4.265360
 11
3.817440
 21
4.647280
 12
3.211120
 22
4.235000
 13
3.866720
 23
4.616920
  0
POLYLINE
  8
0
  6
CONTINUOUS
 66
     1
 40
0.000000
 41
0.000000
  0
VERTEX
  8
0
  6
CONTINUOUS
 10
3.161400
 20
4.265360
  0
VERTEX
  8
0
  6
CONTINUOUS
 10
3.817440
 20
4.647280
  0
VERTEX
  8
0
  6
CONTINUOUS
 10
3.866720
 20
4.616920
  0
VERTEX
  8
0
  6
CONTINUOUS
 10
3.211120
 20
4.235000
  0
VERTEX
  8
0
  6
CONTINUOUS
 10
3.161400
 20
4.265360
  0
SEQEND
  8
0
  0
SOLID
  8
0
 62
    15
 10
3.211120
 20
4.235000
 11
3.866720
 21
4.616920
 12
3.254240
 22
4.198920
 13
3.909840
 23
4.580840
  0
POLYLINE
  8
0
  6
CONTINUOUS
 66
     1
 40
0.000000
 41
0.000000
  0
VERTEX
  8
0
  6
CONTINUOUS
 10
3.211120
 20
4.235000
  0
VERTEX
  8
0
  6
CONTINUOUS
 10
3.866720
 20
4.616920
  0
VERTEX
  8
0
  6
CONTINUOUS
 10
3.909840
 20
4.580840
  0
VERTEX
  8
0
  6
CONTINUOUS
 10
3.254240
 20
4.198920
  0
VERTEX
  8
0
  6
CONTINUOUS
 10
3.211120
 20
4.235000
  0
SEQEND
  8
0
  0
SOLID
  8
0
 62
    15
 10
3.254240
 20
4.198920
 11
3.909840
 21
4.580840
 12
3.290760
 22
4.158000
 13
3.946360
 23
4.539920
  0
POLYLINE
  8
0
  6
CONTINUOUS
 66
     1
 40
0.000000
 41
0.000000
  0
VERTEX
  8
0
  6
CONTINUOUS
 10
3.254240
 20
4.198920
  0
VERTEX
  8
0
  6
CONTINUOUS
 10
3.909840
 20
4.580840
  0
VERTEX
  8
0
  6
CONTINUOUS
 10
3.946360
 20
4.539920
  0
VERTEX
  8
0
  6
CONTINUOUS
 10
3.290760
 20
4.158000
  0
VERTEX
  8
0
  6
CONTINUOUS
 10
3.254240
 20
4.198920
  0
SEQEND
  8
0
  0
SOLID
  8
0
 62
    15
 10
3.290760
 20
4.158000
 11
3.946360
 21
4.539920
 12
3.320680
 22
4.114000
 13
3.976720
 23
4.495920
  0
POLYLINE
  8
0
  6
CONTINUOUS
 66
     1
 40
0.000000
 41
0.000000
  0
VERTEX
  8
0
  6
CONTINUOUS
 10
3.290760
 20
4.158000
  0
VERTEX
  8
0
  6
CONTINUOUS
 10
3.946360
 20
4.539920
  0
VERTEX
  8
0
  6
CONTINUOUS
 10
3.976720
 20
4.495920
  0
VERTEX
  8
0
  6
CONTINUOUS
 10
3.320680
 20
4.114000
  0
VERTEX
  8
0
  6
CONTINUOUS
 10
3.290760
 20
4.158000
  0
SEQEND
  8
0
  0
SOLID
  8
0
 62
    15
 10
3.320680
 20
4.114000
 11
3.976720
 21
4.495920
 12
3.344440
 22
4.067800
 13
4.000040
 23
4.449720
  0
POLYLINE
  8
0
  6
CONTINUOUS
 66
     1
 40
0.000000
 41
0.000000
  0
VERTEX
  8
0
  6
CONTINUOUS
 10
3.320680
 20
4.114000
  0
VERTEX
  8
0
  6
CONTINUOUS
 10
3.976720
 20
4.495920
  0
VERTEX
  8
0
  6
CONTINUOUS
 10
4.000040
 20
4.449720
  0
VERTEX
  8
0
  6
CONTINUOUS
 10
3.344440
 20
4.067800
  0
VERTEX
  8
0
  6
CONTINUOUS
 10
3.320680
 20
4.114000
  0
SEQEND
  8
0
  0
SOLID
  8
0
 62
    15
 10
3.344440
 20
4.067800
 11
4.000040
 21
4.449720
 12
3.361600
 22
4.020280
 13
4.017200
 23
4.402200
  0
POLYLINE
  8
0
  6
CONTINUOUS
 66
     1
 40
0.000000
 41
0.000000
  0
VERTEX
  8
0
  6
CONTINUOUS
 10
3.344440
 20
4.067800
  0
VERTEX
  8
0
  6
CONTINUOUS
 10
4.000040
 20
4.449720
  0
VERTEX
  8
0
  6
CONTINUOUS
 10
4.017200
 20
4.402200
  0
VERTEX
  8
0
  6
CONTINUOUS
 10
3.361600
 20
4.020280
  0
VERTEX
  8
0
  6
CONTINUOUS
 10
3.344440
 20
4.067800
  0
SEQEND
  8
0
  0
SOLID
  8
0
 62
    15
 10
3.361600
 20
4.020280
 11
4.017200
 21
4.402200
 12
3.371720
 22
3.973200
 13
4.027320
 23
4.355120
  0
POLYLINE
  8
0
  6
CONTINUOUS
 66
     1
 40
0.000000
 41
0.000000
  0
VERTEX
  8
0
  6
CONTINUOUS
 10
3.361600
 20
4.020280
  0
VERTEX
  8
0
  6
CONTINUOUS
 10
4.017200
 20
4.402200
  0
VERTEX
  8
0
  6
CONTINUOUS
 10
4.027320
 20
4.355120
  0
VERTEX
  8
0
  6
CONTINUOUS
 10
3.371720
 20
3.973200
  0
VERTEX
  8
0
  6
CONTINUOUS
 10
3.361600
 20
4.020280
  0
SEQEND
  8
0
  0
SOLID
  8
0
 62
    15
 10
3.371720
 20
3.973200
 11
4.027320
 21
4.355120
 12
3.375240
 22
3.927440
 13
4.031280
 23
4.309360
  0
POLYLINE
  8
0
  6
CONTINUOUS
 66
     1
 40
0.000000
 41
0.000000
  0
VERTEX
  8
0
  6
CONTINUOUS
 10
3.371720
 20
3.973200
  0
VERTEX
  8
0
  6
CONTINUOUS
 10
4.027320
 20
4.355120
  0
VERTEX
  8
0
  6
CONTINUOUS
 10
4.031280
 20
4.309360
  0
VERTEX
  8
0
  6
CONTINUOUS
 10
3.375240
 20
3.927440
  0
VERTEX
  8
0
  6
CONTINUOUS
 10
3.371720
 20
3.973200
  0
SEQEND
  8
0
  0
SOLID
  8
0
 62
    15
 10
3.375240
 20
3.927440
 11
4.031280
 21
4.309360
 12
3.372160
 22
3.883880
 13
4.027760
 23
4.265800
  0
POLYLINE
  8
0
  6
CONTINUOUS
 66
     1
 40
0.000000
 41
0.000000
  0
VERTEX
  8
0
  6
CONTINUOUS
 10
3.375240
 20
3.927440
  0
VERTEX
  8
0
  6
CONTINUOUS
 10
4.031280
 20
4.309360
  0
VERTEX
  8
0
  6
CONTINUOUS
 10
4.027760
 20
4.265800
  0
VERTEX
  8
0
  6
CONTINUOUS
 10
3.372160
 20
3.883880
  0
VERTEX
  8
0
  6
CONTINUOUS
 10
3.375240
 20
3.927440
  0
SEQEND
  8
0
  0
SOLID
  8
0
 62
    15
 10
3.372160
 20
3.883880
 11
4.027760
 21
4.265800
 12
3.362040
 22
3.844280
 13
4.017640
 23
4.226200
  0
POLYLINE
  8
0
  6
CONTINUOUS
 66
     1
 40
0.000000
 41
0.000000
  0
VERTEX
  8
0
  6
CONTINUOUS
 10
3.372160
 20
3.883880
  0
VERTEX
  8
0
  6
CONTINUOUS
 10
4.027760
 20
4.265800
  0
VERTEX
  8
0
  6
CONTINUOUS
 10
4.017640
 20
4.226200
  0
VERTEX
  8
0
  6
CONTINUOUS
 10
3.362040
 20
3.844280
  0
VERTEX
  8
0
  6
CONTINUOUS
 10
3.372160
 20
3.883880
  0
SEQEND
  8
0
  0
SOLID
  8
0
 62
    15
 10
3.362040
 20
3.844280
 11
4.017640
 21
4.226200
 12
3.344880
 22
3.809520
 13
4.000920
 23
4.191440
  0
POLYLINE
  8
0
  6
CONTINUOUS
 66
     1
 40
0.000000
 41
0.000000
  0
VERTEX
  8
0
  6
CONTINUOUS
 10
3.362040
 20
3.844280
  0
VERTEX
  8
0
  6
CONTINUOUS
 10
4.017640
 20
4.226200
  0
VERTEX
  8
0
  6
CONTINUOUS
 10
4.000920
 20
4.191440
  0
VERTEX
  8
0
  6
CONTINUOUS
 10
3.344880
 20
3.809520
  0
VERTEX
  8
0
  6
CONTINUOUS
 10
3.362040
 20
3.844280
  0
SEQEND
  8
0
  0
SOLID
  8
0
 62
    15
 10
3.252040
 20
3.746160
 11
3.908080
 21
4.128080
 12
3.252040
 22
3.696000
 13
3.908080
 23
4.077920
  0
POLYLINE
  8
0
  6
CONTINUOUS
 66
     1
 40
0.000000
 41
0.000000
  0
VERTEX
  8
0
  6
CONTINUOUS
 10
3.252040
 20
3.746160
  0
VERTEX
  8
0
  6
CONTINUOUS
 10
3.908080
 20
4.128080
  0
VERTEX
  8
0
  6
CONTINUOUS
 10
3.908080
 20
4.077920
  0
VERTEX
  8
0
  6
CONTINUOUS
 10
3.252040
 20
3.696000
  0
VERTEX
  8
0
  6
CONTINUOUS
 10
3.252040
 20
3.746160
  0
SEQEND
  8
0
  0
SOLID
  8
0
 62
    15
 10
3.321120
 20
3.780920
 11
3.977160
 21
4.162400
 12
3.290320
 22
3.759360
 13
3.945920
 23
4.141280
  0
POLYLINE
  8
0
  6
CONTINUOUS
 66
     1
 40
0.000000
 41
0.000000
  0
VERTEX
  8
0
  6
CONTINUOUS
 10
3.321120
 20
3.780920
  0
VERTEX
  8
0
  6
CONTINUOUS
 10
3.977160
 20
4.162400
  0
VERTEX
  8
0
  6
CONTINUOUS
 10
3.945920
 20
4.141280
  0
VERTEX
  8
0
  6
CONTINUOUS
 10
3.290320
 20
3.759360
  0
VERTEX
  8
0
  6
CONTINUOUS
 10
3.321120
 20
3.780920
  0
SEQEND
  8
0
  0
SOLID
  8
0
 62
    15
 10
3.344880
 20
3.809520
 11
4.000920
 21
4.191440
 12
3.321120
 22
3.780920
 13
3.977160
 23
4.162400
  0
POLYLINE
  8
0
  6
CONTINUOUS
 66
     1
 40
0.000000
 41
0.000000
  0
VERTEX
  8
0
  6
CONTINUOUS
 10
3.344880
 20
3.809520
  0
VERTEX
  8
0
  6
CONTINUOUS
 10
4.000920
 20
4.191440
  0
VERTEX
  8
0
  6
CONTINUOUS
 10
3.977160
 20
4.162400
  0
VERTEX
  8
0
  6
CONTINUOUS
 10
3.321120
 20
3.780920
  0
VERTEX
  8
0
  6
CONTINUOUS
 10
3.344880
 20
3.809520
  0
SEQEND
  8
0
  0
SOLID
  8
0
 62
    15
 10
2.630760
 20
5.408920
 11
3.286360
 21
5.790840
 12
2.718320
 22
5.408920
 13
3.374360
 23
5.790840
  0
POLYLINE
  8
0
  6
CONTINUOUS
 66
     1
 40
0.000000
 41
0.000000
  0
VERTEX
  8
0
  6
CONTINUOUS
 10
2.630760
 20
5.408920
  0
VERTEX
  8
0
  6
CONTINUOUS
 10
3.286360
 20
5.790840
  0
VERTEX
  8
0
  6
CONTINUOUS
 10
3.374360
 20
5.790840
  0
VERTEX
  8
0
  6
CONTINUOUS
 10
2.718320
 20
5.408920
  0
VERTEX
  8
0
  6
CONTINUOUS
 10
2.630760
 20
5.408920
  0
SEQEND
  8
0
  0
POLYLINE
  8
0
  6
CONTINUOUS
 66
     1
 40
0.000000
 41
0.000000
  0
VERTEX
  8
0
  6
CONTINUOUS
 10
2.718320
 20
5.408920
  0
VERTEX
  8
0
  6
CONTINUOUS
 10
2.718320
 20
5.290560
  0
VERTEX
  8
0
  6
CONTINUOUS
 10
2.721400
 20
5.267240
  0
VERTEX
  8
0
  6
CONTINUOUS
 10
2.730200
 20
5.247880
  0
VERTEX
  8
0
  6
CONTINUOUS
 10
2.742520
 20
5.233360
  0
VERTEX
  8
0
  6
CONTINUOUS
 10
2.757040
 20
5.222360
  0
VERTEX
  8
0
  6
CONTINUOUS
 10
2.788280
 20
5.210040
  0
VERTEX
  8
0
  6
CONTINUOUS
 10
2.801480
 20
5.207840
  0
VERTEX
  8
0
  6
CONTINUOUS
 10
2.811600
 20
5.207840
  0
VERTEX
  8
0
  6
CONTINUOUS
 10
2.812040
 20
5.138320
  0
VERTEX
  8
0
  6
CONTINUOUS
 10
2.834040
 20
5.136120
  0
VERTEX
  8
0
  6
CONTINUOUS
 10
2.853400
 20
5.130400
  0
VERTEX
  8
0
  6
CONTINUOUS
 10
2.870120
 20
5.121160
  0
VERTEX
  8
0
  6
CONTINUOUS
 10
2.883320
 20
5.109280
  0
VERTEX
  8
0
  6
CONTINUOUS
 10
2.901360
 20
5.079800
  0
VERTEX
  8
0
  6
CONTINUOUS
 10
2.907960
 20
5.045920
  0
VERTEX
  8
0
  6
CONTINUOUS
 10
2.902240
 20
5.012040
  0
VERTEX
  8
0
  6
CONTINUOUS
 10
2.885080
 20
4.982560
  0
VERTEX
  8
0
  6
CONTINUOUS
 10
2.872320
 20
4.970680
  0
VERTEX
  8
0
  6
CONTINUOUS
 10
2.856480
 20
4.961440
  0
VERTEX
  8
0
  6
CONTINUOUS
 10
2.838000
 20
4.955720
  0
VERTEX
  8
0
  6
CONTINUOUS
 10
2.816440
 20
4.953520
  0
VERTEX
  8
0
  6
CONTINUOUS
 10
2.816440
 20
4.871680
  0
VERTEX
  8
0
  6
CONTINUOUS
 10
2.788280
 20
4.843520
  0
VERTEX
  8
0
  6
CONTINUOUS
 10
2.770240
 20
4.813160
  0
VERTEX
  8
0
  6
CONTINUOUS
 10
2.761440
 20
4.780600
  0
VERTEX
  8
0
  6
CONTINUOUS
 10
2.761000
 20
4.746280
  0
VERTEX
  8
0
  6
CONTINUOUS
 10
2.767600
 20
4.711520
  0
VERTEX
  8
0
  6
CONTINUOUS
 10
2.780360
 20
4.675880
  0
VERTEX
  8
0
  6
CONTINUOUS
 10
2.798840
 20
4.640240
  0
VERTEX
  8
0
  6
CONTINUOUS
 10
2.821280
 20
4.605920
  0
VERTEX
  8
0
  6
CONTINUOUS
 10
2.875840
 20
4.540800
  0
VERTEX
  8
0
  6
CONTINUOUS
 10
2.936120
 20
4.485360
  0
VERTEX
  8
0
  6
CONTINUOUS
 10
2.966480
 20
4.462480
  0
VERTEX
  8
0
  6
CONTINUOUS
 10
2.995080
 20
4.443560
  0
VERTEX
  8
0
  6
CONTINUOUS
 10
3.021040
 20
4.429480
  0
VERTEX
  8
0
  6
CONTINUOUS
 10
3.043920
 20
4.420680
  0
VERTEX
  8
0
  6
CONTINUOUS
 10
3.043920
 20
4.304520
  0
VERTEX
  8
0
  6
CONTINUOUS
 10
3.105960
 20
4.289120
  0
VERTEX
  8
0
  6
CONTINUOUS
 10
3.161400
 20
4.265360
  0
VERTEX
  8
0
  6
CONTINUOUS
 10
3.211120
 20
4.235000
  0
VERTEX
  8
0
  6
CONTINUOUS
 10
3.254240
 20
4.198920
  0
VERTEX
  8
0
  6
CONTINUOUS
 10
3.290760
 20
4.158000
  0
VERTEX
  8
0
  6
CONTINUOUS
 10
3.320680
 20
4.114000
  0
VERTEX
  8
0
  6
CONTINUOUS
 10
3.344440
 20
4.067800
  0
VERTEX
  8
0
  6
CONTINUOUS
 10
3.361600
 20
4.020280
  0
VERTEX
  8
0
  6
CONTINUOUS
 10
3.371720
 20
3.973200
  0
VERTEX
  8
0
  6
CONTINUOUS
 10
3.375240
 20
3.927440
  0
VERTEX
  8
0
  6
CONTINUOUS
 10
3.372160
 20
3.883880
  0
VERTEX
  8
0
  6
CONTINUOUS
 10
3.362040
 20
3.844280
  0
VERTEX
  8
0
  6
CONTINUOUS
 10
3.344880
 20
3.809520
  0
VERTEX
  8
0
  6
CONTINUOUS
 10
3.321120
 20
3.780920
  0
VERTEX
  8
0
  6
CONTINUOUS
 10
3.290320
 20
3.759360
  0
VERTEX
  8
0
  6
CONTINUOUS
 10
3.252040
 20
3.746160
  0
VERTEX
  8
0
  6
CONTINUOUS
 10
3.252040
 20
3.696000
  0
VERTEX
  8
0
  6
CONTINUOUS
 10
2.630760
 20
3.696000
  0
VERTEX
  8
0
  6
CONTINUOUS
 10
2.630760
 20
5.408920
  0
VERTEX
  8
0
  6
CONTINUOUS
 10
2.718320
 20
5.408920
  0
SEQEND
  8
0
  0
TEXT
  8
0
 10
2.988920
 20
3.409120
 40
0.137963
  1
BA  1136
 41
1.000000
  7
SN0
 71
     0
 72
     5
 11
3.671235
 21
3.409120
  0
TEXT
  8
0
 10
2.878920
 20
3.217280
 40
0.137963
  1
3/4" x 1-3/4"
 41
1.000000
  7
SN0
 71
     0
 72
     5
 11
3.779694
 21
3.217280
  0
POLYLINE
  8
0
  6
CONTINUOUS
 66
     1
 40
0.014080
 41
0.014080
  0
VERTEX
  8
0
  6
CONTINUOUS
 10
6.318840
 20
3.725920
  0
VERTEX
  8
0
  6
CONTINUOUS
 10
4.605920
 20
3.725920
  0
VERTEX
  8
0
  6
CONTINUOUS
 10
4.605920
 20
4.347640
  0
VERTEX
  8
0
  6
CONTINUOUS
 10
4.655640
 20
4.347640
  0
VERTEX
  8
0
  6
CONTINUOUS
 10
4.660920
 20
4.367440
  0
VERTEX
  8
0
  6
CONTINUOUS
 10
4.673240
 20
4.393840
  0
VERTEX
  8
0
  6
CONTINUOUS
 10
4.690400
 20
4.416720
  0
VERTEX
  8
0
  6
CONTINUOUS
 10
4.704040
 20
4.429480
  0
VERTEX
  8
0
  6
CONTINUOUS
 10
4.719000
 20
4.440480
  0
VERTEX
  8
0
  6
CONTINUOUS
 10
4.735720
 20
4.449720
  0
VERTEX
  8
0
  6
CONTINUOUS
 10
4.753760
 20
4.457640
  0
VERTEX
  8
0
  6
CONTINUOUS
 10
4.773120
 20
4.463360
  0
VERTEX
  8
0
  6
CONTINUOUS
 10
4.793800
 20
4.467760
  0
VERTEX
  8
0
  6
CONTINUOUS
 10
4.836920
 20
4.470840
  0
VERTEX
  8
0
  6
CONTINUOUS
 10
4.859800
 20
4.469960
  0
VERTEX
  8
0
  6
CONTINUOUS
 10
4.882680
 20
4.467320
  0
VERTEX
  8
0
  6
CONTINUOUS
 10
4.906440
 20
4.462920
  0
VERTEX
  8
0
  6
CONTINUOUS
 10
4.953960
 20
4.449280
  0
VERTEX
  8
0
  6
CONTINUOUS
 10
5.001040
 20
4.429040
  0
VERTEX
  8
0
  6
CONTINUOUS
 10
5.046360
 20
4.402200
  0
VERTEX
  8
0
  6
CONTINUOUS
 10
5.067920
 20
4.386360
  0
VERTEX
  8
0
  6
CONTINUOUS
 10
5.108840
 20
4.349840
  0
VERTEX
  8
0
  6
CONTINUOUS
 10
5.144920
 20
4.306720
  0
VERTEX
  8
0
  6
CONTINUOUS
 10
5.175280
 20
4.257440
  0
VERTEX
  8
0
  6
CONTINUOUS
 10
5.188040
 20
4.230160
  0
VERTEX
  8
0
  6
CONTINUOUS
 10
5.203440
 20
4.186600
  0
VERTEX
  8
0
  6
CONTINUOUS
 10
5.214440
 20
4.139520
  0
VERTEX
  8
0
  6
CONTINUOUS
 10
5.330600
 20
4.139520
  0
VERTEX
  8
0
  6
CONTINUOUS
 10
5.339400
 20
4.116640
  0
VERTEX
  8
0
  6
CONTINUOUS
 10
5.362280
 20
4.076160
  0
VERTEX
  8
0
  6
CONTINUOUS
 10
5.394840
 20
4.031720
  0
VERTEX
  8
0
  6
CONTINUOUS
 10
5.435320
 20
3.986400
  0
VERTEX
  8
0
  6
CONTINUOUS
 10
5.481960
 20
3.942840
  0
VERTEX
  8
0
  6
CONTINUOUS
 10
5.532560
 20
3.905000
  0
VERTEX
  8
0
  6
CONTINUOUS
 10
5.567760
 20
3.884320
  0
VERTEX
  8
0
  6
CONTINUOUS
 10
5.603400
 20
3.868920
  0
VERTEX
  8
0
  6
CONTINUOUS
 10
5.638600
 20
3.858800
  0
VERTEX
  8
0
  6
CONTINUOUS
 10
5.656200
 20
3.856160
  0
VERTEX
  8
0
  6
CONTINUOUS
 10
5.673360
 20
3.855720
  0
VERTEX
  8
0
  6
CONTINUOUS
 10
5.690080
 20
3.857040
  0
VERTEX
  8
0
  6
CONTINUOUS
 10
5.706800
 20
3.860120
  0
VERTEX
  8
0
  6
CONTINUOUS
 10
5.722640
 20
3.865840
  0
VERTEX
  8
0
  6
CONTINUOUS
 10
5.745960
 20
3.878600
  0
VERTEX
  8
0
  6
CONTINUOUS
 10
5.767520
 20
3.896640
  0
VERTEX
  8
0
  6
CONTINUOUS
 10
5.781160
 20
3.912040
  0
VERTEX
  8
0
  6
CONTINUOUS
 10
5.863440
 20
3.912040
  0
VERTEX
  8
0
  6
CONTINUOUS
 10
5.865640
 20
3.933600
  0
VERTEX
  8
0
  6
CONTINUOUS
 10
5.871360
 20
3.952080
  0
VERTEX
  8
0
  6
CONTINUOUS
 10
5.880600
 20
3.967920
  0
VERTEX
  8
0
  6
CONTINUOUS
 10
5.899080
 20
3.985960
  0
VERTEX
  8
0
  6
CONTINUOUS
 10
5.914040
 20
3.994760
  0
VERTEX
  8
0
  6
CONTINUOUS
 10
5.938680
 20
4.001800
  0
VERTEX
  8
0
  6
CONTINUOUS
 10
5.955840
 20
4.003120
  0
VERTEX
  8
0
  6
CONTINUOUS
 10
5.973000
 20
4.001360
  0
VERTEX
  8
0
  6
CONTINUOUS
 10
5.989720
 20
3.996960
  0
VERTEX
  8
0
  6
CONTINUOUS
 10
6.005560
 20
3.989480
  0
VERTEX
  8
0
  6
CONTINUOUS
 10
6.019200
 20
3.978920
  0
VERTEX
  8
0
  6
CONTINUOUS
 10
6.031080
 20
3.965280
  0
VERTEX
  8
0
  6
CONTINUOUS
 10
6.040320
 20
3.949000
  0
VERTEX
  8
0
  6
CONTINUOUS
 10
6.046040
 20
3.929640
  0
VERTEX
  8
0
  6
CONTINUOUS
 10
6.048240
 20
3.907200
  0
VERTEX
  8
0
  6
CONTINUOUS
 10
6.117760
 20
3.907200
  0
VERTEX
  8
0
  6
CONTINUOUS
 10
6.117760
 20
3.897080
  0
VERTEX
  8
0
  6
CONTINUOUS
 10
6.121720
 20
3.876400
  0
VERTEX
  8
0
  6
CONTINUOUS
 10
6.132280
 20
3.852640
  0
VERTEX
  8
0
  6
CONTINUOUS
 10
6.143280
 20
3.837680
  0
VERTEX
  8
0
  6
CONTINUOUS
 10
6.157800
 20
3.825360
  0
VERTEX
  8
0
  6
CONTINUOUS
 10
6.176720
 20
3.817000
  0
VERTEX
  8
0
  6
CONTINUOUS
 10
6.200480
 20
3.813920
  0
VERTEX
  8
0
  6
CONTINUOUS
 10
6.318840
 20
3.813920
  0
VERTEX
  8
0
  6
CONTINUOUS
 10
6.318840
 20
3.725920
  0
SEQEND
  8
0
  0
TEXT
  8
0
 10
4.911280
 20
3.486560
 40
0.137963
  1
BA  1136
 41
1.000000
  7
SN0
 71
     0
 72
     5
 11
5.593595
 21
3.486560
  0
TEXT
  8
0
 10
4.801720
 20
3.295160
 40
0.137963
  1
3/4" x 1-3/4"
 41
1.000000
  7
SN0
 71
     0
 72
     5
 11
5.702494
 21
3.295160
  0
ENDSEC
  0
EOF
