  0
SECTION
  2
HEADER
  9
$ACADVER
  1
AC1006
  9
$EXTMIN
 10
2.704680
 20
0.543400
  9
$EXTMAX
 10
7.240200
 20
5.931200
  9
$LTSCALE
 40
0.044000
  9
$PDMODE
 70
    35
  9
$PDSIZE
 40
0.035200
  0
ENDSEC
  0
SECTION
  2
TABLES
  0
TABLE
  2
LTYPE
 70
     9
  0
LTYPE
  2
CONTINUOUS
 70
    64
  3
Solid line
 72
    65
 73
     0
 40
0.000000
  0
LTYPE
  2
DASHED
 70
    64
  3
__ __ __ __ __ __ __ __ __ __ __ __ __ __ __
 72
    65
 73
     2
 40
0.000330
 49
0.000220
 49
-0.000110
  0
LTYPE
  2
HIDDEN
 70
    64
  3
 _ _ _ _ _ _ _ _ _ _ _ _ _ _ _ _ _ _ _ _ _ _
 72
    65
 73
     2
 40
0.000165
 49
0.000110
 49
-0.000055
  0
LTYPE
  2
CENTER
 70
    64
  3
____ _ ____ _ ____ _ ____ _ ____ _ ____ _ ____
 72
    65
 73
     4
 40
0.000880
 49
0.000550
 49
-0.000110
 49
0.000110
 49
-0.000110
  0
LTYPE
  2
PHANTOM
 70
    64
  3
_____ _ _ _____ _ _ _____ _ _ _____ _ _ ____
 72
    65
 73
     6
 40
0.001100
 49
0.000550
 49
-0.000110
 49
0.000110
 49
-0.000110
 49
0.000110
 49
-0.000110
  0
LTYPE
  2
DOT
 70
    64
  3
...............................................
 72
    65
 73
     2
 40
0.000110
 49
0.000000
 49
-0.000110
  0
LTYPE
  2
DASHDOT
 70
    64
  3
__ . __ . __ . __ . __ . __ . __ . __ . __ . __
 72
    65
 73
     4
 40
0.000440
 49
0.000220
 49
-0.000110
 49
0.000000
 49
-0.000110
  0
LTYPE
  2
BORDER
 70
    64
  3
__ __ . __ __ . __ __ . __ __ . __ __ . __ __
 72
    65
 73
     6
 40
0.000770
 49
0.000220
 49
-0.000110
 49
0.000220
 49
-0.000110
 49
0.000000
 49
-0.000110
  0
LTYPE
  2
DIVIDE
 70
    64
  3
__ . . __ . . __ . . __ . . __ . . __ . . __
 72
    65
 73
     6
 40
0.000550
 49
0.000220
 49
-0.000110
 49
0.000000
 49
-0.000110
 49
0.000000
 49
-0.000110
  0
LTYPE
  2
DOTDOT
 70
    64
  3
 . .  . .  . .  . .  . .  . . 
 72
    65
 73
     5
 40
0.000242
 49
-0.000110
 49
0.000000
 49
-0.000110
 49
0.000000
 49
-0.000110
  0
ENDTAB
  0
TABLE
  2
STYLE
 70
     2
  0
STYLE
 70
     0
  2
SN0
 40
0.000000
 41
0.000440
 50
0.000000
 71
     0
 42
0.000000
  3
ROMAND
  0
STYLE
 70
    68
  2
SV0
 40
0.000000
 41
0.000440
 50
0.000000
 71
     0
 42
0.000000
  3
ROMAND
  0
ENDTAB
  0
TABLE
  2
LAYER
 70
     3
  0
LAYER
  2
FOREGROUND
 70
    64
 62
     7
  6
CONTINUOUS
  0
LAYER
  2
BACKGROUND
 70
    65
 62
    -7
  6
CONTINUOUS
  0
LAYER
  2
0
 70
    64
 62
     7
  6
CONTINUOUS
  0
ENDTAB
  0
ENDSEC
  0
SECTION
  2
ENTITIES
  0
POLYLINE
  8
FOREGROUND
  6
CONTINUOUS
 66
     1
 40
0.000000
 41
0.000000
  0
VERTEX
  8
FOREGROUND
  6
CONTINUOUS
 10
0.000000
 20
6.474600
  0
VERTEX
  8
FOREGROUND
  6
CONTINUOUS
 10
8.499920
 20
6.474600
  0
VERTEX
  8
FOREGROUND
  6
CONTINUOUS
 10
8.499920
 20
-4.525400
  0
VERTEX
  8
FOREGROUND
  6
CONTINUOUS
 10
0.000000
 20
-4.525400
  0
VERTEX
  8
FOREGROUND
  6
CONTINUOUS
 10
0.000000
 20
6.474600
  0
SEQEND
  8
0
  0
POLYLINE
  8
FOREGROUND
  6
CONTINUOUS
 66
     1
 40
0.000000
 41
0.000000
  0
VERTEX
  8
FOREGROUND
  6
CONTINUOUS
 10
0.000000
 20
6.474600
  0
VERTEX
  8
FOREGROUND
  6
CONTINUOUS
 10
8.499920
 20
6.474600
  0
VERTEX
  8
FOREGROUND
  6
CONTINUOUS
 10
8.499920
 20
-4.525400
  0
VERTEX
  8
FOREGROUND
  6
CONTINUOUS
 10
0.000000
 20
-4.525400
  0
VERTEX
  8
FOREGROUND
  6
CONTINUOUS
 10
0.000000
 20
6.474600
  0
SEQEND
  8
0
  0
POLYLINE
  8
0
  6
CONTINUOUS
 66
     1
 40
0.000000
 41
0.000000
  0
VERTEX
  8
0
  6
CONTINUOUS
 10
6.859160
 20
0.543400
  0
VERTEX
  8
0
  6
CONTINUOUS
 10
2.712600
 20
0.543400
  0
VERTEX
  8
0
  6
CONTINUOUS
 10
2.712600
 20
1.351240
  0
VERTEX
  8
0
  6
CONTINUOUS
 10
3.441240
 20
1.350800
  0
VERTEX
  8
0
  6
CONTINUOUS
 10
3.461040
 20
1.348600
  0
VERTEX
  8
0
  6
CONTINUOUS
 10
3.475560
 20
1.343320
  0
VERTEX
  8
0
  6
CONTINUOUS
 10
3.493160
 20
1.331000
  0
VERTEX
  8
0
  6
CONTINUOUS
 10
3.537160
 20
1.286560
  0
VERTEX
  8
0
  6
CONTINUOUS
 10
3.570600
 20
1.260160
  0
VERTEX
  8
0
  6
CONTINUOUS
 10
3.601840
 20
1.248280
  0
VERTEX
  8
0
  6
CONTINUOUS
 10
3.656840
 20
1.239480
  0
VERTEX
  8
0
  6
CONTINUOUS
 10
3.789280
 20
1.230240
  0
VERTEX
  8
0
  6
CONTINUOUS
 10
3.855280
 20
1.221000
  0
VERTEX
  8
0
  6
CONTINUOUS
 10
3.899720
 20
1.209120
  0
VERTEX
  8
0
  6
CONTINUOUS
 10
3.925680
 20
1.197240
  0
VERTEX
  8
0
  6
CONTINUOUS
 10
3.947680
 20
1.182280
  0
VERTEX
  8
0
  6
CONTINUOUS
 10
3.965280
 20
1.163800
  0
VERTEX
  8
0
  6
CONTINUOUS
 10
3.977160
 20
1.140480
  0
VERTEX
  8
0
  6
CONTINUOUS
 10
3.981120
 20
1.126840
  0
VERTEX
  8
0
  6
CONTINUOUS
 10
4.006640
 20
1.126840
  0
VERTEX
  8
0
  6
CONTINUOUS
 10
4.031280
 20
1.147080
  0
VERTEX
  8
0
  6
CONTINUOUS
 10
4.073520
 20
1.172160
  0
VERTEX
  8
0
  6
CONTINUOUS
 10
4.111800
 20
1.188880
  0
VERTEX
  8
0
  6
CONTINUOUS
 10
4.169880
 20
1.208680
  0
VERTEX
  8
0
  6
CONTINUOUS
 10
4.235000
 20
1.226720
  0
VERTEX
  8
0
  6
CONTINUOUS
 10
4.304960
 20
1.241680
  0
VERTEX
  8
0
  6
CONTINUOUS
 10
4.379320
 20
1.255320
  0
VERTEX
  8
0
  6
CONTINUOUS
 10
4.493720
 20
1.271160
  0
VERTEX
  8
0
  6
CONTINUOUS
 10
4.570720
 20
1.279960
  0
VERTEX
  8
0
  6
CONTINUOUS
 10
4.717240
 20
1.292720
  0
VERTEX
  8
0
  6
CONTINUOUS
 10
4.897200
 20
1.301960
  0
VERTEX
  8
0
  6
CONTINUOUS
 10
4.987840
 20
1.304160
  0
VERTEX
  8
0
  6
CONTINUOUS
 10
5.131720
 20
1.298880
  0
VERTEX
  8
0
  6
CONTINUOUS
 10
5.265040
 20
1.290080
  0
VERTEX
  8
0
  6
CONTINUOUS
 10
5.375920
 20
1.280400
  0
VERTEX
  8
0
  6
CONTINUOUS
 10
5.529040
 20
1.261480
  0
VERTEX
  8
0
  6
CONTINUOUS
 10
5.640360
 20
1.242120
  0
VERTEX
  8
0
  6
CONTINUOUS
 10
5.743760
 20
1.218360
  0
VERTEX
  8
0
  6
CONTINUOUS
 10
5.804920
 20
1.199440
  0
VERTEX
  8
0
  6
CONTINUOUS
 10
5.859040
 20
1.177880
  0
VERTEX
  8
0
  6
CONTINUOUS
 10
5.882800
 20
1.166440
  0
VERTEX
  8
0
  6
CONTINUOUS
 10
5.903920
 20
1.154120
  0
VERTEX
  8
0
  6
CONTINUOUS
 10
5.930320
 20
1.134320
  0
VERTEX
  8
0
  6
CONTINUOUS
 10
5.937800
 20
1.127280
  0
VERTEX
  8
0
  6
CONTINUOUS
 10
5.963760
 20
1.127280
  0
VERTEX
  8
0
  6
CONTINUOUS
 10
5.967720
 20
1.140920
  0
VERTEX
  8
0
  6
CONTINUOUS
 10
5.979600
 20
1.163800
  0
VERTEX
  8
0
  6
CONTINUOUS
 10
5.997200
 20
1.182720
  0
VERTEX
  8
0
  6
CONTINUOUS
 10
6.019200
 20
1.197680
  0
VERTEX
  8
0
  6
CONTINUOUS
 10
6.045160
 20
1.209120
  0
VERTEX
  8
0
  6
CONTINUOUS
 10
6.074200
 20
1.217920
  0
VERTEX
  8
0
  6
CONTINUOUS
 10
6.122160
 20
1.226720
  0
VERTEX
  8
0
  6
CONTINUOUS
 10
6.189920
 20
1.233320
  0
VERTEX
  8
0
  6
CONTINUOUS
 10
6.288040
 20
1.239920
  0
VERTEX
  8
0
  6
CONTINUOUS
 10
6.342600
 20
1.248720
  0
VERTEX
  8
0
  6
CONTINUOUS
 10
6.373840
 20
1.260600
  0
VERTEX
  8
0
  6
CONTINUOUS
 10
6.407280
 20
1.287000
  0
VERTEX
  8
0
  6
CONTINUOUS
 10
6.457000
 20
1.335840
  0
VERTEX
  8
0
  6
CONTINUOUS
 10
6.468880
 20
1.343760
  0
VERTEX
  8
0
  6
CONTINUOUS
 10
6.483840
 20
1.348600
  0
VERTEX
  8
0
  6
CONTINUOUS
 10
6.515960
 20
1.351240
  0
VERTEX
  8
0
  6
CONTINUOUS
 10
7.233160
 20
1.351240
  0
VERTEX
  8
0
  6
CONTINUOUS
 10
7.233160
 20
0.544720
  0
VERTEX
  8
0
  6
CONTINUOUS
 10
6.862680
 20
0.544720
  0
VERTEX
  8
0
  6
CONTINUOUS
 10
6.859160
 20
0.543400
  0
SEQEND
  8
0
  0
POLYLINE
  8
0
  6
CONTINUOUS
 66
     1
 40
0.000000
 41
0.000000
  0
VERTEX
  8
0
  6
CONTINUOUS
 10
6.859160
 20
1.709400
  0
VERTEX
  8
0
  6
CONTINUOUS
 10
2.712600
 20
1.709400
  0
VERTEX
  8
0
  6
CONTINUOUS
 10
2.712600
 20
2.516800
  0
VERTEX
  8
0
  6
CONTINUOUS
 10
3.441240
 20
2.516360
  0
VERTEX
  8
0
  6
CONTINUOUS
 10
3.461040
 20
2.514160
  0
VERTEX
  8
0
  6
CONTINUOUS
 10
3.475560
 20
2.509320
  0
VERTEX
  8
0
  6
CONTINUOUS
 10
3.493160
 20
2.496560
  0
VERTEX
  8
0
  6
CONTINUOUS
 10
3.537160
 20
2.452560
  0
VERTEX
  8
0
  6
CONTINUOUS
 10
3.570600
 20
2.426160
  0
VERTEX
  8
0
  6
CONTINUOUS
 10
3.601840
 20
2.414280
  0
VERTEX
  8
0
  6
CONTINUOUS
 10
3.641880
 20
2.407240
  0
VERTEX
  8
0
  6
CONTINUOUS
 10
3.721080
 20
2.400640
  0
VERTEX
  8
0
  6
CONTINUOUS
 10
3.789280
 20
2.395800
  0
VERTEX
  8
0
  6
CONTINUOUS
 10
3.855280
 20
2.386560
  0
VERTEX
  8
0
  6
CONTINUOUS
 10
3.885640
 20
2.379520
  0
VERTEX
  8
0
  6
CONTINUOUS
 10
3.912920
 20
2.369400
  0
VERTEX
  8
0
  6
CONTINUOUS
 10
3.937120
 20
2.356200
  0
VERTEX
  8
0
  6
CONTINUOUS
 10
3.956920
 20
2.339480
  0
VERTEX
  8
0
  6
CONTINUOUS
 10
3.965280
 20
2.329360
  0
VERTEX
  8
0
  6
CONTINUOUS
 10
3.977160
 20
2.306480
  0
VERTEX
  8
0
  6
CONTINUOUS
 10
3.981120
 20
2.292840
  0
VERTEX
  8
0
  6
CONTINUOUS
 10
4.006640
 20
2.292840
  0
VERTEX
  8
0
  6
CONTINUOUS
 10
4.031280
 20
2.313080
  0
VERTEX
  8
0
  6
CONTINUOUS
 10
4.073520
 20
2.338160
  0
VERTEX
  8
0
  6
CONTINUOUS
 10
4.111800
 20
2.354880
  0
VERTEX
  8
0
  6
CONTINUOUS
 10
4.169880
 20
2.374680
  0
VERTEX
  8
0
  6
CONTINUOUS
 10
4.235000
 20
2.392720
  0
VERTEX
  8
0
  6
CONTINUOUS
 10
4.304960
 20
2.407680
  0
VERTEX
  8
0
  6
CONTINUOUS
 10
4.379320
 20
2.421320
  0
VERTEX
  8
0
  6
CONTINUOUS
 10
4.493720
 20
2.437160
  0
VERTEX
  8
0
  6
CONTINUOUS
 10
4.570720
 20
2.445960
  0
VERTEX
  8
0
  6
CONTINUOUS
 10
4.717240
 20
2.458720
  0
VERTEX
  8
0
  6
CONTINUOUS
 10
4.897200
 20
2.467960
  0
VERTEX
  8
0
  6
CONTINUOUS
 10
4.979920
 20
2.470160
  0
VERTEX
  8
0
  6
CONTINUOUS
 10
5.102240
 20
2.466200
  0
VERTEX
  8
0
  6
CONTINUOUS
 10
5.265040
 20
2.456080
  0
VERTEX
  8
0
  6
CONTINUOUS
 10
5.375920
 20
2.445960
  0
VERTEX
  8
0
  6
CONTINUOUS
 10
5.529040
 20
2.427040
  0
VERTEX
  8
0
  6
CONTINUOUS
 10
5.640360
 20
2.407680
  0
VERTEX
  8
0
  6
CONTINUOUS
 10
5.710760
 20
2.392280
  0
VERTEX
  8
0
  6
CONTINUOUS
 10
5.775440
 20
2.374680
  0
VERTEX
  8
0
  6
CONTINUOUS
 10
5.833080
 20
2.354880
  0
VERTEX
  8
0
  6
CONTINUOUS
 10
5.882800
 20
2.332440
  0
VERTEX
  8
0
  6
CONTINUOUS
 10
5.903920
 20
2.320120
  0
VERTEX
  8
0
  6
CONTINUOUS
 10
5.930320
 20
2.300320
  0
VERTEX
  8
0
  6
CONTINUOUS
 10
5.937800
 20
2.293280
  0
VERTEX
  8
0
  6
CONTINUOUS
 10
5.963760
 20
2.293280
  0
VERTEX
  8
0
  6
CONTINUOUS
 10
5.967720
 20
2.306920
  0
VERTEX
  8
0
  6
CONTINUOUS
 10
5.979600
 20
2.329800
  0
VERTEX
  8
0
  6
CONTINUOUS
 10
5.997200
 20
2.348720
  0
VERTEX
  8
0
  6
CONTINUOUS
 10
6.019200
 20
2.363680
  0
VERTEX
  8
0
  6
CONTINUOUS
 10
6.045160
 20
2.375120
  0
VERTEX
  8
0
  6
CONTINUOUS
 10
6.074200
 20
2.383920
  0
VERTEX
  8
0
  6
CONTINUOUS
 10
6.122160
 20
2.392280
  0
VERTEX
  8
0
  6
CONTINUOUS
 10
6.189920
 20
2.398880
  0
VERTEX
  8
0
  6
CONTINUOUS
 10
6.288040
 20
2.405920
  0
VERTEX
  8
0
  6
CONTINUOUS
 10
6.330280
 20
2.412080
  0
VERTEX
  8
0
  6
CONTINUOUS
 10
6.354040
 20
2.418240
  0
VERTEX
  8
0
  6
CONTINUOUS
 10
6.373840
 20
2.426600
  0
VERTEX
  8
0
  6
CONTINUOUS
 10
6.417400
 20
2.461800
  0
VERTEX
  8
0
  6
CONTINUOUS
 10
6.457000
 20
2.501840
  0
VERTEX
  8
0
  6
CONTINUOUS
 10
6.475920
 20
2.512400
  0
VERTEX
  8
0
  6
CONTINUOUS
 10
6.492640
 20
2.515920
  0
VERTEX
  8
0
  6
CONTINUOUS
 10
6.515960
 20
2.517240
  0
VERTEX
  8
0
  6
CONTINUOUS
 10
7.233160
 20
2.517240
  0
VERTEX
  8
0
  6
CONTINUOUS
 10
7.233160
 20
1.710280
  0
VERTEX
  8
0
  6
CONTINUOUS
 10
6.862680
 20
1.710280
  0
VERTEX
  8
0
  6
CONTINUOUS
 10
6.859160
 20
1.709400
  0
SEQEND
  8
0
  0
SOLID
  8
0
 62
    15
 10
5.001040
 20
3.951200
 11
5.010280
 21
4.699200
 12
5.044600
 22
3.950320
 13
5.053840
 23
4.697880
  0
POLYLINE
  8
0
  6
CONTINUOUS
 66
     1
 40
0.000000
 41
0.000000
  0
VERTEX
  8
0
  6
CONTINUOUS
 10
5.001040
 20
3.951200
  0
VERTEX
  8
0
  6
CONTINUOUS
 10
5.010280
 20
4.699200
  0
VERTEX
  8
0
  6
CONTINUOUS
 10
5.053840
 20
4.697880
  0
VERTEX
  8
0
  6
CONTINUOUS
 10
5.044600
 20
3.950320
  0
VERTEX
  8
0
  6
CONTINUOUS
 10
5.001040
 20
3.951200
  0
SEQEND
  8
0
  0
SOLID
  8
0
 62
    15
 10
3.424080
 20
3.998720
 11
3.433320
 21
4.746720
 12
3.446960
 22
3.997840
 13
3.456200
 23
4.745400
  0
POLYLINE
  8
0
  6
CONTINUOUS
 66
     1
 40
0.000000
 41
0.000000
  0
VERTEX
  8
0
  6
CONTINUOUS
 10
3.424080
 20
3.998720
  0
VERTEX
  8
0
  6
CONTINUOUS
 10
3.433320
 20
4.746720
  0
VERTEX
  8
0
  6
CONTINUOUS
 10
3.456200
 20
4.745400
  0
VERTEX
  8
0
  6
CONTINUOUS
 10
3.446960
 20
3.997840
  0
VERTEX
  8
0
  6
CONTINUOUS
 10
3.424080
 20
3.998720
  0
SEQEND
  8
0
  0
SOLID
  8
0
 62
    15
 10
3.446960
 20
3.997840
 11
3.456200
 21
4.745400
 12
3.464120
 22
3.993880
 13
3.473360
 23
4.741880
  0
POLYLINE
  8
0
  6
CONTINUOUS
 66
     1
 40
0.000000
 41
0.000000
  0
VERTEX
  8
0
  6
CONTINUOUS
 10
3.446960
 20
3.997840
  0
VERTEX
  8
0
  6
CONTINUOUS
 10
3.456200
 20
4.745400
  0
VERTEX
  8
0
  6
CONTINUOUS
 10
3.473360
 20
4.741880
  0
VERTEX
  8
0
  6
CONTINUOUS
 10
3.464120
 20
3.993880
  0
VERTEX
  8
0
  6
CONTINUOUS
 10
3.446960
 20
3.997840
  0
SEQEND
  8
0
  0
SOLID
  8
0
 62
    15
 10
3.464120
 20
3.993880
 11
3.473360
 21
4.741880
 12
3.488320
 22
3.978480
 13
3.497560
 23
4.726480
  0
POLYLINE
  8
0
  6
CONTINUOUS
 66
     1
 40
0.000000
 41
0.000000
  0
VERTEX
  8
0
  6
CONTINUOUS
 10
3.464120
 20
3.993880
  0
VERTEX
  8
0
  6
CONTINUOUS
 10
3.473360
 20
4.741880
  0
VERTEX
  8
0
  6
CONTINUOUS
 10
3.497560
 20
4.726480
  0
VERTEX
  8
0
  6
CONTINUOUS
 10
3.488320
 20
3.978480
  0
VERTEX
  8
0
  6
CONTINUOUS
 10
3.464120
 20
3.993880
  0
SEQEND
  8
0
  0
SOLID
  8
0
 62
    15
 10
3.488320
 20
3.978480
 11
3.497560
 21
4.726480
 12
3.513840
 22
3.952080
 13
3.523520
 23
4.700080
  0
POLYLINE
  8
0
  6
CONTINUOUS
 66
     1
 40
0.000000
 41
0.000000
  0
VERTEX
  8
0
  6
CONTINUOUS
 10
3.488320
 20
3.978480
  0
VERTEX
  8
0
  6
CONTINUOUS
 10
3.497560
 20
4.726480
  0
VERTEX
  8
0
  6
CONTINUOUS
 10
3.523520
 20
4.700080
  0
VERTEX
  8
0
  6
CONTINUOUS
 10
3.513840
 20
3.952080
  0
VERTEX
  8
0
  6
CONTINUOUS
 10
3.488320
 20
3.978480
  0
SEQEND
  8
0
  0
SOLID
  8
0
 62
    15
 10
3.513840
 20
3.952080
 11
3.523520
 21
4.700080
 12
3.532760
 22
3.934480
 13
3.542000
 23
4.682480
  0
POLYLINE
  8
0
  6
CONTINUOUS
 66
     1
 40
0.000000
 41
0.000000
  0
VERTEX
  8
0
  6
CONTINUOUS
 10
3.513840
 20
3.952080
  0
VERTEX
  8
0
  6
CONTINUOUS
 10
3.523520
 20
4.700080
  0
VERTEX
  8
0
  6
CONTINUOUS
 10
3.542000
 20
4.682480
  0
VERTEX
  8
0
  6
CONTINUOUS
 10
3.532760
 20
3.934480
  0
VERTEX
  8
0
  6
CONTINUOUS
 10
3.513840
 20
3.952080
  0
SEQEND
  8
0
  0
SOLID
  8
0
 62
    15
 10
3.532760
 20
3.934480
 11
3.542000
 21
4.682480
 12
3.558280
 22
3.913360
 13
3.567520
 23
4.661360
  0
POLYLINE
  8
0
  6
CONTINUOUS
 66
     1
 40
0.000000
 41
0.000000
  0
VERTEX
  8
0
  6
CONTINUOUS
 10
3.532760
 20
3.934480
  0
VERTEX
  8
0
  6
CONTINUOUS
 10
3.542000
 20
4.682480
  0
VERTEX
  8
0
  6
CONTINUOUS
 10
3.567520
 20
4.661360
  0
VERTEX
  8
0
  6
CONTINUOUS
 10
3.558280
 20
3.913360
  0
VERTEX
  8
0
  6
CONTINUOUS
 10
3.532760
 20
3.934480
  0
SEQEND
  8
0
  0
SOLID
  8
0
 62
    15
 10
3.558280
 20
3.913360
 11
3.567520
 21
4.661360
 12
3.575440
 22
3.903680
 13
3.584680
 23
4.651680
  0
POLYLINE
  8
0
  6
CONTINUOUS
 66
     1
 40
0.000000
 41
0.000000
  0
VERTEX
  8
0
  6
CONTINUOUS
 10
3.558280
 20
3.913360
  0
VERTEX
  8
0
  6
CONTINUOUS
 10
3.567520
 20
4.661360
  0
VERTEX
  8
0
  6
CONTINUOUS
 10
3.584680
 20
4.651680
  0
VERTEX
  8
0
  6
CONTINUOUS
 10
3.575440
 20
3.903680
  0
VERTEX
  8
0
  6
CONTINUOUS
 10
3.558280
 20
3.913360
  0
SEQEND
  8
0
  0
SOLID
  8
0
 62
    15
 10
3.575440
 20
3.903680
 11
3.584680
 21
4.651680
 12
3.597000
 22
3.896200
 13
3.606680
 23
4.644200
  0
POLYLINE
  8
0
  6
CONTINUOUS
 66
     1
 40
0.000000
 41
0.000000
  0
VERTEX
  8
0
  6
CONTINUOUS
 10
3.575440
 20
3.903680
  0
VERTEX
  8
0
  6
CONTINUOUS
 10
3.584680
 20
4.651680
  0
VERTEX
  8
0
  6
CONTINUOUS
 10
3.606680
 20
4.644200
  0
VERTEX
  8
0
  6
CONTINUOUS
 10
3.597000
 20
3.896200
  0
VERTEX
  8
0
  6
CONTINUOUS
 10
3.575440
 20
3.903680
  0
SEQEND
  8
0
  0
SOLID
  8
0
 62
    15
 10
3.597000
 20
3.896200
 11
3.606680
 21
4.644200
 12
3.652000
 22
3.887400
 13
3.661240
 23
4.635400
  0
POLYLINE
  8
0
  6
CONTINUOUS
 66
     1
 40
0.000000
 41
0.000000
  0
VERTEX
  8
0
  6
CONTINUOUS
 10
3.597000
 20
3.896200
  0
VERTEX
  8
0
  6
CONTINUOUS
 10
3.606680
 20
4.644200
  0
VERTEX
  8
0
  6
CONTINUOUS
 10
3.661240
 20
4.635400
  0
VERTEX
  8
0
  6
CONTINUOUS
 10
3.652000
 20
3.887400
  0
VERTEX
  8
0
  6
CONTINUOUS
 10
3.597000
 20
3.896200
  0
SEQEND
  8
0
  0
SOLID
  8
0
 62
    15
 10
3.652000
 20
3.887400
 11
3.661240
 21
4.635400
 12
3.784440
 22
3.877720
 13
3.793680
 23
4.625720
  0
POLYLINE
  8
0
  6
CONTINUOUS
 66
     1
 40
0.000000
 41
0.000000
  0
VERTEX
  8
0
  6
CONTINUOUS
 10
3.652000
 20
3.887400
  0
VERTEX
  8
0
  6
CONTINUOUS
 10
3.661240
 20
4.635400
  0
VERTEX
  8
0
  6
CONTINUOUS
 10
3.793680
 20
4.625720
  0
VERTEX
  8
0
  6
CONTINUOUS
 10
3.784440
 20
3.877720
  0
VERTEX
  8
0
  6
CONTINUOUS
 10
3.652000
 20
3.887400
  0
SEQEND
  8
0
  0
SOLID
  8
0
 62
    15
 10
3.784440
 20
3.877720
 11
3.793680
 21
4.625720
 12
3.850440
 22
3.868920
 13
3.859680
 23
4.616920
  0
POLYLINE
  8
0
  6
CONTINUOUS
 66
     1
 40
0.000000
 41
0.000000
  0
VERTEX
  8
0
  6
CONTINUOUS
 10
3.784440
 20
3.877720
  0
VERTEX
  8
0
  6
CONTINUOUS
 10
3.793680
 20
4.625720
  0
VERTEX
  8
0
  6
CONTINUOUS
 10
3.859680
 20
4.616920
  0
VERTEX
  8
0
  6
CONTINUOUS
 10
3.850440
 20
3.868920
  0
VERTEX
  8
0
  6
CONTINUOUS
 10
3.784440
 20
3.877720
  0
SEQEND
  8
0
  0
SOLID
  8
0
 62
    15
 10
3.850440
 20
3.868920
 11
3.859680
 21
4.616920
 12
3.908520
 22
3.851320
 13
3.917760
 23
4.599320
  0
POLYLINE
  8
0
  6
CONTINUOUS
 66
     1
 40
0.000000
 41
0.000000
  0
VERTEX
  8
0
  6
CONTINUOUS
 10
3.850440
 20
3.868920
  0
VERTEX
  8
0
  6
CONTINUOUS
 10
3.859680
 20
4.616920
  0
VERTEX
  8
0
  6
CONTINUOUS
 10
3.917760
 20
4.599320
  0
VERTEX
  8
0
  6
CONTINUOUS
 10
3.908520
 20
3.851320
  0
VERTEX
  8
0
  6
CONTINUOUS
 10
3.850440
 20
3.868920
  0
SEQEND
  8
0
  0
SOLID
  8
0
 62
    15
 10
3.908520
 20
3.851320
 11
3.917760
 21
4.599320
 12
3.932280
 22
3.838120
 13
3.941520
 23
4.586120
  0
POLYLINE
  8
0
  6
CONTINUOUS
 66
     1
 40
0.000000
 41
0.000000
  0
VERTEX
  8
0
  6
CONTINUOUS
 10
3.908520
 20
3.851320
  0
VERTEX
  8
0
  6
CONTINUOUS
 10
3.917760
 20
4.599320
  0
VERTEX
  8
0
  6
CONTINUOUS
 10
3.941520
 20
4.586120
  0
VERTEX
  8
0
  6
CONTINUOUS
 10
3.932280
 20
3.838120
  0
VERTEX
  8
0
  6
CONTINUOUS
 10
3.908520
 20
3.851320
  0
SEQEND
  8
0
  0
SOLID
  8
0
 62
    15
 10
3.932280
 20
3.838120
 11
3.941520
 21
4.586120
 12
3.952080
 22
3.821400
 13
3.961320
 23
4.569400
  0
POLYLINE
  8
0
  6
CONTINUOUS
 66
     1
 40
0.000000
 41
0.000000
  0
VERTEX
  8
0
  6
CONTINUOUS
 10
3.932280
 20
3.838120
  0
VERTEX
  8
0
  6
CONTINUOUS
 10
3.941520
 20
4.586120
  0
VERTEX
  8
0
  6
CONTINUOUS
 10
3.961320
 20
4.569400
  0
VERTEX
  8
0
  6
CONTINUOUS
 10
3.952080
 20
3.821400
  0
VERTEX
  8
0
  6
CONTINUOUS
 10
3.932280
 20
3.838120
  0
SEQEND
  8
0
  0
SOLID
  8
0
 62
    15
 10
3.952080
 20
3.821400
 11
3.961320
 21
4.569400
 12
3.967040
 22
3.800280
 13
3.976280
 23
4.548280
  0
POLYLINE
  8
0
  6
CONTINUOUS
 66
     1
 40
0.000000
 41
0.000000
  0
VERTEX
  8
0
  6
CONTINUOUS
 10
3.952080
 20
3.821400
  0
VERTEX
  8
0
  6
CONTINUOUS
 10
3.961320
 20
4.569400
  0
VERTEX
  8
0
  6
CONTINUOUS
 10
3.976280
 20
4.548280
  0
VERTEX
  8
0
  6
CONTINUOUS
 10
3.967040
 20
3.800280
  0
VERTEX
  8
0
  6
CONTINUOUS
 10
3.952080
 20
3.821400
  0
SEQEND
  8
0
  0
SOLID
  8
0
 62
    15
 10
3.967040
 20
3.800280
 11
3.976280
 21
4.548280
 12
3.976280
 22
3.774760
 13
3.985520
 23
4.522760
  0
POLYLINE
  8
0
  6
CONTINUOUS
 66
     1
 40
0.000000
 41
0.000000
  0
VERTEX
  8
0
  6
CONTINUOUS
 10
3.967040
 20
3.800280
  0
VERTEX
  8
0
  6
CONTINUOUS
 10
3.976280
 20
4.548280
  0
VERTEX
  8
0
  6
CONTINUOUS
 10
3.985520
 20
4.522760
  0
VERTEX
  8
0
  6
CONTINUOUS
 10
3.976280
 20
3.774760
  0
VERTEX
  8
0
  6
CONTINUOUS
 10
3.967040
 20
3.800280
  0
SEQEND
  8
0
  0
SOLID
  8
0
 62
    15
 10
3.976280
 20
3.774760
 11
3.985520
 21
4.522760
 12
4.002240
 22
3.774760
 13
4.011480
 23
4.522760
  0
POLYLINE
  8
0
  6
CONTINUOUS
 66
     1
 40
0.000000
 41
0.000000
  0
VERTEX
  8
0
  6
CONTINUOUS
 10
3.976280
 20
3.774760
  0
VERTEX
  8
0
  6
CONTINUOUS
 10
3.985520
 20
4.522760
  0
VERTEX
  8
0
  6
CONTINUOUS
 10
4.011480
 20
4.522760
  0
VERTEX
  8
0
  6
CONTINUOUS
 10
4.002240
 20
3.774760
  0
VERTEX
  8
0
  6
CONTINUOUS
 10
3.976280
 20
3.774760
  0
SEQEND
  8
0
  0
SOLID
  8
0
 62
    15
 10
4.002240
 20
3.774760
 11
4.011480
 21
4.522760
 12
4.036120
 22
3.801600
 13
4.045800
 23
4.549600
  0
POLYLINE
  8
0
  6
CONTINUOUS
 66
     1
 40
0.000000
 41
0.000000
  0
VERTEX
  8
0
  6
CONTINUOUS
 10
4.002240
 20
3.774760
  0
VERTEX
  8
0
  6
CONTINUOUS
 10
4.011480
 20
4.522760
  0
VERTEX
  8
0
  6
CONTINUOUS
 10
4.045800
 20
4.549600
  0
VERTEX
  8
0
  6
CONTINUOUS
 10
4.036120
 20
3.801600
  0
VERTEX
  8
0
  6
CONTINUOUS
 10
4.002240
 20
3.774760
  0
SEQEND
  8
0
  0
SOLID
  8
0
 62
    15
 10
4.036120
 20
3.801600
 11
4.045800
 21
4.549600
 12
4.081440
 22
3.825360
 13
4.090680
 23
4.573360
  0
POLYLINE
  8
0
  6
CONTINUOUS
 66
     1
 40
0.000000
 41
0.000000
  0
VERTEX
  8
0
  6
CONTINUOUS
 10
4.036120
 20
3.801600
  0
VERTEX
  8
0
  6
CONTINUOUS
 10
4.045800
 20
4.549600
  0
VERTEX
  8
0
  6
CONTINUOUS
 10
4.090680
 20
4.573360
  0
VERTEX
  8
0
  6
CONTINUOUS
 10
4.081440
 20
3.825360
  0
VERTEX
  8
0
  6
CONTINUOUS
 10
4.036120
 20
3.801600
  0
SEQEND
  8
0
  0
SOLID
  8
0
 62
    15
 10
4.081440
 20
3.825360
 11
4.090680
 21
4.573360
 12
4.135120
 22
3.846920
 13
4.144800
 23
4.594920
  0
POLYLINE
  8
0
  6
CONTINUOUS
 66
     1
 40
0.000000
 41
0.000000
  0
VERTEX
  8
0
  6
CONTINUOUS
 10
4.081440
 20
3.825360
  0
VERTEX
  8
0
  6
CONTINUOUS
 10
4.090680
 20
4.573360
  0
VERTEX
  8
0
  6
CONTINUOUS
 10
4.144800
 20
4.594920
  0
VERTEX
  8
0
  6
CONTINUOUS
 10
4.135120
 20
3.846920
  0
VERTEX
  8
0
  6
CONTINUOUS
 10
4.081440
 20
3.825360
  0
SEQEND
  8
0
  0
SOLID
  8
0
 62
    15
 10
4.135120
 20
3.846920
 11
4.144800
 21
4.594920
 12
4.197160
 22
3.865840
 13
4.206400
 23
4.613840
  0
POLYLINE
  8
0
  6
CONTINUOUS
 66
     1
 40
0.000000
 41
0.000000
  0
VERTEX
  8
0
  6
CONTINUOUS
 10
4.135120
 20
3.846920
  0
VERTEX
  8
0
  6
CONTINUOUS
 10
4.144800
 20
4.594920
  0
VERTEX
  8
0
  6
CONTINUOUS
 10
4.206400
 20
4.613840
  0
VERTEX
  8
0
  6
CONTINUOUS
 10
4.197160
 20
3.865840
  0
VERTEX
  8
0
  6
CONTINUOUS
 10
4.135120
 20
3.846920
  0
SEQEND
  8
0
  0
SOLID
  8
0
 62
    15
 10
4.197160
 20
3.865840
 11
4.206400
 21
4.613840
 12
4.264920
 22
3.882120
 13
4.274160
 23
4.630120
  0
POLYLINE
  8
0
  6
CONTINUOUS
 66
     1
 40
0.000000
 41
0.000000
  0
VERTEX
  8
0
  6
CONTINUOUS
 10
4.197160
 20
3.865840
  0
VERTEX
  8
0
  6
CONTINUOUS
 10
4.206400
 20
4.613840
  0
VERTEX
  8
0
  6
CONTINUOUS
 10
4.274160
 20
4.630120
  0
VERTEX
  8
0
  6
CONTINUOUS
 10
4.264920
 20
3.882120
  0
VERTEX
  8
0
  6
CONTINUOUS
 10
4.197160
 20
3.865840
  0
SEQEND
  8
0
  0
SOLID
  8
0
 62
    15
 10
4.264920
 20
3.882120
 11
4.274160
 21
4.630120
 12
4.337080
 22
3.896640
 13
4.346320
 23
4.644640
  0
POLYLINE
  8
0
  6
CONTINUOUS
 66
     1
 40
0.000000
 41
0.000000
  0
VERTEX
  8
0
  6
CONTINUOUS
 10
4.264920
 20
3.882120
  0
VERTEX
  8
0
  6
CONTINUOUS
 10
4.274160
 20
4.630120
  0
VERTEX
  8
0
  6
CONTINUOUS
 10
4.346320
 20
4.644640
  0
VERTEX
  8
0
  6
CONTINUOUS
 10
4.337080
 20
3.896640
  0
VERTEX
  8
0
  6
CONTINUOUS
 10
4.264920
 20
3.882120
  0
SEQEND
  8
0
  0
SOLID
  8
0
 62
    15
 10
4.337080
 20
3.896640
 11
4.346320
 21
4.644640
 12
4.489320
 22
3.919080
 13
4.498560
 23
4.667080
  0
POLYLINE
  8
0
  6
CONTINUOUS
 66
     1
 40
0.000000
 41
0.000000
  0
VERTEX
  8
0
  6
CONTINUOUS
 10
4.337080
 20
3.896640
  0
VERTEX
  8
0
  6
CONTINUOUS
 10
4.346320
 20
4.644640
  0
VERTEX
  8
0
  6
CONTINUOUS
 10
4.498560
 20
4.667080
  0
VERTEX
  8
0
  6
CONTINUOUS
 10
4.489320
 20
3.919080
  0
VERTEX
  8
0
  6
CONTINUOUS
 10
4.337080
 20
3.896640
  0
SEQEND
  8
0
  0
SOLID
  8
0
 62
    15
 10
4.489320
 20
3.919080
 11
4.498560
 21
4.667080
 12
4.640680
 22
3.934920
 13
4.649920
 23
4.682920
  0
POLYLINE
  8
0
  6
CONTINUOUS
 66
     1
 40
0.000000
 41
0.000000
  0
VERTEX
  8
0
  6
CONTINUOUS
 10
4.489320
 20
3.919080
  0
VERTEX
  8
0
  6
CONTINUOUS
 10
4.498560
 20
4.667080
  0
VERTEX
  8
0
  6
CONTINUOUS
 10
4.649920
 20
4.682920
  0
VERTEX
  8
0
  6
CONTINUOUS
 10
4.640680
 20
3.934920
  0
VERTEX
  8
0
  6
CONTINUOUS
 10
4.489320
 20
3.919080
  0
SEQEND
  8
0
  0
SOLID
  8
0
 62
    15
 10
4.640680
 20
3.934920
 11
4.649920
 21
4.682920
 12
4.712400
 22
3.940200
 13
4.721640
 23
4.688200
  0
POLYLINE
  8
0
  6
CONTINUOUS
 66
     1
 40
0.000000
 41
0.000000
  0
VERTEX
  8
0
  6
CONTINUOUS
 10
4.640680
 20
3.934920
  0
VERTEX
  8
0
  6
CONTINUOUS
 10
4.649920
 20
4.682920
  0
VERTEX
  8
0
  6
CONTINUOUS
 10
4.721640
 20
4.688200
  0
VERTEX
  8
0
  6
CONTINUOUS
 10
4.712400
 20
3.940200
  0
VERTEX
  8
0
  6
CONTINUOUS
 10
4.640680
 20
3.934920
  0
SEQEND
  8
0
  0
SOLID
  8
0
 62
    15
 10
4.712400
 20
3.940200
 11
4.721640
 21
4.688200
 12
4.779280
 22
3.944600
 13
4.788960
 23
4.692600
  0
POLYLINE
  8
0
  6
CONTINUOUS
 66
     1
 40
0.000000
 41
0.000000
  0
VERTEX
  8
0
  6
CONTINUOUS
 10
4.712400
 20
3.940200
  0
VERTEX
  8
0
  6
CONTINUOUS
 10
4.721640
 20
4.688200
  0
VERTEX
  8
0
  6
CONTINUOUS
 10
4.788960
 20
4.692600
  0
VERTEX
  8
0
  6
CONTINUOUS
 10
4.779280
 20
3.944600
  0
VERTEX
  8
0
  6
CONTINUOUS
 10
4.712400
 20
3.940200
  0
SEQEND
  8
0
  0
SOLID
  8
0
 62
    15
 10
4.779280
 20
3.944600
 11
4.788960
 21
4.692600
 12
4.840000
 22
3.947680
 13
4.849240
 23
4.695680
  0
POLYLINE
  8
0
  6
CONTINUOUS
 66
     1
 40
0.000000
 41
0.000000
  0
VERTEX
  8
0
  6
CONTINUOUS
 10
4.779280
 20
3.944600
  0
VERTEX
  8
0
  6
CONTINUOUS
 10
4.788960
 20
4.692600
  0
VERTEX
  8
0
  6
CONTINUOUS
 10
4.849240
 20
4.695680
  0
VERTEX
  8
0
  6
CONTINUOUS
 10
4.840000
 20
3.947680
  0
VERTEX
  8
0
  6
CONTINUOUS
 10
4.779280
 20
3.944600
  0
SEQEND
  8
0
  0
SOLID
  8
0
 62
    15
 10
4.840000
 20
3.947680
 11
4.849240
 21
4.695680
 12
4.892800
 22
3.949880
 13
4.902040
 23
4.697880
  0
POLYLINE
  8
0
  6
CONTINUOUS
 66
     1
 40
0.000000
 41
0.000000
  0
VERTEX
  8
0
  6
CONTINUOUS
 10
4.840000
 20
3.947680
  0
VERTEX
  8
0
  6
CONTINUOUS
 10
4.849240
 20
4.695680
  0
VERTEX
  8
0
  6
CONTINUOUS
 10
4.902040
 20
4.697880
  0
VERTEX
  8
0
  6
CONTINUOUS
 10
4.892800
 20
3.949880
  0
VERTEX
  8
0
  6
CONTINUOUS
 10
4.840000
 20
3.947680
  0
SEQEND
  8
0
  0
SOLID
  8
0
 62
    15
 10
4.892800
 20
3.949880
 11
4.902040
 21
4.697880
 12
4.935920
 22
3.951200
 13
4.945160
 23
4.699200
  0
POLYLINE
  8
0
  6
CONTINUOUS
 66
     1
 40
0.000000
 41
0.000000
  0
VERTEX
  8
0
  6
CONTINUOUS
 10
4.892800
 20
3.949880
  0
VERTEX
  8
0
  6
CONTINUOUS
 10
4.902040
 20
4.697880
  0
VERTEX
  8
0
  6
CONTINUOUS
 10
4.945160
 20
4.699200
  0
VERTEX
  8
0
  6
CONTINUOUS
 10
4.935920
 20
3.951200
  0
VERTEX
  8
0
  6
CONTINUOUS
 10
4.892800
 20
3.949880
  0
SEQEND
  8
0
  0
SOLID
  8
0
 62
    15
 10
4.935920
 20
3.951200
 11
4.945160
 21
4.699200
 12
4.968480
 22
3.951640
 13
4.977720
 23
4.699640
  0
POLYLINE
  8
0
  6
CONTINUOUS
 66
     1
 40
0.000000
 41
0.000000
  0
VERTEX
  8
0
  6
CONTINUOUS
 10
4.935920
 20
3.951200
  0
VERTEX
  8
0
  6
CONTINUOUS
 10
4.945160
 20
4.699200
  0
VERTEX
  8
0
  6
CONTINUOUS
 10
4.977720
 20
4.699640
  0
VERTEX
  8
0
  6
CONTINUOUS
 10
4.968480
 20
3.951640
  0
VERTEX
  8
0
  6
CONTINUOUS
 10
4.935920
 20
3.951200
  0
SEQEND
  8
0
  0
SOLID
  8
0
 62
    15
 10
4.968480
 20
3.952080
 11
4.977720
 21
4.700080
 12
5.001040
 22
3.951200
 13
5.010280
 23
4.699200
  0
POLYLINE
  8
0
  6
CONTINUOUS
 66
     1
 40
0.000000
 41
0.000000
  0
VERTEX
  8
0
  6
CONTINUOUS
 10
4.968480
 20
3.952080
  0
VERTEX
  8
0
  6
CONTINUOUS
 10
4.977720
 20
4.700080
  0
VERTEX
  8
0
  6
CONTINUOUS
 10
5.010280
 20
4.699200
  0
VERTEX
  8
0
  6
CONTINUOUS
 10
5.001040
 20
3.951200
  0
VERTEX
  8
0
  6
CONTINUOUS
 10
4.968480
 20
3.952080
  0
SEQEND
  8
0
  0
SOLID
  8
0
 62
    15
 10
2.707760
 20
3.998720
 11
2.717000
 21
4.746720
 12
3.424080
 22
3.998720
 13
3.433320
 23
4.746720
  0
POLYLINE
  8
0
  6
CONTINUOUS
 66
     1
 40
0.000000
 41
0.000000
  0
VERTEX
  8
0
  6
CONTINUOUS
 10
2.707760
 20
3.998720
  0
VERTEX
  8
0
  6
CONTINUOUS
 10
2.717000
 20
4.746720
  0
VERTEX
  8
0
  6
CONTINUOUS
 10
3.433320
 20
4.746720
  0
VERTEX
  8
0
  6
CONTINUOUS
 10
3.424080
 20
3.998720
  0
VERTEX
  8
0
  6
CONTINUOUS
 10
2.707760
 20
3.998720
  0
SEQEND
  8
0
  0
SOLID
  8
0
 62
    15
 10
5.044600
 20
3.950320
 11
5.053840
 21
4.697880
 12
5.097400
 22
3.948120
 13
5.106640
 23
4.695680
  0
POLYLINE
  8
0
  6
CONTINUOUS
 66
     1
 40
0.000000
 41
0.000000
  0
VERTEX
  8
0
  6
CONTINUOUS
 10
5.044600
 20
3.950320
  0
VERTEX
  8
0
  6
CONTINUOUS
 10
5.053840
 20
4.697880
  0
VERTEX
  8
0
  6
CONTINUOUS
 10
5.106640
 20
4.695680
  0
VERTEX
  8
0
  6
CONTINUOUS
 10
5.097400
 20
3.948120
  0
VERTEX
  8
0
  6
CONTINUOUS
 10
5.044600
 20
3.950320
  0
SEQEND
  8
0
  0
SOLID
  8
0
 62
    15
 10
5.097400
 20
3.948120
 11
5.106640
 21
4.695680
 12
5.158120
 22
3.945040
 13
5.167360
 23
4.692600
  0
POLYLINE
  8
0
  6
CONTINUOUS
 66
     1
 40
0.000000
 41
0.000000
  0
VERTEX
  8
0
  6
CONTINUOUS
 10
5.097400
 20
3.948120
  0
VERTEX
  8
0
  6
CONTINUOUS
 10
5.106640
 20
4.695680
  0
VERTEX
  8
0
  6
CONTINUOUS
 10
5.167360
 20
4.692600
  0
VERTEX
  8
0
  6
CONTINUOUS
 10
5.158120
 20
3.945040
  0
VERTEX
  8
0
  6
CONTINUOUS
 10
5.097400
 20
3.948120
  0
SEQEND
  8
0
  0
SOLID
  8
0
 62
    15
 10
5.158120
 20
3.945040
 11
5.167360
 21
4.692600
 12
5.225000
 22
3.940640
 13
5.234240
 23
4.688640
  0
POLYLINE
  8
0
  6
CONTINUOUS
 66
     1
 40
0.000000
 41
0.000000
  0
VERTEX
  8
0
  6
CONTINUOUS
 10
5.158120
 20
3.945040
  0
VERTEX
  8
0
  6
CONTINUOUS
 10
5.167360
 20
4.692600
  0
VERTEX
  8
0
  6
CONTINUOUS
 10
5.234240
 20
4.688640
  0
VERTEX
  8
0
  6
CONTINUOUS
 10
5.225000
 20
3.940640
  0
VERTEX
  8
0
  6
CONTINUOUS
 10
5.158120
 20
3.945040
  0
SEQEND
  8
0
  0
SOLID
  8
0
 62
    15
 10
5.225000
 20
3.940640
 11
5.234240
 21
4.688640
 12
5.296720
 22
3.934920
 13
5.305960
 23
4.682920
  0
POLYLINE
  8
0
  6
CONTINUOUS
 66
     1
 40
0.000000
 41
0.000000
  0
VERTEX
  8
0
  6
CONTINUOUS
 10
5.225000
 20
3.940640
  0
VERTEX
  8
0
  6
CONTINUOUS
 10
5.234240
 20
4.688640
  0
VERTEX
  8
0
  6
CONTINUOUS
 10
5.305960
 20
4.682920
  0
VERTEX
  8
0
  6
CONTINUOUS
 10
5.296720
 20
3.934920
  0
VERTEX
  8
0
  6
CONTINUOUS
 10
5.225000
 20
3.940640
  0
SEQEND
  8
0
  0
SOLID
  8
0
 62
    15
 10
5.296720
 20
3.934920
 11
5.305960
 21
4.682920
 12
5.448080
 22
3.919520
 13
5.457320
 23
4.667080
  0
POLYLINE
  8
0
  6
CONTINUOUS
 66
     1
 40
0.000000
 41
0.000000
  0
VERTEX
  8
0
  6
CONTINUOUS
 10
5.296720
 20
3.934920
  0
VERTEX
  8
0
  6
CONTINUOUS
 10
5.305960
 20
4.682920
  0
VERTEX
  8
0
  6
CONTINUOUS
 10
5.457320
 20
4.667080
  0
VERTEX
  8
0
  6
CONTINUOUS
 10
5.448080
 20
3.919520
  0
VERTEX
  8
0
  6
CONTINUOUS
 10
5.296720
 20
3.934920
  0
SEQEND
  8
0
  0
SOLID
  8
0
 62
    15
 10
5.448080
 20
3.919520
 11
5.457320
 21
4.667080
 12
5.599440
 22
3.896640
 13
5.608680
 23
4.644640
  0
POLYLINE
  8
0
  6
CONTINUOUS
 66
     1
 40
0.000000
 41
0.000000
  0
VERTEX
  8
0
  6
CONTINUOUS
 10
5.448080
 20
3.919520
  0
VERTEX
  8
0
  6
CONTINUOUS
 10
5.457320
 20
4.667080
  0
VERTEX
  8
0
  6
CONTINUOUS
 10
5.608680
 20
4.644640
  0
VERTEX
  8
0
  6
CONTINUOUS
 10
5.599440
 20
3.896640
  0
VERTEX
  8
0
  6
CONTINUOUS
 10
5.448080
 20
3.919520
  0
SEQEND
  8
0
  0
SOLID
  8
0
 62
    15
 10
5.599440
 20
3.896640
 11
5.608680
 21
4.644640
 12
5.671600
 22
3.882560
 13
5.680840
 23
4.630560
  0
POLYLINE
  8
0
  6
CONTINUOUS
 66
     1
 40
0.000000
 41
0.000000
  0
VERTEX
  8
0
  6
CONTINUOUS
 10
5.599440
 20
3.896640
  0
VERTEX
  8
0
  6
CONTINUOUS
 10
5.608680
 20
4.644640
  0
VERTEX
  8
0
  6
CONTINUOUS
 10
5.680840
 20
4.630560
  0
VERTEX
  8
0
  6
CONTINUOUS
 10
5.671600
 20
3.882560
  0
VERTEX
  8
0
  6
CONTINUOUS
 10
5.599440
 20
3.896640
  0
SEQEND
  8
0
  0
SOLID
  8
0
 62
    15
 10
5.671600
 20
3.882560
 11
5.680840
 21
4.630560
 12
5.738920
 22
3.865840
 13
5.748600
 23
4.613840
  0
POLYLINE
  8
0
  6
CONTINUOUS
 66
     1
 40
0.000000
 41
0.000000
  0
VERTEX
  8
0
  6
CONTINUOUS
 10
5.671600
 20
3.882560
  0
VERTEX
  8
0
  6
CONTINUOUS
 10
5.680840
 20
4.630560
  0
VERTEX
  8
0
  6
CONTINUOUS
 10
5.748600
 20
4.613840
  0
VERTEX
  8
0
  6
CONTINUOUS
 10
5.738920
 20
3.865840
  0
VERTEX
  8
0
  6
CONTINUOUS
 10
5.671600
 20
3.882560
  0
SEQEND
  8
0
  0
SOLID
  8
0
 62
    15
 10
5.738920
 20
3.865840
 11
5.748600
 21
4.613840
 12
5.800520
 22
3.846920
 13
5.809760
 23
4.594920
  0
POLYLINE
  8
0
  6
CONTINUOUS
 66
     1
 40
0.000000
 41
0.000000
  0
VERTEX
  8
0
  6
CONTINUOUS
 10
5.738920
 20
3.865840
  0
VERTEX
  8
0
  6
CONTINUOUS
 10
5.748600
 20
4.613840
  0
VERTEX
  8
0
  6
CONTINUOUS
 10
5.809760
 20
4.594920
  0
VERTEX
  8
0
  6
CONTINUOUS
 10
5.800520
 20
3.846920
  0
VERTEX
  8
0
  6
CONTINUOUS
 10
5.738920
 20
3.865840
  0
SEQEND
  8
0
  0
SOLID
  8
0
 62
    15
 10
5.800520
 20
3.846920
 11
5.809760
 21
4.594920
 12
5.854200
 22
3.825800
 13
5.863880
 23
4.573800
  0
POLYLINE
  8
0
  6
CONTINUOUS
 66
     1
 40
0.000000
 41
0.000000
  0
VERTEX
  8
0
  6
CONTINUOUS
 10
5.800520
 20
3.846920
  0
VERTEX
  8
0
  6
CONTINUOUS
 10
5.809760
 20
4.594920
  0
VERTEX
  8
0
  6
CONTINUOUS
 10
5.863880
 20
4.573800
  0
VERTEX
  8
0
  6
CONTINUOUS
 10
5.854200
 20
3.825800
  0
VERTEX
  8
0
  6
CONTINUOUS
 10
5.800520
 20
3.846920
  0
SEQEND
  8
0
  0
SOLID
  8
0
 62
    15
 10
5.854200
 20
3.825800
 11
5.863880
 21
4.573800
 12
5.899080
 22
3.801600
 13
5.908320
 23
4.549600
  0
POLYLINE
  8
0
  6
CONTINUOUS
 66
     1
 40
0.000000
 41
0.000000
  0
VERTEX
  8
0
  6
CONTINUOUS
 10
5.854200
 20
3.825800
  0
VERTEX
  8
0
  6
CONTINUOUS
 10
5.863880
 20
4.573800
  0
VERTEX
  8
0
  6
CONTINUOUS
 10
5.908320
 20
4.549600
  0
VERTEX
  8
0
  6
CONTINUOUS
 10
5.899080
 20
3.801600
  0
VERTEX
  8
0
  6
CONTINUOUS
 10
5.854200
 20
3.825800
  0
SEQEND
  8
0
  0
SOLID
  8
0
 62
    15
 10
5.899080
 20
3.801600
 11
5.908320
 21
4.549600
 12
5.933400
 22
3.775200
 13
5.942640
 23
4.523200
  0
POLYLINE
  8
0
  6
CONTINUOUS
 66
     1
 40
0.000000
 41
0.000000
  0
VERTEX
  8
0
  6
CONTINUOUS
 10
5.899080
 20
3.801600
  0
VERTEX
  8
0
  6
CONTINUOUS
 10
5.908320
 20
4.549600
  0
VERTEX
  8
0
  6
CONTINUOUS
 10
5.942640
 20
4.523200
  0
VERTEX
  8
0
  6
CONTINUOUS
 10
5.933400
 20
3.775200
  0
VERTEX
  8
0
  6
CONTINUOUS
 10
5.899080
 20
3.801600
  0
SEQEND
  8
0
  0
SOLID
  8
0
 62
    15
 10
5.933400
 20
3.775200
 11
5.942640
 21
4.523200
 12
5.958920
 22
3.775200
 13
5.968600
 23
4.523200
  0
POLYLINE
  8
0
  6
CONTINUOUS
 66
     1
 40
0.000000
 41
0.000000
  0
VERTEX
  8
0
  6
CONTINUOUS
 10
5.933400
 20
3.775200
  0
VERTEX
  8
0
  6
CONTINUOUS
 10
5.942640
 20
4.523200
  0
VERTEX
  8
0
  6
CONTINUOUS
 10
5.968600
 20
4.523200
  0
VERTEX
  8
0
  6
CONTINUOUS
 10
5.958920
 20
3.775200
  0
VERTEX
  8
0
  6
CONTINUOUS
 10
5.933400
 20
3.775200
  0
SEQEND
  8
0
  0
SOLID
  8
0
 62
    15
 10
5.958920
 20
3.775200
 11
5.968600
 21
4.523200
 12
5.968160
 22
3.800720
 13
5.977400
 23
4.548720
  0
POLYLINE
  8
0
  6
CONTINUOUS
 66
     1
 40
0.000000
 41
0.000000
  0
VERTEX
  8
0
  6
CONTINUOUS
 10
5.958920
 20
3.775200
  0
VERTEX
  8
0
  6
CONTINUOUS
 10
5.968600
 20
4.523200
  0
VERTEX
  8
0
  6
CONTINUOUS
 10
5.977400
 20
4.548720
  0
VERTEX
  8
0
  6
CONTINUOUS
 10
5.968160
 20
3.800720
  0
VERTEX
  8
0
  6
CONTINUOUS
 10
5.958920
 20
3.775200
  0
SEQEND
  8
0
  0
SOLID
  8
0
 62
    15
 10
5.968160
 20
3.800720
 11
5.977400
 21
4.548720
 12
5.983120
 22
3.821840
 13
5.992360
 23
4.569840
  0
POLYLINE
  8
0
  6
CONTINUOUS
 66
     1
 40
0.000000
 41
0.000000
  0
VERTEX
  8
0
  6
CONTINUOUS
 10
5.968160
 20
3.800720
  0
VERTEX
  8
0
  6
CONTINUOUS
 10
5.977400
 20
4.548720
  0
VERTEX
  8
0
  6
CONTINUOUS
 10
5.992360
 20
4.569840
  0
VERTEX
  8
0
  6
CONTINUOUS
 10
5.983120
 20
3.821840
  0
VERTEX
  8
0
  6
CONTINUOUS
 10
5.968160
 20
3.800720
  0
SEQEND
  8
0
  0
SOLID
  8
0
 62
    15
 10
5.983120
 20
3.821840
 11
5.992360
 21
4.569840
 12
6.002920
 22
3.838560
 13
6.012160
 23
4.586560
  0
POLYLINE
  8
0
  6
CONTINUOUS
 66
     1
 40
0.000000
 41
0.000000
  0
VERTEX
  8
0
  6
CONTINUOUS
 10
5.983120
 20
3.821840
  0
VERTEX
  8
0
  6
CONTINUOUS
 10
5.992360
 20
4.569840
  0
VERTEX
  8
0
  6
CONTINUOUS
 10
6.012160
 20
4.586560
  0
VERTEX
  8
0
  6
CONTINUOUS
 10
6.002920
 20
3.838560
  0
VERTEX
  8
0
  6
CONTINUOUS
 10
5.983120
 20
3.821840
  0
SEQEND
  8
0
  0
SOLID
  8
0
 62
    15
 10
6.002920
 20
3.838560
 11
6.012160
 21
4.586560
 12
6.027120
 22
3.851760
 13
6.036360
 23
4.599760
  0
POLYLINE
  8
0
  6
CONTINUOUS
 66
     1
 40
0.000000
 41
0.000000
  0
VERTEX
  8
0
  6
CONTINUOUS
 10
6.002920
 20
3.838560
  0
VERTEX
  8
0
  6
CONTINUOUS
 10
6.012160
 20
4.586560
  0
VERTEX
  8
0
  6
CONTINUOUS
 10
6.036360
 20
4.599760
  0
VERTEX
  8
0
  6
CONTINUOUS
 10
6.027120
 20
3.851760
  0
VERTEX
  8
0
  6
CONTINUOUS
 10
6.002920
 20
3.838560
  0
SEQEND
  8
0
  0
SOLID
  8
0
 62
    15
 10
6.027120
 20
3.851760
 11
6.036360
 21
4.599760
 12
6.084760
 22
3.869360
 13
6.094000
 23
4.616920
  0
POLYLINE
  8
0
  6
CONTINUOUS
 66
     1
 40
0.000000
 41
0.000000
  0
VERTEX
  8
0
  6
CONTINUOUS
 10
6.027120
 20
3.851760
  0
VERTEX
  8
0
  6
CONTINUOUS
 10
6.036360
 20
4.599760
  0
VERTEX
  8
0
  6
CONTINUOUS
 10
6.094000
 20
4.616920
  0
VERTEX
  8
0
  6
CONTINUOUS
 10
6.084760
 20
3.869360
  0
VERTEX
  8
0
  6
CONTINUOUS
 10
6.027120
 20
3.851760
  0
SEQEND
  8
0
  0
SOLID
  8
0
 62
    15
 10
6.084760
 20
3.869360
 11
6.094000
 21
4.616920
 12
6.150760
 22
3.878160
 13
6.160000
 23
4.626160
  0
POLYLINE
  8
0
  6
CONTINUOUS
 66
     1
 40
0.000000
 41
0.000000
  0
VERTEX
  8
0
  6
CONTINUOUS
 10
6.084760
 20
3.869360
  0
VERTEX
  8
0
  6
CONTINUOUS
 10
6.094000
 20
4.616920
  0
VERTEX
  8
0
  6
CONTINUOUS
 10
6.160000
 20
4.626160
  0
VERTEX
  8
0
  6
CONTINUOUS
 10
6.150760
 20
3.878160
  0
VERTEX
  8
0
  6
CONTINUOUS
 10
6.084760
 20
3.869360
  0
SEQEND
  8
0
  0
SOLID
  8
0
 62
    15
 10
6.150760
 20
3.878160
 11
6.160000
 21
4.626160
 12
6.283200
 22
3.887840
 13
6.292440
 23
4.635840
  0
POLYLINE
  8
0
  6
CONTINUOUS
 66
     1
 40
0.000000
 41
0.000000
  0
VERTEX
  8
0
  6
CONTINUOUS
 10
6.150760
 20
3.878160
  0
VERTEX
  8
0
  6
CONTINUOUS
 10
6.160000
 20
4.626160
  0
VERTEX
  8
0
  6
CONTINUOUS
 10
6.292440
 20
4.635840
  0
VERTEX
  8
0
  6
CONTINUOUS
 10
6.283200
 20
3.887840
  0
VERTEX
  8
0
  6
CONTINUOUS
 10
6.150760
 20
3.878160
  0
SEQEND
  8
0
  0
SOLID
  8
0
 62
    15
 10
6.283200
 20
3.887840
 11
6.292440
 21
4.635840
 12
6.338200
 22
3.896640
 13
6.347440
 23
4.644640
  0
POLYLINE
  8
0
  6
CONTINUOUS
 66
     1
 40
0.000000
 41
0.000000
  0
VERTEX
  8
0
  6
CONTINUOUS
 10
6.283200
 20
3.887840
  0
VERTEX
  8
0
  6
CONTINUOUS
 10
6.292440
 20
4.635840
  0
VERTEX
  8
0
  6
CONTINUOUS
 10
6.347440
 20
4.644640
  0
VERTEX
  8
0
  6
CONTINUOUS
 10
6.338200
 20
3.896640
  0
VERTEX
  8
0
  6
CONTINUOUS
 10
6.283200
 20
3.887840
  0
SEQEND
  8
0
  0
SOLID
  8
0
 62
    15
 10
6.338200
 20
3.896640
 11
6.347440
 21
4.644640
 12
6.360200
 22
3.904120
 13
6.369440
 23
4.651680
  0
POLYLINE
  8
0
  6
CONTINUOUS
 66
     1
 40
0.000000
 41
0.000000
  0
VERTEX
  8
0
  6
CONTINUOUS
 10
6.338200
 20
3.896640
  0
VERTEX
  8
0
  6
CONTINUOUS
 10
6.347440
 20
4.644640
  0
VERTEX
  8
0
  6
CONTINUOUS
 10
6.369440
 20
4.651680
  0
VERTEX
  8
0
  6
CONTINUOUS
 10
6.360200
 20
3.904120
  0
VERTEX
  8
0
  6
CONTINUOUS
 10
6.338200
 20
3.896640
  0
SEQEND
  8
0
  0
SOLID
  8
0
 62
    15
 10
6.360200
 20
3.904120
 11
6.369440
 21
4.651680
 12
6.377360
 22
3.913800
 13
6.386600
 23
4.661800
  0
POLYLINE
  8
0
  6
CONTINUOUS
 66
     1
 40
0.000000
 41
0.000000
  0
VERTEX
  8
0
  6
CONTINUOUS
 10
6.360200
 20
3.904120
  0
VERTEX
  8
0
  6
CONTINUOUS
 10
6.369440
 20
4.651680
  0
VERTEX
  8
0
  6
CONTINUOUS
 10
6.386600
 20
4.661800
  0
VERTEX
  8
0
  6
CONTINUOUS
 10
6.377360
 20
3.913800
  0
VERTEX
  8
0
  6
CONTINUOUS
 10
6.360200
 20
3.904120
  0
SEQEND
  8
0
  0
SOLID
  8
0
 62
    15
 10
6.377360
 20
3.913800
 11
6.386600
 21
4.661800
 12
6.402440
 22
3.934920
 13
6.412120
 23
4.682480
  0
POLYLINE
  8
0
  6
CONTINUOUS
 66
     1
 40
0.000000
 41
0.000000
  0
VERTEX
  8
0
  6
CONTINUOUS
 10
6.377360
 20
3.913800
  0
VERTEX
  8
0
  6
CONTINUOUS
 10
6.386600
 20
4.661800
  0
VERTEX
  8
0
  6
CONTINUOUS
 10
6.412120
 20
4.682480
  0
VERTEX
  8
0
  6
CONTINUOUS
 10
6.402440
 20
3.934920
  0
VERTEX
  8
0
  6
CONTINUOUS
 10
6.377360
 20
3.913800
  0
SEQEND
  8
0
  0
SOLID
  8
0
 62
    15
 10
6.402440
 20
3.934920
 11
6.412120
 21
4.682480
 12
6.421360
 22
3.952520
 13
6.430600
 23
4.700520
  0
POLYLINE
  8
0
  6
CONTINUOUS
 66
     1
 40
0.000000
 41
0.000000
  0
VERTEX
  8
0
  6
CONTINUOUS
 10
6.402440
 20
3.934920
  0
VERTEX
  8
0
  6
CONTINUOUS
 10
6.412120
 20
4.682480
  0
VERTEX
  8
0
  6
CONTINUOUS
 10
6.430600
 20
4.700520
  0
VERTEX
  8
0
  6
CONTINUOUS
 10
6.421360
 20
3.952520
  0
VERTEX
  8
0
  6
CONTINUOUS
 10
6.402440
 20
3.934920
  0
SEQEND
  8
0
  0
SOLID
  8
0
 62
    15
 10
6.421360
 20
3.952520
 11
6.430600
 21
4.700520
 12
6.435440
 22
3.967040
 13
6.444680
 23
4.715040
  0
POLYLINE
  8
0
  6
CONTINUOUS
 66
     1
 40
0.000000
 41
0.000000
  0
VERTEX
  8
0
  6
CONTINUOUS
 10
6.421360
 20
3.952520
  0
VERTEX
  8
0
  6
CONTINUOUS
 10
6.430600
 20
4.700520
  0
VERTEX
  8
0
  6
CONTINUOUS
 10
6.444680
 20
4.715040
  0
VERTEX
  8
0
  6
CONTINUOUS
 10
6.435440
 20
3.967040
  0
VERTEX
  8
0
  6
CONTINUOUS
 10
6.421360
 20
3.952520
  0
SEQEND
  8
0
  0
SOLID
  8
0
 62
    15
 10
6.435440
 20
3.967040
 11
6.444680
 21
4.715040
 12
6.446880
 22
3.978920
 13
6.456120
 23
4.726920
  0
POLYLINE
  8
0
  6
CONTINUOUS
 66
     1
 40
0.000000
 41
0.000000
  0
VERTEX
  8
0
  6
CONTINUOUS
 10
6.435440
 20
3.967040
  0
VERTEX
  8
0
  6
CONTINUOUS
 10
6.444680
 20
4.715040
  0
VERTEX
  8
0
  6
CONTINUOUS
 10
6.456120
 20
4.726920
  0
VERTEX
  8
0
  6
CONTINUOUS
 10
6.446880
 20
3.978920
  0
VERTEX
  8
0
  6
CONTINUOUS
 10
6.435440
 20
3.967040
  0
SEQEND
  8
0
  0
SOLID
  8
0
 62
    15
 10
6.446880
 20
3.978920
 11
6.456120
 21
4.726920
 12
6.471080
 22
3.994320
 13
6.480320
 23
4.742320
  0
POLYLINE
  8
0
  6
CONTINUOUS
 66
     1
 40
0.000000
 41
0.000000
  0
VERTEX
  8
0
  6
CONTINUOUS
 10
6.446880
 20
3.978920
  0
VERTEX
  8
0
  6
CONTINUOUS
 10
6.456120
 20
4.726920
  0
VERTEX
  8
0
  6
CONTINUOUS
 10
6.480320
 20
4.742320
  0
VERTEX
  8
0
  6
CONTINUOUS
 10
6.471080
 20
3.994320
  0
VERTEX
  8
0
  6
CONTINUOUS
 10
6.446880
 20
3.978920
  0
SEQEND
  8
0
  0
SOLID
  8
0
 62
    15
 10
6.471080
 20
3.994320
 11
6.480320
 21
4.742320
 12
6.488240
 22
3.997840
 13
6.497480
 23
4.745840
  0
POLYLINE
  8
0
  6
CONTINUOUS
 66
     1
 40
0.000000
 41
0.000000
  0
VERTEX
  8
0
  6
CONTINUOUS
 10
6.471080
 20
3.994320
  0
VERTEX
  8
0
  6
CONTINUOUS
 10
6.480320
 20
4.742320
  0
VERTEX
  8
0
  6
CONTINUOUS
 10
6.497480
 20
4.745840
  0
VERTEX
  8
0
  6
CONTINUOUS
 10
6.488240
 20
3.997840
  0
VERTEX
  8
0
  6
CONTINUOUS
 10
6.471080
 20
3.994320
  0
SEQEND
  8
0
  0
SOLID
  8
0
 62
    15
 10
6.488240
 20
3.997840
 11
6.497480
 21
4.745840
 12
6.511120
 22
3.999160
 13
6.520800
 23
4.747160
  0
POLYLINE
  8
0
  6
CONTINUOUS
 66
     1
 40
0.000000
 41
0.000000
  0
VERTEX
  8
0
  6
CONTINUOUS
 10
6.488240
 20
3.997840
  0
VERTEX
  8
0
  6
CONTINUOUS
 10
6.497480
 20
4.745840
  0
VERTEX
  8
0
  6
CONTINUOUS
 10
6.520800
 20
4.747160
  0
VERTEX
  8
0
  6
CONTINUOUS
 10
6.511120
 20
3.999160
  0
VERTEX
  8
0
  6
CONTINUOUS
 10
6.488240
 20
3.997840
  0
SEQEND
  8
0
  0
SOLID
  8
0
 62
    15
 10
6.511120
 20
3.999160
 11
6.520800
 21
4.747160
 12
7.227440
 22
3.999160
 13
7.236680
 23
4.747160
  0
POLYLINE
  8
0
  6
CONTINUOUS
 66
     1
 40
0.000000
 41
0.000000
  0
VERTEX
  8
0
  6
CONTINUOUS
 10
6.511120
 20
3.999160
  0
VERTEX
  8
0
  6
CONTINUOUS
 10
6.520800
 20
4.747160
  0
VERTEX
  8
0
  6
CONTINUOUS
 10
7.236680
 20
4.747160
  0
VERTEX
  8
0
  6
CONTINUOUS
 10
7.227440
 20
3.999160
  0
VERTEX
  8
0
  6
CONTINUOUS
 10
6.511120
 20
3.999160
  0
SEQEND
  8
0
  0
SOLID
  8
0
 62
    15
 10
7.228320
 20
3.999160
 11
7.238000
 21
4.747160
 12
7.228320
 22
3.192200
 13
7.238000
 23
3.940200
  0
POLYLINE
  8
0
  6
CONTINUOUS
 66
     1
 40
0.000000
 41
0.000000
  0
VERTEX
  8
0
  6
CONTINUOUS
 10
7.228320
 20
3.999160
  0
VERTEX
  8
0
  6
CONTINUOUS
 10
7.238000
 20
4.747160
  0
VERTEX
  8
0
  6
CONTINUOUS
 10
7.238000
 20
3.940200
  0
VERTEX
  8
0
  6
CONTINUOUS
 10
7.228320
 20
3.192200
  0
VERTEX
  8
0
  6
CONTINUOUS
 10
7.228320
 20
3.999160
  0
SEQEND
  8
0
  0
SOLID
  8
0
 62
    15
 10
7.227440
 20
3.999160
 11
7.236680
 21
4.747160
 12
7.228320
 22
3.999160
 13
7.238000
 23
4.747160
  0
POLYLINE
  8
0
  6
CONTINUOUS
 66
     1
 40
0.000000
 41
0.000000
  0
VERTEX
  8
0
  6
CONTINUOUS
 10
7.227440
 20
3.999160
  0
VERTEX
  8
0
  6
CONTINUOUS
 10
7.236680
 20
4.747160
  0
VERTEX
  8
0
  6
CONTINUOUS
 10
7.238000
 20
4.747160
  0
VERTEX
  8
0
  6
CONTINUOUS
 10
7.228320
 20
3.999160
  0
VERTEX
  8
0
  6
CONTINUOUS
 10
7.227440
 20
3.999160
  0
SEQEND
  8
0
  0
POLYLINE
  8
0
  6
CONTINUOUS
 66
     1
 40
0.000000
 41
0.000000
  0
VERTEX
  8
0
  6
CONTINUOUS
 10
6.854320
 20
3.191320
  0
VERTEX
  8
0
  6
CONTINUOUS
 10
2.707760
 20
3.191320
  0
VERTEX
  8
0
  6
CONTINUOUS
 10
2.707760
 20
3.998720
  0
VERTEX
  8
0
  6
CONTINUOUS
 10
3.424080
 20
3.998720
  0
VERTEX
  8
0
  6
CONTINUOUS
 10
3.446960
 20
3.997840
  0
VERTEX
  8
0
  6
CONTINUOUS
 10
3.464120
 20
3.993880
  0
VERTEX
  8
0
  6
CONTINUOUS
 10
3.488320
 20
3.978480
  0
VERTEX
  8
0
  6
CONTINUOUS
 10
3.532760
 20
3.934480
  0
VERTEX
  8
0
  6
CONTINUOUS
 10
3.558280
 20
3.913360
  0
VERTEX
  8
0
  6
CONTINUOUS
 10
3.575440
 20
3.903680
  0
VERTEX
  8
0
  6
CONTINUOUS
 10
3.597000
 20
3.896200
  0
VERTEX
  8
0
  6
CONTINUOUS
 10
3.652000
 20
3.887400
  0
VERTEX
  8
0
  6
CONTINUOUS
 10
3.784440
 20
3.877720
  0
VERTEX
  8
0
  6
CONTINUOUS
 10
3.850440
 20
3.868920
  0
VERTEX
  8
0
  6
CONTINUOUS
 10
3.908520
 20
3.851320
  0
VERTEX
  8
0
  6
CONTINUOUS
 10
3.932280
 20
3.838120
  0
VERTEX
  8
0
  6
CONTINUOUS
 10
3.952080
 20
3.821400
  0
VERTEX
  8
0
  6
CONTINUOUS
 10
3.967040
 20
3.800280
  0
VERTEX
  8
0
  6
CONTINUOUS
 10
3.976280
 20
3.774760
  0
VERTEX
  8
0
  6
CONTINUOUS
 10
4.002240
 20
3.774760
  0
VERTEX
  8
0
  6
CONTINUOUS
 10
4.036120
 20
3.801600
  0
VERTEX
  8
0
  6
CONTINUOUS
 10
4.081440
 20
3.825360
  0
VERTEX
  8
0
  6
CONTINUOUS
 10
4.135120
 20
3.846920
  0
VERTEX
  8
0
  6
CONTINUOUS
 10
4.197160
 20
3.865840
  0
VERTEX
  8
0
  6
CONTINUOUS
 10
4.264920
 20
3.882120
  0
VERTEX
  8
0
  6
CONTINUOUS
 10
4.337080
 20
3.896640
  0
VERTEX
  8
0
  6
CONTINUOUS
 10
4.489320
 20
3.919080
  0
VERTEX
  8
0
  6
CONTINUOUS
 10
4.640680
 20
3.934920
  0
VERTEX
  8
0
  6
CONTINUOUS
 10
4.779280
 20
3.944600
  0
VERTEX
  8
0
  6
CONTINUOUS
 10
4.935920
 20
3.951200
  0
VERTEX
  8
0
  6
CONTINUOUS
 10
4.968480
 20
3.952080
  0
VERTEX
  8
0
  6
CONTINUOUS
 10
5.097400
 20
3.948120
  0
VERTEX
  8
0
  6
CONTINUOUS
 10
5.225000
 20
3.940640
  0
VERTEX
  8
0
  6
CONTINUOUS
 10
5.296720
 20
3.934920
  0
VERTEX
  8
0
  6
CONTINUOUS
 10
5.448080
 20
3.919520
  0
VERTEX
  8
0
  6
CONTINUOUS
 10
5.599440
 20
3.896640
  0
VERTEX
  8
0
  6
CONTINUOUS
 10
5.671600
 20
3.882560
  0
VERTEX
  8
0
  6
CONTINUOUS
 10
5.738920
 20
3.865840
  0
VERTEX
  8
0
  6
CONTINUOUS
 10
5.800520
 20
3.846920
  0
VERTEX
  8
0
  6
CONTINUOUS
 10
5.854200
 20
3.825800
  0
VERTEX
  8
0
  6
CONTINUOUS
 10
5.899080
 20
3.801600
  0
VERTEX
  8
0
  6
CONTINUOUS
 10
5.933400
 20
3.775200
  0
VERTEX
  8
0
  6
CONTINUOUS
 10
5.958920
 20
3.775200
  0
VERTEX
  8
0
  6
CONTINUOUS
 10
5.968160
 20
3.800720
  0
VERTEX
  8
0
  6
CONTINUOUS
 10
5.983120
 20
3.821840
  0
VERTEX
  8
0
  6
CONTINUOUS
 10
6.002920
 20
3.838560
  0
VERTEX
  8
0
  6
CONTINUOUS
 10
6.027120
 20
3.851760
  0
VERTEX
  8
0
  6
CONTINUOUS
 10
6.084760
 20
3.869360
  0
VERTEX
  8
0
  6
CONTINUOUS
 10
6.150760
 20
3.878160
  0
VERTEX
  8
0
  6
CONTINUOUS
 10
6.283200
 20
3.887840
  0
VERTEX
  8
0
  6
CONTINUOUS
 10
6.338200
 20
3.896640
  0
VERTEX
  8
0
  6
CONTINUOUS
 10
6.360200
 20
3.904120
  0
VERTEX
  8
0
  6
CONTINUOUS
 10
6.377360
 20
3.913800
  0
VERTEX
  8
0
  6
CONTINUOUS
 10
6.421360
 20
3.952520
  0
VERTEX
  8
0
  6
CONTINUOUS
 10
6.446880
 20
3.978920
  0
VERTEX
  8
0
  6
CONTINUOUS
 10
6.471080
 20
3.994320
  0
VERTEX
  8
0
  6
CONTINUOUS
 10
6.488240
 20
3.997840
  0
VERTEX
  8
0
  6
CONTINUOUS
 10
6.511120
 20
3.999160
  0
VERTEX
  8
0
  6
CONTINUOUS
 10
7.228320
 20
3.999160
  0
VERTEX
  8
0
  6
CONTINUOUS
 10
7.228320
 20
3.192200
  0
VERTEX
  8
0
  6
CONTINUOUS
 10
6.857840
 20
3.192200
  0
VERTEX
  8
0
  6
CONTINUOUS
 10
6.854320
 20
3.191320
  0
SEQEND
  8
0
  0
TEXT
  8
0
 10
4.632320
 20
2.917200
 40
0.138045
  1
BA  1134
 41
1.000000
  7
SN0
 71
     0
 72
     5
 11
5.315762
 21
2.917200
  0
TEXT
  8
0
 10
4.430360
 20
2.725360
 40
0.138045
  1
13/16" x 4-1/2"
 41
1.000000
  7
SN0
 71
     0
 72
     5
 11
5.517349
 21
2.725360
  0
POLYLINE
  8
0
  6
CONTINUOUS
 66
     1
 40
0.014080
 41
0.014080
  0
VERTEX
  8
0
  6
CONTINUOUS
 10
6.859160
 20
5.115440
  0
VERTEX
  8
0
  6
CONTINUOUS
 10
2.712600
 20
5.115440
  0
VERTEX
  8
0
  6
CONTINUOUS
 10
2.712600
 20
5.923280
  0
VERTEX
  8
0
  6
CONTINUOUS
 10
3.441240
 20
5.922840
  0
VERTEX
  8
0
  6
CONTINUOUS
 10
3.461040
 20
5.920640
  0
VERTEX
  8
0
  6
CONTINUOUS
 10
3.475560
 20
5.915360
  0
VERTEX
  8
0
  6
CONTINUOUS
 10
3.493160
 20
5.903040
  0
VERTEX
  8
0
  6
CONTINUOUS
 10
3.537160
 20
5.858600
  0
VERTEX
  8
0
  6
CONTINUOUS
 10
3.570600
 20
5.832200
  0
VERTEX
  8
0
  6
CONTINUOUS
 10
3.601840
 20
5.820320
  0
VERTEX
  8
0
  6
CONTINUOUS
 10
3.656840
 20
5.811520
  0
VERTEX
  8
0
  6
CONTINUOUS
 10
3.789280
 20
5.802280
  0
VERTEX
  8
0
  6
CONTINUOUS
 10
3.855280
 20
5.793040
  0
VERTEX
  8
0
  6
CONTINUOUS
 10
3.899720
 20
5.781160
  0
VERTEX
  8
0
  6
CONTINUOUS
 10
3.925680
 20
5.769280
  0
VERTEX
  8
0
  6
CONTINUOUS
 10
3.947680
 20
5.754320
  0
VERTEX
  8
0
  6
CONTINUOUS
 10
3.965280
 20
5.735840
  0
VERTEX
  8
0
  6
CONTINUOUS
 10
3.977160
 20
5.712520
  0
VERTEX
  8
0
  6
CONTINUOUS
 10
3.981120
 20
5.698880
  0
VERTEX
  8
0
  6
CONTINUOUS
 10
4.006640
 20
5.698880
  0
VERTEX
  8
0
  6
CONTINUOUS
 10
4.031280
 20
5.719120
  0
VERTEX
  8
0
  6
CONTINUOUS
 10
4.073520
 20
5.744200
  0
VERTEX
  8
0
  6
CONTINUOUS
 10
4.111800
 20
5.760920
  0
VERTEX
  8
0
  6
CONTINUOUS
 10
4.169880
 20
5.780720
  0
VERTEX
  8
0
  6
CONTINUOUS
 10
4.235000
 20
5.798760
  0
VERTEX
  8
0
  6
CONTINUOUS
 10
4.304960
 20
5.813720
  0
VERTEX
  8
0
  6
CONTINUOUS
 10
4.379320
 20
5.827360
  0
VERTEX
  8
0
  6
CONTINUOUS
 10
4.493720
 20
5.843200
  0
VERTEX
  8
0
  6
CONTINUOUS
 10
4.570720
 20
5.852000
  0
VERTEX
  8
0
  6
CONTINUOUS
 10
4.717240
 20
5.864760
  0
VERTEX
  8
0
  6
CONTINUOUS
 10
4.897200
 20
5.874000
  0
VERTEX
  8
0
  6
CONTINUOUS
 10
4.987840
 20
5.876200
  0
VERTEX
  8
0
  6
CONTINUOUS
 10
5.131720
 20
5.870920
  0
VERTEX
  8
0
  6
CONTINUOUS
 10
5.265040
 20
5.862120
  0
VERTEX
  8
0
  6
CONTINUOUS
 10
5.375920
 20
5.852440
  0
VERTEX
  8
0
  6
CONTINUOUS
 10
5.529040
 20
5.833520
  0
VERTEX
  8
0
  6
CONTINUOUS
 10
5.640360
 20
5.814160
  0
VERTEX
  8
0
  6
CONTINUOUS
 10
5.743760
 20
5.790400
  0
VERTEX
  8
0
  6
CONTINUOUS
 10
5.804920
 20
5.771480
  0
VERTEX
  8
0
  6
CONTINUOUS
 10
5.859040
 20
5.749920
  0
VERTEX
  8
0
  6
CONTINUOUS
 10
5.882800
 20
5.738480
  0
VERTEX
  8
0
  6
CONTINUOUS
 10
5.903920
 20
5.726160
  0
VERTEX
  8
0
  6
CONTINUOUS
 10
5.930320
 20
5.706360
  0
VERTEX
  8
0
  6
CONTINUOUS
 10
5.937800
 20
5.699320
  0
VERTEX
  8
0
  6
CONTINUOUS
 10
5.963760
 20
5.699320
  0
VERTEX
  8
0
  6
CONTINUOUS
 10
5.967720
 20
5.712960
  0
VERTEX
  8
0
  6
CONTINUOUS
 10
5.979600
 20
5.735840
  0
VERTEX
  8
0
  6
CONTINUOUS
 10
5.997200
 20
5.754760
  0
VERTEX
  8
0
  6
CONTINUOUS
 10
6.019200
 20
5.769720
  0
VERTEX
  8
0
  6
CONTINUOUS
 10
6.045160
 20
5.781160
  0
VERTEX
  8
0
  6
CONTINUOUS
 10
6.074200
 20
5.789960
  0
VERTEX
  8
0
  6
CONTINUOUS
 10
6.122160
 20
5.798760
  0
VERTEX
  8
0
  6
CONTINUOUS
 10
6.189920
 20
5.805360
  0
VERTEX
  8
0
  6
CONTINUOUS
 10
6.288040
 20
5.811960
  0
VERTEX
  8
0
  6
CONTINUOUS
 10
6.342600
 20
5.820760
  0
VERTEX
  8
0
  6
CONTINUOUS
 10
6.373840
 20
5.832640
  0
VERTEX
  8
0
  6
CONTINUOUS
 10
6.407280
 20
5.859040
  0
VERTEX
  8
0
  6
CONTINUOUS
 10
6.457000
 20
5.907880
  0
VERTEX
  8
0
  6
CONTINUOUS
 10
6.468880
 20
5.915800
  0
VERTEX
  8
0
  6
CONTINUOUS
 10
6.483840
 20
5.920640
  0
VERTEX
  8
0
  6
CONTINUOUS
 10
6.515960
 20
5.923280
  0
VERTEX
  8
0
  6
CONTINUOUS
 10
7.233160
 20
5.923280
  0
VERTEX
  8
0
  6
CONTINUOUS
 10
7.233160
 20
5.116320
  0
VERTEX
  8
0
  6
CONTINUOUS
 10
6.862680
 20
5.116320
  0
VERTEX
  8
0
  6
CONTINUOUS
 10
6.859160
 20
5.115440
  0
SEQEND
  8
0
  0
TEXT
  8
0
 10
4.632760
 20
5.436200
 40
0.138045
  1
BA  1134
 41
1.000000
  7
SN0
 71
     0
 72
     5
 11
5.316202
 21
5.436200
  0
TEXT
  8
0
 10
4.430800
 20
5.244360
 40
0.138045
  1
13/16" x 4-1/2"
 41
1.000000
  7
SN0
 71
     0
 72
     5
 11
5.517789
 21
5.244360
  0
ENDSEC
  0
EOF
