  0
SECTION
  2
HEADER
  9
$ACADVER
  1
AC1006
  9
$EXTMIN
 10
1.599840
 20
3.551680
  9
$EXTMAX
 10
7.357240
 20
8.701440
  9
$LTSCALE
 40
0.044000
  9
$PDMODE
 70
    35
  9
$PDSIZE
 40
0.035200
  0
ENDSEC
  0
SECTION
  2
TABLES
  0
TABLE
  2
LTYPE
 70
     9
  0
LTYPE
  2
CONTINUOUS
 70
    64
  3
Solid line
 72
    65
 73
     0
 40
0.000000
  0
LTYPE
  2
DASHED
 70
    64
  3
__ __ __ __ __ __ __ __ __ __ __ __ __ __ __
 72
    65
 73
     2
 40
0.000330
 49
0.000220
 49
-0.000110
  0
LTYPE
  2
HIDDEN
 70
    64
  3
 _ _ _ _ _ _ _ _ _ _ _ _ _ _ _ _ _ _ _ _ _ _
 72
    65
 73
     2
 40
0.000165
 49
0.000110
 49
-0.000055
  0
LTYPE
  2
CENTER
 70
    64
  3
____ _ ____ _ ____ _ ____ _ ____ _ ____ _ ____
 72
    65
 73
     4
 40
0.000880
 49
0.000550
 49
-0.000110
 49
0.000110
 49
-0.000110
  0
LTYPE
  2
PHANTOM
 70
    64
  3
_____ _ _ _____ _ _ _____ _ _ _____ _ _ ____
 72
    65
 73
     6
 40
0.001100
 49
0.000550
 49
-0.000110
 49
0.000110
 49
-0.000110
 49
0.000110
 49
-0.000110
  0
LTYPE
  2
DOT
 70
    64
  3
...............................................
 72
    65
 73
     2
 40
0.000110
 49
0.000000
 49
-0.000110
  0
LTYPE
  2
DASHDOT
 70
    64
  3
__ . __ . __ . __ . __ . __ . __ . __ . __ . __
 72
    65
 73
     4
 40
0.000440
 49
0.000220
 49
-0.000110
 49
0.000000
 49
-0.000110
  0
LTYPE
  2
BORDER
 70
    64
  3
__ __ . __ __ . __ __ . __ __ . __ __ . __ __
 72
    65
 73
     6
 40
0.000770
 49
0.000220
 49
-0.000110
 49
0.000220
 49
-0.000110
 49
0.000000
 49
-0.000110
  0
LTYPE
  2
DIVIDE
 70
    64
  3
__ . . __ . . __ . . __ . . __ . . __ . . __
 72
    65
 73
     6
 40
0.000550
 49
0.000220
 49
-0.000110
 49
0.000000
 49
-0.000110
 49
0.000000
 49
-0.000110
  0
LTYPE
  2
DOTDOT
 70
    64
  3
 . .  . .  . .  . .  . .  . . 
 72
    65
 73
     5
 40
0.000242
 49
-0.000110
 49
0.000000
 49
-0.000110
 49
0.000000
 49
-0.000110
  0
ENDTAB
  0
TABLE
  2
STYLE
 70
     2
  0
STYLE
 70
     0
  2
SN0
 40
0.000000
 41
0.000440
 50
0.000000
 71
     0
 42
0.000000
  3
ROMAND
  0
STYLE
 70
    68
  2
SV0
 40
0.000000
 41
0.000440
 50
0.000000
 71
     0
 42
0.000000
  3
ROMAND
  0
ENDTAB
  0
TABLE
  2
LAYER
 70
     3
  0
LAYER
  2
FOREGROUND
 70
    64
 62
     7
  6
CONTINUOUS
  0
LAYER
  2
BACKGROUND
 70
    65
 62
    -7
  6
CONTINUOUS
  0
LAYER
  2
0
 70
    64
 62
     7
  6
CONTINUOUS
  0
ENDTAB
  0
ENDSEC
  0
SECTION
  2
ENTITIES
  0
POLYLINE
  8
FOREGROUND
  6
CONTINUOUS
 66
     1
 40
0.000000
 41
0.000000
  0
VERTEX
  8
FOREGROUND
  6
CONTINUOUS
 10
0.000000
 20
12.253120
  0
VERTEX
  8
FOREGROUND
  6
CONTINUOUS
 10
8.499920
 20
12.253120
  0
VERTEX
  8
FOREGROUND
  6
CONTINUOUS
 10
8.499920
 20
1.253120
  0
VERTEX
  8
FOREGROUND
  6
CONTINUOUS
 10
0.000000
 20
1.253120
  0
VERTEX
  8
FOREGROUND
  6
CONTINUOUS
 10
0.000000
 20
12.253120
  0
SEQEND
  8
0
  0
POLYLINE
  8
FOREGROUND
  6
CONTINUOUS
 66
     1
 40
0.000000
 41
0.000000
  0
VERTEX
  8
FOREGROUND
  6
CONTINUOUS
 10
0.000000
 20
12.253120
  0
VERTEX
  8
FOREGROUND
  6
CONTINUOUS
 10
8.499920
 20
12.253120
  0
VERTEX
  8
FOREGROUND
  6
CONTINUOUS
 10
8.499920
 20
1.253120
  0
VERTEX
  8
FOREGROUND
  6
CONTINUOUS
 10
0.000000
 20
1.253120
  0
VERTEX
  8
FOREGROUND
  6
CONTINUOUS
 10
0.000000
 20
12.253120
  0
SEQEND
  8
0
  0
POLYLINE
  8
0
  6
CONTINUOUS
 66
     1
 40
0.000000
 41
0.000000
  0
VERTEX
  8
0
  6
CONTINUOUS
 10
5.101360
 20
3.606240
  0
VERTEX
  8
0
  6
CONTINUOUS
 10
7.357240
 20
3.606240
  0
VERTEX
  8
0
  6
CONTINUOUS
 10
7.357240
 20
5.399240
  0
VERTEX
  8
0
  6
CONTINUOUS
 10
6.747840
 20
5.399240
  0
VERTEX
  8
0
  6
CONTINUOUS
 10
6.747400
 20
5.018200
  0
VERTEX
  8
0
  6
CONTINUOUS
 10
6.671280
 20
5.016000
  0
VERTEX
  8
0
  6
CONTINUOUS
 10
6.602200
 20
5.009400
  0
VERTEX
  8
0
  6
CONTINUOUS
 10
6.539280
 20
4.998840
  0
VERTEX
  8
0
  6
CONTINUOUS
 10
6.482080
 20
4.984760
  0
VERTEX
  8
0
  6
CONTINUOUS
 10
6.431040
 20
4.967160
  0
VERTEX
  8
0
  6
CONTINUOUS
 10
6.384400
 20
4.946480
  0
VERTEX
  8
0
  6
CONTINUOUS
 10
6.356240
 20
4.931080
  0
VERTEX
  8
0
  6
CONTINUOUS
 10
6.305640
 20
4.897200
  0
VERTEX
  8
0
  6
CONTINUOUS
 10
6.261640
 20
4.859800
  0
VERTEX
  8
0
  6
CONTINUOUS
 10
6.223360
 20
4.819320
  0
VERTEX
  8
0
  6
CONTINUOUS
 10
6.189920
 20
4.777080
  0
VERTEX
  8
0
  6
CONTINUOUS
 10
6.160000
 20
4.733080
  0
VERTEX
  8
0
  6
CONTINUOUS
 10
6.107200
 20
4.645080
  0
VERTEX
  8
0
  6
CONTINUOUS
 10
6.057480
 20
4.560600
  0
VERTEX
  8
0
  6
CONTINUOUS
 10
6.016560
 20
4.503840
  0
VERTEX
  8
0
  6
CONTINUOUS
 10
5.914040
 20
4.389880
  0
VERTEX
  8
0
  6
CONTINUOUS
 10
5.868280
 20
4.344560
  0
VERTEX
  8
0
  6
CONTINUOUS
 10
5.817240
 20
4.302760
  0
VERTEX
  8
0
  6
CONTINUOUS
 10
5.778520
 20
4.276800
  0
VERTEX
  8
0
  6
CONTINUOUS
 10
5.734960
 20
4.252600
  0
VERTEX
  8
0
  6
CONTINUOUS
 10
5.685680
 20
4.231040
  0
VERTEX
  8
0
  6
CONTINUOUS
 10
5.629800
 20
4.211240
  0
VERTEX
  8
0
  6
CONTINUOUS
 10
5.566000
 20
4.194080
  0
VERTEX
  8
0
  6
CONTINUOUS
 10
5.493840
 20
4.179560
  0
VERTEX
  8
0
  6
CONTINUOUS
 10
5.434000
 20
4.170320
  0
VERTEX
  8
0
  6
CONTINUOUS
 10
5.320480
 20
4.159320
  0
VERTEX
  8
0
  6
CONTINUOUS
 10
5.217080
 20
4.154040
  0
VERTEX
  8
0
  6
CONTINUOUS
 10
5.101360
 20
4.152280
  0
VERTEX
  8
0
  6
CONTINUOUS
 10
5.101360
 20
3.606240
  0
SEQEND
  8
0
  0
POLYLINE
  8
0
  6
CONTINUOUS
 66
     1
 40
0.000000
 41
0.000000
  0
VERTEX
  8
0
  6
CONTINUOUS
 10
3.859680
 20
3.551680
  0
VERTEX
  8
0
  6
CONTINUOUS
 10
1.603800
 20
3.551680
  0
VERTEX
  8
0
  6
CONTINUOUS
 10
1.603800
 20
5.345120
  0
VERTEX
  8
0
  6
CONTINUOUS
 10
2.213200
 20
5.345120
  0
VERTEX
  8
0
  6
CONTINUOUS
 10
2.213640
 20
4.964080
  0
VERTEX
  8
0
  6
CONTINUOUS
 10
2.289760
 20
4.961880
  0
VERTEX
  8
0
  6
CONTINUOUS
 10
2.358840
 20
4.955280
  0
VERTEX
  8
0
  6
CONTINUOUS
 10
2.421760
 20
4.944720
  0
VERTEX
  8
0
  6
CONTINUOUS
 10
2.478960
 20
4.930640
  0
VERTEX
  8
0
  6
CONTINUOUS
 10
2.513720
 20
4.919200
  0
VERTEX
  8
0
  6
CONTINUOUS
 10
2.561680
 20
4.899400
  0
VERTEX
  8
0
  6
CONTINUOUS
 10
2.604800
 20
4.876960
  0
VERTEX
  8
0
  6
CONTINUOUS
 10
2.655400
 20
4.843080
  0
VERTEX
  8
0
  6
CONTINUOUS
 10
2.699400
 20
4.805680
  0
VERTEX
  8
0
  6
CONTINUOUS
 10
2.737680
 20
4.765200
  0
VERTEX
  8
0
  6
CONTINUOUS
 10
2.786520
 20
4.700960
  0
VERTEX
  8
0
  6
CONTINUOUS
 10
2.827880
 20
4.634520
  0
VERTEX
  8
0
  6
CONTINUOUS
 10
2.903560
 20
4.506480
  0
VERTEX
  8
0
  6
CONTINUOUS
 10
2.929960
 20
4.467760
  0
VERTEX
  8
0
  6
CONTINUOUS
 10
2.959000
 20
4.432560
  0
VERTEX
  8
0
  6
CONTINUOUS
 10
3.047000
 20
4.335320
  0
VERTEX
  8
0
  6
CONTINUOUS
 10
3.092760
 20
4.290440
  0
VERTEX
  8
0
  6
CONTINUOUS
 10
3.126200
 20
4.261840
  0
VERTEX
  8
0
  6
CONTINUOUS
 10
3.182520
 20
4.222680
  0
VERTEX
  8
0
  6
CONTINUOUS
 10
3.226080
 20
4.198480
  0
VERTEX
  8
0
  6
CONTINUOUS
 10
3.275360
 20
4.176480
  0
VERTEX
  8
0
  6
CONTINUOUS
 10
3.331240
 20
4.157120
  0
VERTEX
  8
0
  6
CONTINUOUS
 10
3.362040
 20
4.147880
  0
VERTEX
  8
0
  6
CONTINUOUS
 10
3.429800
 20
4.132040
  0
VERTEX
  8
0
  6
CONTINUOUS
 10
3.527040
 20
4.116200
  0
VERTEX
  8
0
  6
CONTINUOUS
 10
3.640560
 20
4.105200
  0
VERTEX
  8
0
  6
CONTINUOUS
 10
3.743960
 20
4.099920
  0
VERTEX
  8
0
  6
CONTINUOUS
 10
3.859680
 20
4.098160
  0
VERTEX
  8
0
  6
CONTINUOUS
 10
3.859680
 20
3.551680
  0
SEQEND
  8
0
  0
SOLID
  8
0
 62
    15
 10
2.907960
 20
7.118760
 11
2.900480
 21
7.861920
 12
2.963400
 22
7.044400
 13
2.955920
 23
7.788000
  0
POLYLINE
  8
0
  6
CONTINUOUS
 66
     1
 40
0.000000
 41
0.000000
  0
VERTEX
  8
0
  6
CONTINUOUS
 10
2.907960
 20
7.118760
  0
VERTEX
  8
0
  6
CONTINUOUS
 10
2.900480
 20
7.861920
  0
VERTEX
  8
0
  6
CONTINUOUS
 10
2.955920
 20
7.788000
  0
VERTEX
  8
0
  6
CONTINUOUS
 10
2.963400
 20
7.044400
  0
VERTEX
  8
0
  6
CONTINUOUS
 10
2.907960
 20
7.118760
  0
SEQEND
  8
0
  0
SOLID
  8
0
 62
    15
 10
2.218040
 20
7.576360
 11
2.210560
 21
8.319520
 12
2.317920
 22
7.572400
 13
2.310440
 23
8.315560
  0
POLYLINE
  8
0
  6
CONTINUOUS
 66
     1
 40
0.000000
 41
0.000000
  0
VERTEX
  8
0
  6
CONTINUOUS
 10
2.218040
 20
7.576360
  0
VERTEX
  8
0
  6
CONTINUOUS
 10
2.210560
 20
8.319520
  0
VERTEX
  8
0
  6
CONTINUOUS
 10
2.310440
 20
8.315560
  0
VERTEX
  8
0
  6
CONTINUOUS
 10
2.317920
 20
7.572400
  0
VERTEX
  8
0
  6
CONTINUOUS
 10
2.218040
 20
7.576360
  0
SEQEND
  8
0
  0
SOLID
  8
0
 62
    15
 10
1.608200
 20
6.163960
 11
1.600720
 21
6.907560
 12
1.608200
 22
7.957400
 13
1.600720
 23
8.700560
  0
POLYLINE
  8
0
  6
CONTINUOUS
 66
     1
 40
0.000000
 41
0.000000
  0
VERTEX
  8
0
  6
CONTINUOUS
 10
1.608200
 20
6.163960
  0
VERTEX
  8
0
  6
CONTINUOUS
 10
1.600720
 20
6.907560
  0
VERTEX
  8
0
  6
CONTINUOUS
 10
1.600720
 20
8.700560
  0
VERTEX
  8
0
  6
CONTINUOUS
 10
1.608200
 20
7.957400
  0
VERTEX
  8
0
  6
CONTINUOUS
 10
1.608200
 20
6.163960
  0
SEQEND
  8
0
  0
SOLID
  8
0
 62
    15
 10
2.317920
 20
7.572400
 11
2.310440
 21
8.315560
 12
2.405920
 22
7.560960
 13
2.398440
 23
8.304120
  0
POLYLINE
  8
0
  6
CONTINUOUS
 66
     1
 40
0.000000
 41
0.000000
  0
VERTEX
  8
0
  6
CONTINUOUS
 10
2.317920
 20
7.572400
  0
VERTEX
  8
0
  6
CONTINUOUS
 10
2.310440
 20
8.315560
  0
VERTEX
  8
0
  6
CONTINUOUS
 10
2.398440
 20
8.304120
  0
VERTEX
  8
0
  6
CONTINUOUS
 10
2.405920
 20
7.560960
  0
VERTEX
  8
0
  6
CONTINUOUS
 10
2.317920
 20
7.572400
  0
SEQEND
  8
0
  0
SOLID
  8
0
 62
    15
 10
2.405920
 20
7.560960
 11
2.398440
 21
8.304120
 12
2.482920
 22
7.542480
 13
2.475440
 23
8.286080
  0
POLYLINE
  8
0
  6
CONTINUOUS
 66
     1
 40
0.000000
 41
0.000000
  0
VERTEX
  8
0
  6
CONTINUOUS
 10
2.405920
 20
7.560960
  0
VERTEX
  8
0
  6
CONTINUOUS
 10
2.398440
 20
8.304120
  0
VERTEX
  8
0
  6
CONTINUOUS
 10
2.475440
 20
8.286080
  0
VERTEX
  8
0
  6
CONTINUOUS
 10
2.482920
 20
7.542480
  0
VERTEX
  8
0
  6
CONTINUOUS
 10
2.405920
 20
7.560960
  0
SEQEND
  8
0
  0
SOLID
  8
0
 62
    15
 10
2.482920
 20
7.542480
 11
2.475440
 21
8.286080
 12
2.550240
 22
7.518280
 13
2.542760
 23
8.261880
  0
POLYLINE
  8
0
  6
CONTINUOUS
 66
     1
 40
0.000000
 41
0.000000
  0
VERTEX
  8
0
  6
CONTINUOUS
 10
2.482920
 20
7.542480
  0
VERTEX
  8
0
  6
CONTINUOUS
 10
2.475440
 20
8.286080
  0
VERTEX
  8
0
  6
CONTINUOUS
 10
2.542760
 20
8.261880
  0
VERTEX
  8
0
  6
CONTINUOUS
 10
2.550240
 20
7.518280
  0
VERTEX
  8
0
  6
CONTINUOUS
 10
2.482920
 20
7.542480
  0
SEQEND
  8
0
  0
SOLID
  8
0
 62
    15
 10
2.550240
 20
7.518280
 11
2.542760
 21
8.261880
 12
2.608760
 22
7.488800
 13
2.601280
 23
8.232400
  0
POLYLINE
  8
0
  6
CONTINUOUS
 66
     1
 40
0.000000
 41
0.000000
  0
VERTEX
  8
0
  6
CONTINUOUS
 10
2.550240
 20
7.518280
  0
VERTEX
  8
0
  6
CONTINUOUS
 10
2.542760
 20
8.261880
  0
VERTEX
  8
0
  6
CONTINUOUS
 10
2.601280
 20
8.232400
  0
VERTEX
  8
0
  6
CONTINUOUS
 10
2.608760
 20
7.488800
  0
VERTEX
  8
0
  6
CONTINUOUS
 10
2.550240
 20
7.518280
  0
SEQEND
  8
0
  0
SOLID
  8
0
 62
    15
 10
2.608760
 20
7.488800
 11
2.601280
 21
8.232400
 12
2.659800
 22
7.455360
 13
2.652320
 23
8.198520
  0
POLYLINE
  8
0
  6
CONTINUOUS
 66
     1
 40
0.000000
 41
0.000000
  0
VERTEX
  8
0
  6
CONTINUOUS
 10
2.608760
 20
7.488800
  0
VERTEX
  8
0
  6
CONTINUOUS
 10
2.601280
 20
8.232400
  0
VERTEX
  8
0
  6
CONTINUOUS
 10
2.652320
 20
8.198520
  0
VERTEX
  8
0
  6
CONTINUOUS
 10
2.659800
 20
7.455360
  0
VERTEX
  8
0
  6
CONTINUOUS
 10
2.608760
 20
7.488800
  0
SEQEND
  8
0
  0
SOLID
  8
0
 62
    15
 10
2.659800
 20
7.455360
 11
2.652320
 21
8.198520
 12
2.742080
 22
7.377480
 13
2.734600
 23
8.120640
  0
POLYLINE
  8
0
  6
CONTINUOUS
 66
     1
 40
0.000000
 41
0.000000
  0
VERTEX
  8
0
  6
CONTINUOUS
 10
2.659800
 20
7.455360
  0
VERTEX
  8
0
  6
CONTINUOUS
 10
2.652320
 20
8.198520
  0
VERTEX
  8
0
  6
CONTINUOUS
 10
2.734600
 20
8.120640
  0
VERTEX
  8
0
  6
CONTINUOUS
 10
2.742080
 20
7.377480
  0
VERTEX
  8
0
  6
CONTINUOUS
 10
2.659800
 20
7.455360
  0
SEQEND
  8
0
  0
SOLID
  8
0
 62
    15
 10
2.742080
 20
7.377480
 11
2.734600
 21
8.120640
 12
2.805440
 22
7.291240
 13
2.797960
 23
8.034400
  0
POLYLINE
  8
0
  6
CONTINUOUS
 66
     1
 40
0.000000
 41
0.000000
  0
VERTEX
  8
0
  6
CONTINUOUS
 10
2.742080
 20
7.377480
  0
VERTEX
  8
0
  6
CONTINUOUS
 10
2.734600
 20
8.120640
  0
VERTEX
  8
0
  6
CONTINUOUS
 10
2.797960
 20
8.034400
  0
VERTEX
  8
0
  6
CONTINUOUS
 10
2.805440
 20
7.291240
  0
VERTEX
  8
0
  6
CONTINUOUS
 10
2.742080
 20
7.377480
  0
SEQEND
  8
0
  0
SOLID
  8
0
 62
    15
 10
2.805440
 20
7.291240
 11
2.797960
 21
8.034400
 12
2.857800
 22
7.202800
 13
2.850320
 23
7.946400
  0
POLYLINE
  8
0
  6
CONTINUOUS
 66
     1
 40
0.000000
 41
0.000000
  0
VERTEX
  8
0
  6
CONTINUOUS
 10
2.805440
 20
7.291240
  0
VERTEX
  8
0
  6
CONTINUOUS
 10
2.797960
 20
8.034400
  0
VERTEX
  8
0
  6
CONTINUOUS
 10
2.850320
 20
7.946400
  0
VERTEX
  8
0
  6
CONTINUOUS
 10
2.857800
 20
7.202800
  0
VERTEX
  8
0
  6
CONTINUOUS
 10
2.805440
 20
7.291240
  0
SEQEND
  8
0
  0
SOLID
  8
0
 62
    15
 10
2.857800
 20
7.202800
 11
2.850320
 21
7.946400
 12
2.882880
 22
7.159680
 13
2.875400
 23
7.903280
  0
POLYLINE
  8
0
  6
CONTINUOUS
 66
     1
 40
0.000000
 41
0.000000
  0
VERTEX
  8
0
  6
CONTINUOUS
 10
2.857800
 20
7.202800
  0
VERTEX
  8
0
  6
CONTINUOUS
 10
2.850320
 20
7.946400
  0
VERTEX
  8
0
  6
CONTINUOUS
 10
2.875400
 20
7.903280
  0
VERTEX
  8
0
  6
CONTINUOUS
 10
2.882880
 20
7.159680
  0
VERTEX
  8
0
  6
CONTINUOUS
 10
2.857800
 20
7.202800
  0
SEQEND
  8
0
  0
SOLID
  8
0
 62
    15
 10
2.882880
 20
7.159680
 11
2.875400
 21
7.903280
 12
2.907960
 22
7.118760
 13
2.900480
 23
7.861920
  0
POLYLINE
  8
0
  6
CONTINUOUS
 66
     1
 40
0.000000
 41
0.000000
  0
VERTEX
  8
0
  6
CONTINUOUS
 10
2.882880
 20
7.159680
  0
VERTEX
  8
0
  6
CONTINUOUS
 10
2.875400
 20
7.903280
  0
VERTEX
  8
0
  6
CONTINUOUS
 10
2.900480
 20
7.861920
  0
VERTEX
  8
0
  6
CONTINUOUS
 10
2.907960
 20
7.118760
  0
VERTEX
  8
0
  6
CONTINUOUS
 10
2.882880
 20
7.159680
  0
SEQEND
  8
0
  0
SOLID
  8
0
 62
    15
 10
1.608200
 20
7.957400
 11
1.600720
 21
8.700560
 12
2.217600
 22
7.957400
 13
2.210120
 23
8.700560
  0
POLYLINE
  8
0
  6
CONTINUOUS
 66
     1
 40
0.000000
 41
0.000000
  0
VERTEX
  8
0
  6
CONTINUOUS
 10
1.608200
 20
7.957400
  0
VERTEX
  8
0
  6
CONTINUOUS
 10
1.600720
 20
8.700560
  0
VERTEX
  8
0
  6
CONTINUOUS
 10
2.210120
 20
8.700560
  0
VERTEX
  8
0
  6
CONTINUOUS
 10
2.217600
 20
7.957400
  0
VERTEX
  8
0
  6
CONTINUOUS
 10
1.608200
 20
7.957400
  0
SEQEND
  8
0
  0
SOLID
  8
0
 62
    15
 10
2.963400
 20
7.044400
 11
2.955920
 21
7.788000
 12
2.993320
 22
7.011400
 13
2.985840
 23
7.755000
  0
POLYLINE
  8
0
  6
CONTINUOUS
 66
     1
 40
0.000000
 41
0.000000
  0
VERTEX
  8
0
  6
CONTINUOUS
 10
2.963400
 20
7.044400
  0
VERTEX
  8
0
  6
CONTINUOUS
 10
2.955920
 20
7.788000
  0
VERTEX
  8
0
  6
CONTINUOUS
 10
2.985840
 20
7.755000
  0
VERTEX
  8
0
  6
CONTINUOUS
 10
2.993320
 20
7.011400
  0
VERTEX
  8
0
  6
CONTINUOUS
 10
2.963400
 20
7.044400
  0
SEQEND
  8
0
  0
SOLID
  8
0
 62
    15
 10
2.993320
 20
7.011400
 11
2.985840
 21
7.755000
 12
3.022360
 22
6.979280
 13
3.014880
 23
7.722440
  0
POLYLINE
  8
0
  6
CONTINUOUS
 66
     1
 40
0.000000
 41
0.000000
  0
VERTEX
  8
0
  6
CONTINUOUS
 10
2.993320
 20
7.011400
  0
VERTEX
  8
0
  6
CONTINUOUS
 10
2.985840
 20
7.755000
  0
VERTEX
  8
0
  6
CONTINUOUS
 10
3.014880
 20
7.722440
  0
VERTEX
  8
0
  6
CONTINUOUS
 10
3.022360
 20
6.979280
  0
VERTEX
  8
0
  6
CONTINUOUS
 10
2.993320
 20
7.011400
  0
SEQEND
  8
0
  0
SOLID
  8
0
 62
    15
 10
3.022360
 20
6.979280
 11
3.014880
 21
7.722440
 12
3.081320
 22
6.917240
 13
3.073840
 23
7.660840
  0
POLYLINE
  8
0
  6
CONTINUOUS
 66
     1
 40
0.000000
 41
0.000000
  0
VERTEX
  8
0
  6
CONTINUOUS
 10
3.022360
 20
6.979280
  0
VERTEX
  8
0
  6
CONTINUOUS
 10
3.014880
 20
7.722440
  0
VERTEX
  8
0
  6
CONTINUOUS
 10
3.073840
 20
7.660840
  0
VERTEX
  8
0
  6
CONTINUOUS
 10
3.081320
 20
6.917240
  0
VERTEX
  8
0
  6
CONTINUOUS
 10
3.022360
 20
6.979280
  0
SEQEND
  8
0
  0
SOLID
  8
0
 62
    15
 10
3.081320
 20
6.917240
 11
3.073840
 21
7.660840
 12
3.148200
 22
6.860480
 13
3.140720
 23
7.604080
  0
POLYLINE
  8
0
  6
CONTINUOUS
 66
     1
 40
0.000000
 41
0.000000
  0
VERTEX
  8
0
  6
CONTINUOUS
 10
3.081320
 20
6.917240
  0
VERTEX
  8
0
  6
CONTINUOUS
 10
3.073840
 20
7.660840
  0
VERTEX
  8
0
  6
CONTINUOUS
 10
3.140720
 20
7.604080
  0
VERTEX
  8
0
  6
CONTINUOUS
 10
3.148200
 20
6.860480
  0
VERTEX
  8
0
  6
CONTINUOUS
 10
3.081320
 20
6.917240
  0
SEQEND
  8
0
  0
SOLID
  8
0
 62
    15
 10
3.148200
 20
6.860480
 11
3.140720
 21
7.604080
 12
3.230480
 22
6.810760
 13
3.223000
 23
7.554360
  0
POLYLINE
  8
0
  6
CONTINUOUS
 66
     1
 40
0.000000
 41
0.000000
  0
VERTEX
  8
0
  6
CONTINUOUS
 10
3.148200
 20
6.860480
  0
VERTEX
  8
0
  6
CONTINUOUS
 10
3.140720
 20
7.604080
  0
VERTEX
  8
0
  6
CONTINUOUS
 10
3.223000
 20
7.554360
  0
VERTEX
  8
0
  6
CONTINUOUS
 10
3.230480
 20
6.810760
  0
VERTEX
  8
0
  6
CONTINUOUS
 10
3.148200
 20
6.860480
  0
SEQEND
  8
0
  0
SOLID
  8
0
 62
    15
 10
3.230480
 20
6.810760
 11
3.223000
 21
7.554360
 12
3.335640
 22
6.769400
 13
3.328160
 23
7.512560
  0
POLYLINE
  8
0
  6
CONTINUOUS
 66
     1
 40
0.000000
 41
0.000000
  0
VERTEX
  8
0
  6
CONTINUOUS
 10
3.230480
 20
6.810760
  0
VERTEX
  8
0
  6
CONTINUOUS
 10
3.223000
 20
7.554360
  0
VERTEX
  8
0
  6
CONTINUOUS
 10
3.328160
 20
7.512560
  0
VERTEX
  8
0
  6
CONTINUOUS
 10
3.335640
 20
6.769400
  0
VERTEX
  8
0
  6
CONTINUOUS
 10
3.230480
 20
6.810760
  0
SEQEND
  8
0
  0
SOLID
  8
0
 62
    15
 10
3.335640
 20
6.769400
 11
3.328160
 21
7.512560
 12
3.399000
 22
6.752240
 13
3.391520
 23
7.495400
  0
POLYLINE
  8
0
  6
CONTINUOUS
 66
     1
 40
0.000000
 41
0.000000
  0
VERTEX
  8
0
  6
CONTINUOUS
 10
3.335640
 20
6.769400
  0
VERTEX
  8
0
  6
CONTINUOUS
 10
3.328160
 20
7.512560
  0
VERTEX
  8
0
  6
CONTINUOUS
 10
3.391520
 20
7.495400
  0
VERTEX
  8
0
  6
CONTINUOUS
 10
3.399000
 20
6.752240
  0
VERTEX
  8
0
  6
CONTINUOUS
 10
3.335640
 20
6.769400
  0
SEQEND
  8
0
  0
SOLID
  8
0
 62
    15
 10
3.399000
 20
6.752240
 11
3.391520
 21
7.495400
 12
3.471160
 22
6.737720
 13
3.463680
 23
7.480880
  0
POLYLINE
  8
0
  6
CONTINUOUS
 66
     1
 40
0.000000
 41
0.000000
  0
VERTEX
  8
0
  6
CONTINUOUS
 10
3.399000
 20
6.752240
  0
VERTEX
  8
0
  6
CONTINUOUS
 10
3.391520
 20
7.495400
  0
VERTEX
  8
0
  6
CONTINUOUS
 10
3.463680
 20
7.480880
  0
VERTEX
  8
0
  6
CONTINUOUS
 10
3.471160
 20
6.737720
  0
VERTEX
  8
0
  6
CONTINUOUS
 10
3.399000
 20
6.752240
  0
SEQEND
  8
0
  0
SOLID
  8
0
 62
    15
 10
3.471160
 20
6.737720
 11
3.463680
 21
7.480880
 12
3.553000
 22
6.725840
 13
3.545520
 23
7.469440
  0
POLYLINE
  8
0
  6
CONTINUOUS
 66
     1
 40
0.000000
 41
0.000000
  0
VERTEX
  8
0
  6
CONTINUOUS
 10
3.471160
 20
6.737720
  0
VERTEX
  8
0
  6
CONTINUOUS
 10
3.463680
 20
7.480880
  0
VERTEX
  8
0
  6
CONTINUOUS
 10
3.545520
 20
7.469440
  0
VERTEX
  8
0
  6
CONTINUOUS
 10
3.553000
 20
6.725840
  0
VERTEX
  8
0
  6
CONTINUOUS
 10
3.471160
 20
6.737720
  0
SEQEND
  8
0
  0
SOLID
  8
0
 62
    15
 10
3.553000
 20
6.725840
 11
3.545520
 21
7.469440
 12
3.644960
 22
6.717480
 13
3.637480
 23
7.460640
  0
POLYLINE
  8
0
  6
CONTINUOUS
 66
     1
 40
0.000000
 41
0.000000
  0
VERTEX
  8
0
  6
CONTINUOUS
 10
3.553000
 20
6.725840
  0
VERTEX
  8
0
  6
CONTINUOUS
 10
3.545520
 20
7.469440
  0
VERTEX
  8
0
  6
CONTINUOUS
 10
3.637480
 20
7.460640
  0
VERTEX
  8
0
  6
CONTINUOUS
 10
3.644960
 20
6.717480
  0
VERTEX
  8
0
  6
CONTINUOUS
 10
3.553000
 20
6.725840
  0
SEQEND
  8
0
  0
SOLID
  8
0
 62
    15
 10
3.644960
 20
6.717480
 11
3.637480
 21
7.460640
 12
3.748360
 22
6.712200
 13
3.740880
 23
7.455800
  0
POLYLINE
  8
0
  6
CONTINUOUS
 66
     1
 40
0.000000
 41
0.000000
  0
VERTEX
  8
0
  6
CONTINUOUS
 10
3.644960
 20
6.717480
  0
VERTEX
  8
0
  6
CONTINUOUS
 10
3.637480
 20
7.460640
  0
VERTEX
  8
0
  6
CONTINUOUS
 10
3.740880
 20
7.455800
  0
VERTEX
  8
0
  6
CONTINUOUS
 10
3.748360
 20
6.712200
  0
VERTEX
  8
0
  6
CONTINUOUS
 10
3.644960
 20
6.717480
  0
SEQEND
  8
0
  0
SOLID
  8
0
 62
    15
 10
3.748360
 20
6.712200
 11
3.740880
 21
7.455800
 12
3.863640
 22
6.710440
 13
3.856160
 23
7.453600
  0
POLYLINE
  8
0
  6
CONTINUOUS
 66
     1
 40
0.000000
 41
0.000000
  0
VERTEX
  8
0
  6
CONTINUOUS
 10
3.748360
 20
6.712200
  0
VERTEX
  8
0
  6
CONTINUOUS
 10
3.740880
 20
7.455800
  0
VERTEX
  8
0
  6
CONTINUOUS
 10
3.856160
 20
7.453600
  0
VERTEX
  8
0
  6
CONTINUOUS
 10
3.863640
 20
6.710440
  0
VERTEX
  8
0
  6
CONTINUOUS
 10
3.748360
 20
6.712200
  0
SEQEND
  8
0
  0
POLYLINE
  8
0
  6
CONTINUOUS
 66
     1
 40
0.000000
 41
0.000000
  0
VERTEX
  8
0
  6
CONTINUOUS
 10
3.863640
 20
6.163960
  0
VERTEX
  8
0
  6
CONTINUOUS
 10
1.608200
 20
6.163960
  0
VERTEX
  8
0
  6
CONTINUOUS
 10
1.608200
 20
7.957400
  0
VERTEX
  8
0
  6
CONTINUOUS
 10
2.217600
 20
7.957400
  0
VERTEX
  8
0
  6
CONTINUOUS
 10
2.218040
 20
7.576360
  0
VERTEX
  8
0
  6
CONTINUOUS
 10
2.317920
 20
7.572400
  0
VERTEX
  8
0
  6
CONTINUOUS
 10
2.405920
 20
7.560960
  0
VERTEX
  8
0
  6
CONTINUOUS
 10
2.482920
 20
7.542480
  0
VERTEX
  8
0
  6
CONTINUOUS
 10
2.550240
 20
7.518280
  0
VERTEX
  8
0
  6
CONTINUOUS
 10
2.608760
 20
7.488800
  0
VERTEX
  8
0
  6
CONTINUOUS
 10
2.659800
 20
7.455360
  0
VERTEX
  8
0
  6
CONTINUOUS
 10
2.742080
 20
7.377480
  0
VERTEX
  8
0
  6
CONTINUOUS
 10
2.805440
 20
7.291240
  0
VERTEX
  8
0
  6
CONTINUOUS
 10
2.857800
 20
7.202800
  0
VERTEX
  8
0
  6
CONTINUOUS
 10
2.882880
 20
7.159680
  0
VERTEX
  8
0
  6
CONTINUOUS
 10
2.907960
 20
7.118760
  0
VERTEX
  8
0
  6
CONTINUOUS
 10
2.963400
 20
7.044400
  0
VERTEX
  8
0
  6
CONTINUOUS
 10
2.993320
 20
7.011400
  0
VERTEX
  8
0
  6
CONTINUOUS
 10
3.022360
 20
6.979280
  0
VERTEX
  8
0
  6
CONTINUOUS
 10
3.081320
 20
6.917240
  0
VERTEX
  8
0
  6
CONTINUOUS
 10
3.148200
 20
6.860480
  0
VERTEX
  8
0
  6
CONTINUOUS
 10
3.230480
 20
6.810760
  0
VERTEX
  8
0
  6
CONTINUOUS
 10
3.335640
 20
6.769400
  0
VERTEX
  8
0
  6
CONTINUOUS
 10
3.399000
 20
6.752240
  0
VERTEX
  8
0
  6
CONTINUOUS
 10
3.471160
 20
6.737720
  0
VERTEX
  8
0
  6
CONTINUOUS
 10
3.553000
 20
6.725840
  0
VERTEX
  8
0
  6
CONTINUOUS
 10
3.644960
 20
6.717480
  0
VERTEX
  8
0
  6
CONTINUOUS
 10
3.748360
 20
6.712200
  0
VERTEX
  8
0
  6
CONTINUOUS
 10
3.863640
 20
6.710440
  0
VERTEX
  8
0
  6
CONTINUOUS
 10
3.863640
 20
6.165280
  0
VERTEX
  8
0
  6
CONTINUOUS
 10
3.863640
 20
6.163960
  0
SEQEND
  8
0
  0
TEXT
  8
0
 10
2.390960
 20
5.911840
 40
0.138015
  1
BA  1133
 41
1.000000
  7
SN0
 71
     0
 72
     5
 11
3.073500
 21
5.911840
  0
TEXT
  8
0
 10
2.207480
 20
5.720440
 40
0.138015
  1
1-3/4" x 2-1/4"
 41
1.000000
  7
SN0
 71
     0
 72
     5
 11
3.255039
 21
5.720440
  0
POLYLINE
  8
0
  6
CONTINUOUS
 66
     1
 40
0.014080
 41
0.014080
  0
VERTEX
  8
0
  6
CONTINUOUS
 10
7.084440
 20
6.126560
  0
VERTEX
  8
0
  6
CONTINUOUS
 10
4.828560
 20
6.126560
  0
VERTEX
  8
0
  6
CONTINUOUS
 10
4.828560
 20
7.920000
  0
VERTEX
  8
0
  6
CONTINUOUS
 10
5.437960
 20
7.920000
  0
VERTEX
  8
0
  6
CONTINUOUS
 10
5.438400
 20
7.538960
  0
VERTEX
  8
0
  6
CONTINUOUS
 10
5.514520
 20
7.536760
  0
VERTEX
  8
0
  6
CONTINUOUS
 10
5.583600
 20
7.530160
  0
VERTEX
  8
0
  6
CONTINUOUS
 10
5.646520
 20
7.519600
  0
VERTEX
  8
0
  6
CONTINUOUS
 10
5.703720
 20
7.505520
  0
VERTEX
  8
0
  6
CONTINUOUS
 10
5.738480
 20
7.494080
  0
VERTEX
  8
0
  6
CONTINUOUS
 10
5.786440
 20
7.474280
  0
VERTEX
  8
0
  6
CONTINUOUS
 10
5.829560
 20
7.451840
  0
VERTEX
  8
0
  6
CONTINUOUS
 10
5.880160
 20
7.417960
  0
VERTEX
  8
0
  6
CONTINUOUS
 10
5.924160
 20
7.380560
  0
VERTEX
  8
0
  6
CONTINUOUS
 10
5.962440
 20
7.340080
  0
VERTEX
  8
0
  6
CONTINUOUS
 10
6.011280
 20
7.275840
  0
VERTEX
  8
0
  6
CONTINUOUS
 10
6.052640
 20
7.209400
  0
VERTEX
  8
0
  6
CONTINUOUS
 10
6.128320
 20
7.081360
  0
VERTEX
  8
0
  6
CONTINUOUS
 10
6.154720
 20
7.042640
  0
VERTEX
  8
0
  6
CONTINUOUS
 10
6.183760
 20
7.007440
  0
VERTEX
  8
0
  6
CONTINUOUS
 10
6.271760
 20
6.910200
  0
VERTEX
  8
0
  6
CONTINUOUS
 10
6.317520
 20
6.865320
  0
VERTEX
  8
0
  6
CONTINUOUS
 10
6.350960
 20
6.836720
  0
VERTEX
  8
0
  6
CONTINUOUS
 10
6.407280
 20
6.797560
  0
VERTEX
  8
0
  6
CONTINUOUS
 10
6.450840
 20
6.773360
  0
VERTEX
  8
0
  6
CONTINUOUS
 10
6.500120
 20
6.751360
  0
VERTEX
  8
0
  6
CONTINUOUS
 10
6.556000
 20
6.732000
  0
VERTEX
  8
0
  6
CONTINUOUS
 10
6.586800
 20
6.722760
  0
VERTEX
  8
0
  6
CONTINUOUS
 10
6.654560
 20
6.706920
  0
VERTEX
  8
0
  6
CONTINUOUS
 10
6.751800
 20
6.691080
  0
VERTEX
  8
0
  6
CONTINUOUS
 10
6.865320
 20
6.680080
  0
VERTEX
  8
0
  6
CONTINUOUS
 10
6.968720
 20
6.674800
  0
VERTEX
  8
0
  6
CONTINUOUS
 10
7.084440
 20
6.673040
  0
VERTEX
  8
0
  6
CONTINUOUS
 10
7.084440
 20
6.126560
  0
SEQEND
  8
0
  0
TEXT
  8
0
 10
5.291440
 20
6.631680
 40
0.138015
  1
BA  1133
 41
1.000000
  7
SN0
 71
     0
 72
     5
 11
5.973980
 21
6.631680
  0
TEXT
  8
0
 10
5.107960
 20
6.440280
 40
0.138015
  1
1-3/4" x 2-1/4"
 41
1.000000
  7
SN0
 71
     0
 72
     5
 11
6.155519
 21
6.440280
  0
ENDSEC
  0
EOF
