  0
SECTION
  2
HEADER
  9
$ACADVER
  1
AC1006
  9
$EXTMIN
 10
0.519200
 20
0.439560
  9
$EXTMAX
 10
8.088520
 20
10.740400
  9
$LTSCALE
 40
0.044000
  9
$PDMODE
 70
    35
  9
$PDSIZE
 40
0.035200
  0
ENDSEC
  0
SECTION
  2
TABLES
  0
TABLE
  2
LTYPE
 70
     9
  0
LTYPE
  2
CONTINUOUS
 70
    64
  3
Solid line
 72
    65
 73
     0
 40
0.000000
  0
LTYPE
  2
DASHED
 70
    64
  3
__ __ __ __ __ __ __ __ __ __ __ __ __ __ __
 72
    65
 73
     2
 40
0.000330
 49
0.000220
 49
-0.000110
  0
LTYPE
  2
HIDDEN
 70
    64
  3
 _ _ _ _ _ _ _ _ _ _ _ _ _ _ _ _ _ _ _ _ _ _
 72
    65
 73
     2
 40
0.000165
 49
0.000110
 49
-0.000055
  0
LTYPE
  2
CENTER
 70
    64
  3
____ _ ____ _ ____ _ ____ _ ____ _ ____ _ ____
 72
    65
 73
     4
 40
0.000880
 49
0.000550
 49
-0.000110
 49
0.000110
 49
-0.000110
  0
LTYPE
  2
PHANTOM
 70
    64
  3
_____ _ _ _____ _ _ _____ _ _ _____ _ _ ____
 72
    65
 73
     6
 40
0.001100
 49
0.000550
 49
-0.000110
 49
0.000110
 49
-0.000110
 49
0.000110
 49
-0.000110
  0
LTYPE
  2
DOT
 70
    64
  3
...............................................
 72
    65
 73
     2
 40
0.000110
 49
0.000000
 49
-0.000110
  0
LTYPE
  2
DASHDOT
 70
    64
  3
__ . __ . __ . __ . __ . __ . __ . __ . __ . __
 72
    65
 73
     4
 40
0.000440
 49
0.000220
 49
-0.000110
 49
0.000000
 49
-0.000110
  0
LTYPE
  2
BORDER
 70
    64
  3
__ __ . __ __ . __ __ . __ __ . __ __ . __ __
 72
    65
 73
     6
 40
0.000770
 49
0.000220
 49
-0.000110
 49
0.000220
 49
-0.000110
 49
0.000000
 49
-0.000110
  0
LTYPE
  2
DIVIDE
 70
    64
  3
__ . . __ . . __ . . __ . . __ . . __ . . __
 72
    65
 73
     6
 40
0.000550
 49
0.000220
 49
-0.000110
 49
0.000000
 49
-0.000110
 49
0.000000
 49
-0.000110
  0
LTYPE
  2
DOTDOT
 70
    64
  3
 . .  . .  . .  . .  . .  . . 
 72
    65
 73
     5
 40
0.000242
 49
-0.000110
 49
0.000000
 49
-0.000110
 49
0.000000
 49
-0.000110
  0
ENDTAB
  0
TABLE
  2
STYLE
 70
     2
  0
STYLE
 70
     0
  2
SN0
 40
0.000000
 41
0.000440
 50
0.000000
 71
     0
 42
0.000000
  3
ROMAND
  0
STYLE
 70
    68
  2
SV0
 40
0.000000
 41
0.000440
 50
0.000000
 71
     0
 42
0.000000
  3
ROMAND
  0
ENDTAB
  0
TABLE
  2
LAYER
 70
     3
  0
LAYER
  2
FOREGROUND
 70
    64
 62
     7
  6
CONTINUOUS
  0
LAYER
  2
BACKGROUND
 70
    65
 62
    -7
  6
CONTINUOUS
  0
LAYER
  2
0
 70
    64
 62
     7
  6
CONTINUOUS
  0
ENDTAB
  0
ENDSEC
  0
SECTION
  2
ENTITIES
  0
POLYLINE
  8
FOREGROUND
  6
CONTINUOUS
 66
     1
 40
0.000000
 41
0.000000
  0
VERTEX
  8
FOREGROUND
  6
CONTINUOUS
 10
0.000000
 20
11.179960
  0
VERTEX
  8
FOREGROUND
  6
CONTINUOUS
 10
8.499920
 20
11.179960
  0
VERTEX
  8
FOREGROUND
  6
CONTINUOUS
 10
8.499920
 20
0.179960
  0
VERTEX
  8
FOREGROUND
  6
CONTINUOUS
 10
0.000000
 20
0.179960
  0
VERTEX
  8
FOREGROUND
  6
CONTINUOUS
 10
0.000000
 20
11.179960
  0
SEQEND
  8
0
  0
POLYLINE
  8
FOREGROUND
  6
CONTINUOUS
 66
     1
 40
0.000000
 41
0.000000
  0
VERTEX
  8
FOREGROUND
  6
CONTINUOUS
 10
0.000000
 20
11.179960
  0
VERTEX
  8
FOREGROUND
  6
CONTINUOUS
 10
8.499920
 20
11.179960
  0
VERTEX
  8
FOREGROUND
  6
CONTINUOUS
 10
8.499920
 20
0.179960
  0
VERTEX
  8
FOREGROUND
  6
CONTINUOUS
 10
0.000000
 20
0.179960
  0
VERTEX
  8
FOREGROUND
  6
CONTINUOUS
 10
0.000000
 20
11.179960
  0
SEQEND
  8
0
  0
POLYLINE
  8
0
  6
CONTINUOUS
 66
     1
 40
0.000000
 41
0.000000
  0
VERTEX
  8
0
  6
CONTINUOUS
 10
7.221280
 20
4.356880
  0
VERTEX
  8
0
  6
CONTINUOUS
 10
7.221280
 20
3.232680
  0
VERTEX
  8
0
  6
CONTINUOUS
 10
4.966280
 20
3.232680
  0
VERTEX
  8
0
  6
CONTINUOUS
 10
4.966280
 20
4.982120
  0
VERTEX
  8
0
  6
CONTINUOUS
 10
5.843640
 20
4.982120
  0
VERTEX
  8
0
  6
CONTINUOUS
 10
5.843640
 20
4.669280
  0
VERTEX
  8
0
  6
CONTINUOUS
 10
6.407280
 20
4.669280
  0
VERTEX
  8
0
  6
CONTINUOUS
 10
6.407280
 20
4.356880
  0
VERTEX
  8
0
  6
CONTINUOUS
 10
7.221280
 20
4.356880
  0
SEQEND
  8
0
  0
SOLID
  8
0
 62
     7
 10
6.419160
 20
4.662680
 11
7.165400
 21
4.662680
 12
6.419160
 22
4.362160
 13
7.165400
 23
4.362160
  0
POLYLINE
  8
0
  6
DOT
 66
     1
 40
0.000000
 41
0.000000
  0
VERTEX
  8
0
  6
DOT
 10
6.419160
 20
4.662680
  0
VERTEX
  8
0
  6
DOT
 10
7.165400
 20
4.662680
  0
VERTEX
  8
0
  6
DOT
 10
7.165400
 20
4.362160
  0
VERTEX
  8
0
  6
DOT
 10
6.419160
 20
4.362160
  0
VERTEX
  8
0
  6
DOT
 10
6.419160
 20
4.662680
  0
SEQEND
  8
0
  0
LINE
  8
0
  6
CONTINUOUS
 10
7.168480
 20
4.565000
 11
7.681960
 21
4.565000
  0
LINE
  8
0
  6
CONTINUOUS
 10
7.165840
 20
4.470400
 11
7.679320
 21
4.470400
  0
POLYLINE
  8
0
  6
CONTINUOUS
 66
     1
 40
0.000000
 41
0.000000
  0
VERTEX
  8
0
  6
CONTINUOUS
 10
7.682400
 20
4.565000
  0
VERTEX
  8
0
  6
CONTINUOUS
 10
7.681308
 20
4.537541
  0
VERTEX
  8
0
  6
CONTINUOUS
 10
7.684812
 20
4.508419
  0
VERTEX
  8
0
  6
CONTINUOUS
 10
7.679320
 20
4.470400
  0
SEQEND
  8
0
  0
POLYLINE
  8
0
  6
CONTINUOUS
 66
     1
 40
0.000000
 41
0.000000
  0
VERTEX
  8
0
  6
CONTINUOUS
 10
5.843200
 20
4.862880
  0
VERTEX
  8
0
  6
CONTINUOUS
 10
5.964200
 20
4.862880
  0
VERTEX
  8
0
  6
CONTINUOUS
 10
5.964200
 20
4.981240
  0
VERTEX
  8
0
  6
CONTINUOUS
 10
7.220400
 20
4.981240
  0
VERTEX
  8
0
  6
CONTINUOUS
 10
7.220400
 20
4.667960
  0
VERTEX
  8
0
  6
CONTINUOUS
 10
5.843200
 20
4.667960
  0
SEQEND
  8
0
  0
POLYLINE
  8
0
  6
CONTINUOUS
 66
     1
 40
0.000000
 41
0.000000
  0
VERTEX
  8
0
  6
CONTINUOUS
 10
6.022280
 20
4.981240
  0
VERTEX
  8
0
  6
CONTINUOUS
 10
6.132720
 20
4.917440
  0
VERTEX
  8
0
  6
CONTINUOUS
 10
6.132720
 20
4.330920
  0
VERTEX
  8
0
  6
CONTINUOUS
 10
6.174520
 20
3.992120
  0
SEQEND
  8
0
  0
POLYLINE
  8
0
  6
CONTINUOUS
 66
     1
 40
0.000000
 41
0.000000
  0
VERTEX
  8
0
  6
CONTINUOUS
 10
6.346560
 20
4.979920
  0
VERTEX
  8
0
  6
CONTINUOUS
 10
6.236120
 20
4.916120
  0
VERTEX
  8
0
  6
CONTINUOUS
 10
6.236120
 20
4.329600
  0
VERTEX
  8
0
  6
CONTINUOUS
 10
6.177600
 20
3.992120
  0
SEQEND
  8
0
  0
POLYLINE
  8
0
  6
CONTINUOUS
 66
     1
 40
0.000000
 41
0.000000
  0
VERTEX
  8
0
  6
CONTINUOUS
 10
6.170120
 20
4.979920
  0
VERTEX
  8
0
  6
CONTINUOUS
 10
6.170120
 20
4.933280
  0
VERTEX
  8
0
  6
CONTINUOUS
 10
6.201360
 20
4.933280
  0
VERTEX
  8
0
  6
CONTINUOUS
 10
6.201360
 20
4.979920
  0
SEQEND
  8
0
  0
POLYLINE
  8
0
  6
CONTINUOUS
 66
     1
 40
0.000000
 41
0.000000
  0
VERTEX
  8
0
  6
CONTINUOUS
 10
2.774640
 20
1.564200
  0
VERTEX
  8
0
  6
CONTINUOUS
 10
2.774640
 20
0.440000
  0
VERTEX
  8
0
  6
CONTINUOUS
 10
0.519640
 20
0.440000
  0
VERTEX
  8
0
  6
CONTINUOUS
 10
0.519640
 20
2.189440
  0
VERTEX
  8
0
  6
CONTINUOUS
 10
1.397000
 20
2.189440
  0
VERTEX
  8
0
  6
CONTINUOUS
 10
1.397000
 20
1.876600
  0
VERTEX
  8
0
  6
CONTINUOUS
 10
1.960640
 20
1.876600
  0
VERTEX
  8
0
  6
CONTINUOUS
 10
1.960640
 20
1.564200
  0
VERTEX
  8
0
  6
CONTINUOUS
 10
2.774640
 20
1.564200
  0
SEQEND
  8
0
  0
POLYLINE
  8
0
  6
CONTINUOUS
 66
     1
 40
0.000000
 41
0.000000
  0
VERTEX
  8
0
  6
CONTINUOUS
 10
3.258200
 20
1.564200
  0
VERTEX
  8
0
  6
CONTINUOUS
 10
3.258200
 20
0.440000
  0
VERTEX
  8
0
  6
CONTINUOUS
 10
5.513200
 20
0.440000
  0
VERTEX
  8
0
  6
CONTINUOUS
 10
5.513200
 20
2.189440
  0
VERTEX
  8
0
  6
CONTINUOUS
 10
4.635840
 20
2.189440
  0
VERTEX
  8
0
  6
CONTINUOUS
 10
4.635840
 20
1.876160
  0
VERTEX
  8
0
  6
CONTINUOUS
 10
4.072200
 20
1.876160
  0
VERTEX
  8
0
  6
CONTINUOUS
 10
4.072200
 20
1.564200
  0
VERTEX
  8
0
  6
CONTINUOUS
 10
3.258200
 20
1.564200
  0
SEQEND
  8
0
  0
POLYLINE
  8
0
  6
CONTINUOUS
 66
     1
 40
0.000000
 41
0.000000
  0
VERTEX
  8
0
  6
CONTINUOUS
 10
5.834400
 20
2.268640
  0
VERTEX
  8
0
  6
CONTINUOUS
 10
8.088080
 20
2.268640
  0
VERTEX
  8
0
  6
CONTINUOUS
 10
8.088080
 20
0.521400
  0
VERTEX
  8
0
  6
CONTINUOUS
 10
7.212480
 20
0.521400
  0
VERTEX
  8
0
  6
CONTINUOUS
 10
7.212480
 20
1.645600
  0
VERTEX
  8
0
  6
CONTINUOUS
 10
6.398040
 20
1.645600
  0
VERTEX
  8
0
  6
CONTINUOUS
 10
6.398040
 20
1.957560
  0
VERTEX
  8
0
  6
CONTINUOUS
 10
5.834400
 20
1.957560
  0
VERTEX
  8
0
  6
CONTINUOUS
 10
5.834400
 20
2.270840
  0
VERTEX
  8
0
  6
CONTINUOUS
 10
5.834400
 20
2.268640
  0
SEQEND
  8
0
  0
POLYLINE
  8
0
  6
CONTINUOUS
 66
     1
 40
0.000000
 41
0.000000
  0
VERTEX
  8
0
  6
CONTINUOUS
 10
2.936560
 20
4.058120
  0
VERTEX
  8
0
  6
CONTINUOUS
 10
0.682880
 20
4.058120
  0
VERTEX
  8
0
  6
CONTINUOUS
 10
0.682880
 20
2.310880
  0
VERTEX
  8
0
  6
CONTINUOUS
 10
1.558920
 20
2.310880
  0
VERTEX
  8
0
  6
CONTINUOUS
 10
1.558920
 20
3.435080
  0
VERTEX
  8
0
  6
CONTINUOUS
 10
2.372920
 20
3.435080
  0
VERTEX
  8
0
  6
CONTINUOUS
 10
2.372920
 20
3.747040
  0
VERTEX
  8
0
  6
CONTINUOUS
 10
2.936560
 20
3.747040
  0
VERTEX
  8
0
  6
CONTINUOUS
 10
2.936560
 20
4.060320
  0
VERTEX
  8
0
  6
CONTINUOUS
 10
2.936560
 20
4.058120
  0
SEQEND
  8
0
  0
SOLID
  8
0
 62
    15
 10
0.881760
 20
8.185320
 11
1.521960
 21
8.555360
 12
1.758680
 22
8.185320
 13
2.399320
 23
8.555360
  0
POLYLINE
  8
0
  6
CONTINUOUS
 66
     1
 40
0.000000
 41
0.000000
  0
VERTEX
  8
0
  6
CONTINUOUS
 10
0.881760
 20
8.185320
  0
VERTEX
  8
0
  6
CONTINUOUS
 10
1.521960
 20
8.555360
  0
VERTEX
  8
0
  6
CONTINUOUS
 10
2.399320
 20
8.555360
  0
VERTEX
  8
0
  6
CONTINUOUS
 10
1.758680
 20
8.185320
  0
VERTEX
  8
0
  6
CONTINUOUS
 10
0.881760
 20
8.185320
  0
SEQEND
  8
0
  0
SOLID
  8
0
 62
    15
 10
1.758680
 20
8.185320
 11
2.399320
 21
8.555360
 12
1.758680
 22
7.872480
 13
2.399320
 23
8.242080
  0
POLYLINE
  8
0
  6
CONTINUOUS
 66
     1
 40
0.000000
 41
0.000000
  0
VERTEX
  8
0
  6
CONTINUOUS
 10
1.758680
 20
8.185320
  0
VERTEX
  8
0
  6
CONTINUOUS
 10
2.399320
 20
8.555360
  0
VERTEX
  8
0
  6
CONTINUOUS
 10
2.399320
 20
8.242080
  0
VERTEX
  8
0
  6
CONTINUOUS
 10
1.758680
 20
7.872480
  0
VERTEX
  8
0
  6
CONTINUOUS
 10
1.758680
 20
8.185320
  0
SEQEND
  8
0
  0
SOLID
  8
0
 62
    15
 10
1.758680
 20
7.872480
 11
2.399320
 21
8.242080
 12
2.322320
 22
7.872480
 13
2.962960
 23
8.242080
  0
POLYLINE
  8
0
  6
CONTINUOUS
 66
     1
 40
0.000000
 41
0.000000
  0
VERTEX
  8
0
  6
CONTINUOUS
 10
1.758680
 20
7.872480
  0
VERTEX
  8
0
  6
CONTINUOUS
 10
2.399320
 20
8.242080
  0
VERTEX
  8
0
  6
CONTINUOUS
 10
2.962960
 20
8.242080
  0
VERTEX
  8
0
  6
CONTINUOUS
 10
2.322320
 20
7.872480
  0
VERTEX
  8
0
  6
CONTINUOUS
 10
1.758680
 20
7.872480
  0
SEQEND
  8
0
  0
SOLID
  8
0
 62
    15
 10
2.322320
 20
7.872480
 11
2.962960
 21
8.242080
 12
2.322320
 22
7.560080
 13
2.962960
 23
7.930120
  0
POLYLINE
  8
0
  6
CONTINUOUS
 66
     1
 40
0.000000
 41
0.000000
  0
VERTEX
  8
0
  6
CONTINUOUS
 10
2.322320
 20
7.872480
  0
VERTEX
  8
0
  6
CONTINUOUS
 10
2.962960
 20
8.242080
  0
VERTEX
  8
0
  6
CONTINUOUS
 10
2.962960
 20
7.930120
  0
VERTEX
  8
0
  6
CONTINUOUS
 10
2.322320
 20
7.560080
  0
VERTEX
  8
0
  6
CONTINUOUS
 10
2.322320
 20
7.872480
  0
SEQEND
  8
0
  0
SOLID
  8
0
 62
    15
 10
2.322320
 20
7.560080
 11
2.962960
 21
7.930120
 12
3.136760
 22
7.560080
 13
3.776960
 23
7.930120
  0
POLYLINE
  8
0
  6
CONTINUOUS
 66
     1
 40
0.000000
 41
0.000000
  0
VERTEX
  8
0
  6
CONTINUOUS
 10
2.322320
 20
7.560080
  0
VERTEX
  8
0
  6
CONTINUOUS
 10
2.962960
 20
7.930120
  0
VERTEX
  8
0
  6
CONTINUOUS
 10
3.776960
 20
7.930120
  0
VERTEX
  8
0
  6
CONTINUOUS
 10
3.136760
 20
7.560080
  0
VERTEX
  8
0
  6
CONTINUOUS
 10
2.322320
 20
7.560080
  0
SEQEND
  8
0
  0
SOLID
  8
0
 62
    15
 10
3.136760
 20
7.560080
 11
3.776960
 21
7.930120
 12
3.136760
 22
6.435880
 13
3.776960
 23
6.805920
  0
POLYLINE
  8
0
  6
CONTINUOUS
 66
     1
 40
0.000000
 41
0.000000
  0
VERTEX
  8
0
  6
CONTINUOUS
 10
3.136760
 20
7.560080
  0
VERTEX
  8
0
  6
CONTINUOUS
 10
3.776960
 20
7.930120
  0
VERTEX
  8
0
  6
CONTINUOUS
 10
3.776960
 20
6.805920
  0
VERTEX
  8
0
  6
CONTINUOUS
 10
3.136760
 20
6.435880
  0
VERTEX
  8
0
  6
CONTINUOUS
 10
3.136760
 20
7.560080
  0
SEQEND
  8
0
  0
POLYLINE
  8
0
  6
CONTINUOUS
 66
     1
 40
0.000000
 41
0.000000
  0
VERTEX
  8
0
  6
CONTINUOUS
 10
3.136760
 20
7.560080
  0
VERTEX
  8
0
  6
CONTINUOUS
 10
3.136760
 20
6.435880
  0
VERTEX
  8
0
  6
CONTINUOUS
 10
0.881760
 20
6.435880
  0
VERTEX
  8
0
  6
CONTINUOUS
 10
0.881760
 20
8.185320
  0
VERTEX
  8
0
  6
CONTINUOUS
 10
1.758680
 20
8.185320
  0
VERTEX
  8
0
  6
CONTINUOUS
 10
1.758680
 20
7.872480
  0
VERTEX
  8
0
  6
CONTINUOUS
 10
2.322320
 20
7.872480
  0
VERTEX
  8
0
  6
CONTINUOUS
 10
2.322320
 20
7.560080
  0
VERTEX
  8
0
  6
CONTINUOUS
 10
3.136760
 20
7.560080
  0
SEQEND
  8
0
  0
TEXT
  8
0
 10
1.931600
 20
6.164400
 40
0.137865
  1
BA  1132A
 41
1.000000
  7
SN0
 71
     0
 72
     5
 11
2.727340
 21
6.164400
  0
TEXT
  8
0
 10
2.110240
 20
5.973000
 40
0.137865
  1
1-3/4"
 41
1.000000
  7
SN0
 71
     0
 72
     5
 11
2.549571
 21
5.973000
  0
SOLID
  8
0
 62
    15
 10
6.145920
 20
8.182680
 11
6.790080
 21
8.547000
 12
6.145920
 22
6.435440
 13
6.790080
 23
6.799760
  0
POLYLINE
  8
0
  6
CONTINUOUS
 66
     1
 40
0.000000
 41
0.000000
  0
VERTEX
  8
0
  6
CONTINUOUS
 10
6.145920
 20
8.182680
  0
VERTEX
  8
0
  6
CONTINUOUS
 10
6.790080
 20
8.547000
  0
VERTEX
  8
0
  6
CONTINUOUS
 10
6.790080
 20
6.799760
  0
VERTEX
  8
0
  6
CONTINUOUS
 10
6.145920
 20
6.435440
  0
VERTEX
  8
0
  6
CONTINUOUS
 10
6.145920
 20
8.182680
  0
SEQEND
  8
0
  0
SOLID
  8
0
 62
    15
 10
3.892240
 20
8.185320
 11
4.536400
 21
8.549200
 12
3.892240
 22
8.182680
 13
4.536400
 23
8.547000
  0
POLYLINE
  8
0
  6
CONTINUOUS
 66
     1
 40
0.000000
 41
0.000000
  0
VERTEX
  8
0
  6
CONTINUOUS
 10
3.892240
 20
8.185320
  0
VERTEX
  8
0
  6
CONTINUOUS
 10
4.536400
 20
8.549200
  0
VERTEX
  8
0
  6
CONTINUOUS
 10
4.536400
 20
8.547000
  0
VERTEX
  8
0
  6
CONTINUOUS
 10
3.892240
 20
8.182680
  0
VERTEX
  8
0
  6
CONTINUOUS
 10
3.892240
 20
8.185320
  0
SEQEND
  8
0
  0
SOLID
  8
0
 62
    15
 10
3.892240
 20
8.182680
 11
4.536400
 21
8.547000
 12
6.145920
 22
8.182680
 13
6.790080
 23
8.547000
  0
POLYLINE
  8
0
  6
CONTINUOUS
 66
     1
 40
0.000000
 41
0.000000
  0
VERTEX
  8
0
  6
CONTINUOUS
 10
3.892240
 20
8.182680
  0
VERTEX
  8
0
  6
CONTINUOUS
 10
4.536400
 20
8.547000
  0
VERTEX
  8
0
  6
CONTINUOUS
 10
6.790080
 20
8.547000
  0
VERTEX
  8
0
  6
CONTINUOUS
 10
6.145920
 20
8.182680
  0
VERTEX
  8
0
  6
CONTINUOUS
 10
3.892240
 20
8.182680
  0
SEQEND
  8
0
  0
POLYLINE
  8
0
  6
CONTINUOUS
 66
     1
 40
0.000000
 41
0.000000
  0
VERTEX
  8
0
  6
CONTINUOUS
 10
3.892240
 20
8.182680
  0
VERTEX
  8
0
  6
CONTINUOUS
 10
6.145920
 20
8.182680
  0
VERTEX
  8
0
  6
CONTINUOUS
 10
6.145920
 20
6.435440
  0
VERTEX
  8
0
  6
CONTINUOUS
 10
5.269880
 20
6.435440
  0
VERTEX
  8
0
  6
CONTINUOUS
 10
5.269880
 20
7.559640
  0
VERTEX
  8
0
  6
CONTINUOUS
 10
4.455880
 20
7.559640
  0
VERTEX
  8
0
  6
CONTINUOUS
 10
4.455880
 20
7.872040
  0
VERTEX
  8
0
  6
CONTINUOUS
 10
3.892240
 20
7.872040
  0
VERTEX
  8
0
  6
CONTINUOUS
 10
3.892240
 20
8.185320
  0
VERTEX
  8
0
  6
CONTINUOUS
 10
3.892240
 20
8.182680
  0
SEQEND
  8
0
  0
TEXT
  8
0
 10
4.943840
 20
6.168800
 40
0.137865
  1
BA  1132B
 41
1.000000
  7
SN0
 71
     0
 72
     5
 11
5.739580
 21
6.168800
  0
TEXT
  8
0
 10
5.122040
 20
5.976960
 40
0.137865
  1
1-3/4"
 41
1.000000
  7
SN0
 71
     0
 72
     5
 11
5.561371
 21
5.976960
  0
POLYLINE
  8
0
  6
CONTINUOUS
 66
     1
 40
0.014080
 41
0.014080
  0
VERTEX
  8
0
  6
CONTINUOUS
 10
4.829440
 20
10.097120
  0
VERTEX
  8
0
  6
CONTINUOUS
 10
4.829440
 20
8.973360
  0
VERTEX
  8
0
  6
CONTINUOUS
 10
2.574440
 20
8.973360
  0
VERTEX
  8
0
  6
CONTINUOUS
 10
2.574440
 20
10.722800
  0
VERTEX
  8
0
  6
CONTINUOUS
 10
3.451800
 20
10.722800
  0
VERTEX
  8
0
  6
CONTINUOUS
 10
3.451800
 20
10.409520
  0
VERTEX
  8
0
  6
CONTINUOUS
 10
4.015440
 20
10.409520
  0
VERTEX
  8
0
  6
CONTINUOUS
 10
4.015440
 20
10.097120
  0
VERTEX
  8
0
  6
CONTINUOUS
 10
4.829440
 20
10.097120
  0
SEQEND
  8
0
  0
TEXT
  8
0
 10
2.785640
 20
9.339880
 40
0.137865
  1
BA  1132A
 41
1.000000
  7
SN0
 71
     0
 72
     5
 11
3.581380
 21
9.339880
  0
TEXT
  8
0
 10
2.963840
 20
9.148480
 40
0.137865
  1
1-3/4"
 41
1.000000
  7
SN0
 71
     0
 72
     5
 11
3.403171
 21
9.148480
  0
POLYLINE
  8
0
  6
CONTINUOUS
 66
     1
 40
0.014080
 41
0.014080
  0
VERTEX
  8
0
  6
CONTINUOUS
 10
3.669600
 20
10.732480
  0
VERTEX
  8
0
  6
CONTINUOUS
 10
5.923280
 20
10.732480
  0
VERTEX
  8
0
  6
CONTINUOUS
 10
5.923280
 20
8.985680
  0
VERTEX
  8
0
  6
CONTINUOUS
 10
5.047240
 20
8.985680
  0
VERTEX
  8
0
  6
CONTINUOUS
 10
5.047240
 20
10.109440
  0
VERTEX
  8
0
  6
CONTINUOUS
 10
4.233240
 20
10.109440
  0
VERTEX
  8
0
  6
CONTINUOUS
 10
4.233240
 20
10.421840
  0
VERTEX
  8
0
  6
CONTINUOUS
 10
3.669600
 20
10.421840
  0
VERTEX
  8
0
  6
CONTINUOUS
 10
3.669600
 20
10.735120
  0
VERTEX
  8
0
  6
CONTINUOUS
 10
3.669600
 20
10.732480
  0
SEQEND
  8
0
  0
TEXT
  8
0
 10
4.570280
 20
10.397640
 40
0.137865
  1
BA  1132B
 41
1.000000
  7
SN0
 71
     0
 72
     5
 11
5.366020
 21
10.397640
  0
TEXT
  8
0
 10
4.748920
 20
10.205800
 40
0.137865
  1
1-3/4"
 41
1.000000
  7
SN0
 71
     0
 72
     5
 11
5.188251
 21
10.205800
  0
ENDSEC
  0
EOF
