  0
SECTION
  2
HEADER
  9
$ACADVER
  1
AC1006
  9
$EXTMIN
 10
1.004960
 20
0.834680
  9
$EXTMAX
 10
7.046600
 20
3.817440
  9
$LTSCALE
 40
0.044000
  9
$PDMODE
 70
    35
  9
$PDSIZE
 40
0.035200
  0
ENDSEC
  0
SECTION
  2
TABLES
  0
TABLE
  2
LTYPE
 70
     9
  0
LTYPE
  2
CONTINUOUS
 70
    64
  3
Solid line
 72
    65
 73
     0
 40
0.000000
  0
LTYPE
  2
DASHED
 70
    64
  3
__ __ __ __ __ __ __ __ __ __ __ __ __ __ __
 72
    65
 73
     2
 40
0.000330
 49
0.000220
 49
-0.000110
  0
LTYPE
  2
HIDDEN
 70
    64
  3
 _ _ _ _ _ _ _ _ _ _ _ _ _ _ _ _ _ _ _ _ _ _
 72
    65
 73
     2
 40
0.000165
 49
0.000110
 49
-0.000055
  0
LTYPE
  2
CENTER
 70
    64
  3
____ _ ____ _ ____ _ ____ _ ____ _ ____ _ ____
 72
    65
 73
     4
 40
0.000880
 49
0.000550
 49
-0.000110
 49
0.000110
 49
-0.000110
  0
LTYPE
  2
PHANTOM
 70
    64
  3
_____ _ _ _____ _ _ _____ _ _ _____ _ _ ____
 72
    65
 73
     6
 40
0.001100
 49
0.000550
 49
-0.000110
 49
0.000110
 49
-0.000110
 49
0.000110
 49
-0.000110
  0
LTYPE
  2
DOT
 70
    64
  3
...............................................
 72
    65
 73
     2
 40
0.000110
 49
0.000000
 49
-0.000110
  0
LTYPE
  2
DASHDOT
 70
    64
  3
__ . __ . __ . __ . __ . __ . __ . __ . __ . __
 72
    65
 73
     4
 40
0.000440
 49
0.000220
 49
-0.000110
 49
0.000000
 49
-0.000110
  0
LTYPE
  2
BORDER
 70
    64
  3
__ __ . __ __ . __ __ . __ __ . __ __ . __ __
 72
    65
 73
     6
 40
0.000770
 49
0.000220
 49
-0.000110
 49
0.000220
 49
-0.000110
 49
0.000000
 49
-0.000110
  0
LTYPE
  2
DIVIDE
 70
    64
  3
__ . . __ . . __ . . __ . . __ . . __ . . __
 72
    65
 73
     6
 40
0.000550
 49
0.000220
 49
-0.000110
 49
0.000000
 49
-0.000110
 49
0.000000
 49
-0.000110
  0
LTYPE
  2
DOTDOT
 70
    64
  3
 . .  . .  . .  . .  . .  . . 
 72
    65
 73
     5
 40
0.000242
 49
-0.000110
 49
0.000000
 49
-0.000110
 49
0.000000
 49
-0.000110
  0
ENDTAB
  0
TABLE
  2
STYLE
 70
     2
  0
STYLE
 70
     0
  2
SN0
 40
0.000000
 41
0.000440
 50
0.000000
 71
     0
 42
0.000000
  3
ROMAND
  0
STYLE
 70
    68
  2
SV0
 40
0.000000
 41
0.000440
 50
0.000000
 71
     0
 42
0.000000
  3
ROMAND
  0
ENDTAB
  0
TABLE
  2
LAYER
 70
     3
  0
LAYER
  2
FOREGROUND
 70
    64
 62
     7
  6
CONTINUOUS
  0
LAYER
  2
BACKGROUND
 70
    65
 62
    -7
  6
CONTINUOUS
  0
LAYER
  2
0
 70
    64
 62
     7
  6
CONTINUOUS
  0
ENDTAB
  0
ENDSEC
  0
SECTION
  2
ENTITIES
  0
POLYLINE
  8
FOREGROUND
  6
CONTINUOUS
 66
     1
 40
0.000000
 41
0.000000
  0
VERTEX
  8
FOREGROUND
  6
CONTINUOUS
 10
0.000000
 20
4.652120
  0
VERTEX
  8
FOREGROUND
  6
CONTINUOUS
 10
8.499920
 20
4.652120
  0
VERTEX
  8
FOREGROUND
  6
CONTINUOUS
 10
8.499920
 20
-6.347880
  0
VERTEX
  8
FOREGROUND
  6
CONTINUOUS
 10
0.000000
 20
-6.347880
  0
VERTEX
  8
FOREGROUND
  6
CONTINUOUS
 10
0.000000
 20
4.652120
  0
SEQEND
  8
0
  0
POLYLINE
  8
FOREGROUND
  6
CONTINUOUS
 66
     1
 40
0.000000
 41
0.000000
  0
VERTEX
  8
FOREGROUND
  6
CONTINUOUS
 10
0.000000
 20
4.652120
  0
VERTEX
  8
FOREGROUND
  6
CONTINUOUS
 10
8.499920
 20
4.652120
  0
VERTEX
  8
FOREGROUND
  6
CONTINUOUS
 10
8.499920
 20
-6.347880
  0
VERTEX
  8
FOREGROUND
  6
CONTINUOUS
 10
0.000000
 20
-6.347880
  0
VERTEX
  8
FOREGROUND
  6
CONTINUOUS
 10
0.000000
 20
4.652120
  0
SEQEND
  8
0
  0
POLYLINE
  8
0
  6
CONTINUOUS
 66
     1
 40
0.014080
 41
0.014080
  0
VERTEX
  8
0
  6
CONTINUOUS
 10
3.653760
 20
3.809520
  0
VERTEX
  8
0
  6
CONTINUOUS
 10
1.651760
 20
3.809520
  0
VERTEX
  8
0
  6
CONTINUOUS
 10
1.651760
 20
3.051840
  0
VERTEX
  8
0
  6
CONTINUOUS
 10
6.724520
 20
3.051840
  0
VERTEX
  8
0
  6
CONTINUOUS
 10
6.724520
 20
3.142920
  0
VERTEX
  8
0
  6
CONTINUOUS
 10
6.756640
 20
3.144680
  0
VERTEX
  8
0
  6
CONTINUOUS
 10
6.787880
 20
3.149520
  0
VERTEX
  8
0
  6
CONTINUOUS
 10
6.818240
 20
3.157000
  0
VERTEX
  8
0
  6
CONTINUOUS
 10
6.847280
 20
3.167560
  0
VERTEX
  8
0
  6
CONTINUOUS
 10
6.887760
 20
3.188680
  0
VERTEX
  8
0
  6
CONTINUOUS
 10
6.912840
 20
3.205400
  0
VERTEX
  8
0
  6
CONTINUOUS
 10
6.947160
 20
3.235320
  0
VERTEX
  8
0
  6
CONTINUOUS
 10
6.977080
 20
3.269640
  0
VERTEX
  8
0
  6
CONTINUOUS
 10
7.001280
 20
3.307920
  0
VERTEX
  8
0
  6
CONTINUOUS
 10
7.020640
 20
3.349720
  0
VERTEX
  8
0
  6
CONTINUOUS
 10
7.032960
 20
3.394600
  0
VERTEX
  8
0
  6
CONTINUOUS
 10
7.037800
 20
3.426280
  0
VERTEX
  8
0
  6
CONTINUOUS
 10
7.039560
 20
3.458400
  0
VERTEX
  8
0
  6
CONTINUOUS
 10
7.037800
 20
3.490520
  0
VERTEX
  8
0
  6
CONTINUOUS
 10
7.032960
 20
3.521760
  0
VERTEX
  8
0
  6
CONTINUOUS
 10
7.025480
 20
3.552120
  0
VERTEX
  8
0
  6
CONTINUOUS
 10
7.014920
 20
3.581160
  0
VERTEX
  8
0
  6
CONTINUOUS
 10
6.993800
 20
3.621640
  0
VERTEX
  8
0
  6
CONTINUOUS
 10
6.977080
 20
3.646720
  0
VERTEX
  8
0
  6
CONTINUOUS
 10
6.947160
 20
3.681040
  0
VERTEX
  8
0
  6
CONTINUOUS
 10
6.912840
 20
3.710960
  0
VERTEX
  8
0
  6
CONTINUOUS
 10
6.874560
 20
3.735160
  0
VERTEX
  8
0
  6
CONTINUOUS
 10
6.847280
 20
3.748800
  0
VERTEX
  8
0
  6
CONTINUOUS
 10
6.818240
 20
3.759360
  0
VERTEX
  8
0
  6
CONTINUOUS
 10
6.772480
 20
3.769920
  0
VERTEX
  8
0
  6
CONTINUOUS
 10
6.740800
 20
3.773000
  0
VERTEX
  8
0
  6
CONTINUOUS
 10
6.708240
 20
3.773000
  0
VERTEX
  8
0
  6
CONTINUOUS
 10
6.676560
 20
3.769480
  0
VERTEX
  8
0
  6
CONTINUOUS
 10
6.631240
 20
3.758040
  0
VERTEX
  8
0
  6
CONTINUOUS
 10
6.588560
 20
3.740000
  0
VERTEX
  8
0
  6
CONTINUOUS
 10
6.549840
 20
3.715360
  0
VERTEX
  8
0
  6
CONTINUOUS
 10
6.526080
 20
3.696000
  0
VERTEX
  8
0
  6
CONTINUOUS
 10
6.493960
 20
3.663000
  0
VERTEX
  8
0
  6
CONTINUOUS
 10
6.466680
 20
3.625600
  0
VERTEX
  8
0
  6
CONTINUOUS
 10
6.444240
 20
3.584240
  0
VERTEX
  8
0
  6
CONTINUOUS
 10
6.427960
 20
3.540240
  0
VERTEX
  8
0
  6
CONTINUOUS
 10
6.417840
 20
3.493600
  0
VERTEX
  8
0
  6
CONTINUOUS
 10
6.414760
 20
3.461480
  0
VERTEX
  8
0
  6
CONTINUOUS
 10
6.414320
 20
3.445200
  0
VERTEX
  8
0
  6
CONTINUOUS
 10
6.283200
 20
3.445200
  0
VERTEX
  8
0
  6
CONTINUOUS
 10
6.282760
 20
3.809520
  0
VERTEX
  8
0
  6
CONTINUOUS
 10
3.653760
 20
3.809520
  0
SEQEND
  8
0
  0
TEXT
  8
0
 10
3.548160
 20
3.443880
 40
0.138182
  1
BA  1131 & 494
 41
1.000000
  7
SN0
 71
     0
 72
     5
 11
4.709665
 21
3.443880
  0
TEXT
  8
0
 10
3.632640
 20
3.252040
 40
0.138182
  1
3/4" x 5-5/16"
 41
1.000000
  7
SN0
 71
     0
 72
     5
 11
4.625281
 21
3.252040
  0
SOLID
  8
0
 62
    15
 10
6.301240
 20
1.973840
 11
6.949360
 21
2.348280
 12
6.339520
 22
1.927200
 13
6.987640
 23
2.301640
  0
POLYLINE
  8
0
  6
CONTINUOUS
 66
     1
 40
0.000000
 41
0.000000
  0
VERTEX
  8
0
  6
CONTINUOUS
 10
6.301240
 20
1.973840
  0
VERTEX
  8
0
  6
CONTINUOUS
 10
6.949360
 20
2.348280
  0
VERTEX
  8
0
  6
CONTINUOUS
 10
6.987640
 20
2.301640
  0
VERTEX
  8
0
  6
CONTINUOUS
 10
6.339520
 20
1.927200
  0
VERTEX
  8
0
  6
CONTINUOUS
 10
6.301240
 20
1.973840
  0
SEQEND
  8
0
  0
SOLID
  8
0
 62
    15
 10
5.636400
 20
2.102320
 11
6.284960
 21
2.476760
 12
5.636840
 22
2.096160
 13
6.285400
 23
2.470600
  0
POLYLINE
  8
0
  6
CONTINUOUS
 66
     1
 40
0.000000
 41
0.000000
  0
VERTEX
  8
0
  6
CONTINUOUS
 10
5.636400
 20
2.102320
  0
VERTEX
  8
0
  6
CONTINUOUS
 10
6.284960
 20
2.476760
  0
VERTEX
  8
0
  6
CONTINUOUS
 10
6.285400
 20
2.470600
  0
VERTEX
  8
0
  6
CONTINUOUS
 10
5.636840
 20
2.096160
  0
VERTEX
  8
0
  6
CONTINUOUS
 10
5.636400
 20
2.102320
  0
SEQEND
  8
0
  0
SOLID
  8
0
 62
    15
 10
5.636840
 20
2.096160
 11
6.285400
 21
2.470600
 12
5.636840
 22
1.738000
 13
6.285400
 23
2.112440
  0
POLYLINE
  8
0
  6
CONTINUOUS
 66
     1
 40
0.000000
 41
0.000000
  0
VERTEX
  8
0
  6
CONTINUOUS
 10
5.636840
 20
2.096160
  0
VERTEX
  8
0
  6
CONTINUOUS
 10
6.285400
 20
2.470600
  0
VERTEX
  8
0
  6
CONTINUOUS
 10
6.285400
 20
2.112440
  0
VERTEX
  8
0
  6
CONTINUOUS
 10
5.636840
 20
1.738000
  0
VERTEX
  8
0
  6
CONTINUOUS
 10
5.636840
 20
2.096160
  0
SEQEND
  8
0
  0
SOLID
  8
0
 62
    15
 10
5.636840
 20
1.738000
 11
6.285400
 21
2.112440
 12
5.767960
 22
1.738000
 13
6.416080
 23
2.112440
  0
POLYLINE
  8
0
  6
CONTINUOUS
 66
     1
 40
0.000000
 41
0.000000
  0
VERTEX
  8
0
  6
CONTINUOUS
 10
5.636840
 20
1.738000
  0
VERTEX
  8
0
  6
CONTINUOUS
 10
6.285400
 20
2.112440
  0
VERTEX
  8
0
  6
CONTINUOUS
 10
6.416080
 20
2.112440
  0
VERTEX
  8
0
  6
CONTINUOUS
 10
5.767960
 20
1.738000
  0
VERTEX
  8
0
  6
CONTINUOUS
 10
5.636840
 20
1.738000
  0
SEQEND
  8
0
  0
SOLID
  8
0
 62
    15
 10
5.956280
 20
2.039400
 11
6.604840
 21
2.413840
 12
6.015240
 22
2.059200
 13
6.663360
 23
2.433640
  0
POLYLINE
  8
0
  6
CONTINUOUS
 66
     1
 40
0.000000
 41
0.000000
  0
VERTEX
  8
0
  6
CONTINUOUS
 10
5.956280
 20
2.039400
  0
VERTEX
  8
0
  6
CONTINUOUS
 10
6.604840
 20
2.413840
  0
VERTEX
  8
0
  6
CONTINUOUS
 10
6.663360
 20
2.433640
  0
VERTEX
  8
0
  6
CONTINUOUS
 10
6.015240
 20
2.059200
  0
VERTEX
  8
0
  6
CONTINUOUS
 10
5.956280
 20
2.039400
  0
SEQEND
  8
0
  0
SOLID
  8
0
 62
    15
 10
6.015240
 20
2.059200
 11
6.663360
 21
2.433640
 12
6.046040
 22
2.064480
 13
6.694160
 23
2.438920
  0
POLYLINE
  8
0
  6
CONTINUOUS
 66
     1
 40
0.000000
 41
0.000000
  0
VERTEX
  8
0
  6
CONTINUOUS
 10
6.015240
 20
2.059200
  0
VERTEX
  8
0
  6
CONTINUOUS
 10
6.663360
 20
2.433640
  0
VERTEX
  8
0
  6
CONTINUOUS
 10
6.694160
 20
2.438920
  0
VERTEX
  8
0
  6
CONTINUOUS
 10
6.046040
 20
2.064480
  0
VERTEX
  8
0
  6
CONTINUOUS
 10
6.015240
 20
2.059200
  0
SEQEND
  8
0
  0
SOLID
  8
0
 62
    15
 10
6.046040
 20
2.064480
 11
6.694160
 21
2.438920
 12
6.078600
 22
2.066240
 13
6.726720
 23
2.440680
  0
POLYLINE
  8
0
  6
CONTINUOUS
 66
     1
 40
0.000000
 41
0.000000
  0
VERTEX
  8
0
  6
CONTINUOUS
 10
6.046040
 20
2.064480
  0
VERTEX
  8
0
  6
CONTINUOUS
 10
6.694160
 20
2.438920
  0
VERTEX
  8
0
  6
CONTINUOUS
 10
6.726720
 20
2.440680
  0
VERTEX
  8
0
  6
CONTINUOUS
 10
6.078600
 20
2.066240
  0
VERTEX
  8
0
  6
CONTINUOUS
 10
6.046040
 20
2.064480
  0
SEQEND
  8
0
  0
SOLID
  8
0
 62
    15
 10
6.078600
 20
2.066240
 11
6.726720
 21
2.440680
 12
6.141960
 22
2.059640
 13
6.790080
 23
2.434080
  0
POLYLINE
  8
0
  6
CONTINUOUS
 66
     1
 40
0.000000
 41
0.000000
  0
VERTEX
  8
0
  6
CONTINUOUS
 10
6.078600
 20
2.066240
  0
VERTEX
  8
0
  6
CONTINUOUS
 10
6.726720
 20
2.440680
  0
VERTEX
  8
0
  6
CONTINUOUS
 10
6.790080
 20
2.434080
  0
VERTEX
  8
0
  6
CONTINUOUS
 10
6.141960
 20
2.059640
  0
VERTEX
  8
0
  6
CONTINUOUS
 10
6.078600
 20
2.066240
  0
SEQEND
  8
0
  0
SOLID
  8
0
 62
    15
 10
6.141960
 20
2.059640
 11
6.790080
 21
2.434080
 12
6.200920
 22
2.041160
 13
6.849040
 23
2.416040
  0
POLYLINE
  8
0
  6
CONTINUOUS
 66
     1
 40
0.000000
 41
0.000000
  0
VERTEX
  8
0
  6
CONTINUOUS
 10
6.141960
 20
2.059640
  0
VERTEX
  8
0
  6
CONTINUOUS
 10
6.790080
 20
2.434080
  0
VERTEX
  8
0
  6
CONTINUOUS
 10
6.849040
 20
2.416040
  0
VERTEX
  8
0
  6
CONTINUOUS
 10
6.200920
 20
2.041160
  0
VERTEX
  8
0
  6
CONTINUOUS
 10
6.141960
 20
2.059640
  0
SEQEND
  8
0
  0
SOLID
  8
0
 62
    15
 10
6.200920
 20
2.041160
 11
6.849040
 21
2.416040
 12
6.254600
 22
2.012120
 13
6.902720
 23
2.387000
  0
POLYLINE
  8
0
  6
CONTINUOUS
 66
     1
 40
0.000000
 41
0.000000
  0
VERTEX
  8
0
  6
CONTINUOUS
 10
6.200920
 20
2.041160
  0
VERTEX
  8
0
  6
CONTINUOUS
 10
6.849040
 20
2.416040
  0
VERTEX
  8
0
  6
CONTINUOUS
 10
6.902720
 20
2.387000
  0
VERTEX
  8
0
  6
CONTINUOUS
 10
6.254600
 20
2.012120
  0
VERTEX
  8
0
  6
CONTINUOUS
 10
6.200920
 20
2.041160
  0
SEQEND
  8
0
  0
SOLID
  8
0
 62
    15
 10
6.254600
 20
2.012120
 11
6.902720
 21
2.387000
 12
6.301240
 22
1.973840
 13
6.949360
 23
2.348280
  0
POLYLINE
  8
0
  6
CONTINUOUS
 66
     1
 40
0.000000
 41
0.000000
  0
VERTEX
  8
0
  6
CONTINUOUS
 10
6.254600
 20
2.012120
  0
VERTEX
  8
0
  6
CONTINUOUS
 10
6.902720
 20
2.387000
  0
VERTEX
  8
0
  6
CONTINUOUS
 10
6.949360
 20
2.348280
  0
VERTEX
  8
0
  6
CONTINUOUS
 10
6.301240
 20
1.973840
  0
VERTEX
  8
0
  6
CONTINUOUS
 10
6.254600
 20
2.012120
  0
SEQEND
  8
0
  0
SOLID
  8
0
 62
    15
 10
4.640240
 20
2.102320
 11
5.288360
 21
2.476760
 12
5.636400
 22
2.102320
 13
6.284960
 23
2.476760
  0
POLYLINE
  8
0
  6
CONTINUOUS
 66
     1
 40
0.000000
 41
0.000000
  0
VERTEX
  8
0
  6
CONTINUOUS
 10
4.640240
 20
2.102320
  0
VERTEX
  8
0
  6
CONTINUOUS
 10
5.288360
 20
2.476760
  0
VERTEX
  8
0
  6
CONTINUOUS
 10
6.284960
 20
2.476760
  0
VERTEX
  8
0
  6
CONTINUOUS
 10
5.636400
 20
2.102320
  0
VERTEX
  8
0
  6
CONTINUOUS
 10
4.640240
 20
2.102320
  0
SEQEND
  8
0
  0
SOLID
  8
0
 62
    15
 10
6.339520
 20
1.927200
 11
6.987640
 21
2.301640
 12
6.368560
 22
1.873520
 13
7.016680
 23
2.248400
  0
POLYLINE
  8
0
  6
CONTINUOUS
 66
     1
 40
0.000000
 41
0.000000
  0
VERTEX
  8
0
  6
CONTINUOUS
 10
6.339520
 20
1.927200
  0
VERTEX
  8
0
  6
CONTINUOUS
 10
6.987640
 20
2.301640
  0
VERTEX
  8
0
  6
CONTINUOUS
 10
7.016680
 20
2.248400
  0
VERTEX
  8
0
  6
CONTINUOUS
 10
6.368560
 20
1.873520
  0
VERTEX
  8
0
  6
CONTINUOUS
 10
6.339520
 20
1.927200
  0
SEQEND
  8
0
  0
SOLID
  8
0
 62
    15
 10
6.368560
 20
1.873520
 11
7.016680
 21
2.248400
 12
6.387040
 22
1.814560
 13
7.035160
 23
2.189000
  0
POLYLINE
  8
0
  6
CONTINUOUS
 66
     1
 40
0.000000
 41
0.000000
  0
VERTEX
  8
0
  6
CONTINUOUS
 10
6.368560
 20
1.873520
  0
VERTEX
  8
0
  6
CONTINUOUS
 10
7.016680
 20
2.248400
  0
VERTEX
  8
0
  6
CONTINUOUS
 10
7.035160
 20
2.189000
  0
VERTEX
  8
0
  6
CONTINUOUS
 10
6.387040
 20
1.814560
  0
VERTEX
  8
0
  6
CONTINUOUS
 10
6.368560
 20
1.873520
  0
SEQEND
  8
0
  0
SOLID
  8
0
 62
    15
 10
6.387040
 20
1.814560
 11
7.035160
 21
2.189000
 12
6.393640
 22
1.750760
 13
7.041760
 23
2.125640
  0
POLYLINE
  8
0
  6
CONTINUOUS
 66
     1
 40
0.000000
 41
0.000000
  0
VERTEX
  8
0
  6
CONTINUOUS
 10
6.387040
 20
1.814560
  0
VERTEX
  8
0
  6
CONTINUOUS
 10
7.035160
 20
2.189000
  0
VERTEX
  8
0
  6
CONTINUOUS
 10
7.041760
 20
2.125640
  0
VERTEX
  8
0
  6
CONTINUOUS
 10
6.393640
 20
1.750760
  0
VERTEX
  8
0
  6
CONTINUOUS
 10
6.387040
 20
1.814560
  0
SEQEND
  8
0
  0
SOLID
  8
0
 62
    15
 10
6.393640
 20
1.750760
 11
7.041760
 21
2.125640
 12
6.387040
 22
1.687400
 13
7.035160
 23
2.061840
  0
POLYLINE
  8
0
  6
CONTINUOUS
 66
     1
 40
0.000000
 41
0.000000
  0
VERTEX
  8
0
  6
CONTINUOUS
 10
6.393640
 20
1.750760
  0
VERTEX
  8
0
  6
CONTINUOUS
 10
7.041760
 20
2.125640
  0
VERTEX
  8
0
  6
CONTINUOUS
 10
7.035160
 20
2.061840
  0
VERTEX
  8
0
  6
CONTINUOUS
 10
6.387040
 20
1.687400
  0
VERTEX
  8
0
  6
CONTINUOUS
 10
6.393640
 20
1.750760
  0
SEQEND
  8
0
  0
SOLID
  8
0
 62
    15
 10
6.368560
 20
1.628440
 11
7.016680
 21
2.002880
 12
6.339520
 22
1.574760
 13
6.987640
 23
1.949200
  0
POLYLINE
  8
0
  6
CONTINUOUS
 66
     1
 40
0.000000
 41
0.000000
  0
VERTEX
  8
0
  6
CONTINUOUS
 10
6.368560
 20
1.628440
  0
VERTEX
  8
0
  6
CONTINUOUS
 10
7.016680
 20
2.002880
  0
VERTEX
  8
0
  6
CONTINUOUS
 10
6.987640
 20
1.949200
  0
VERTEX
  8
0
  6
CONTINUOUS
 10
6.339520
 20
1.574760
  0
VERTEX
  8
0
  6
CONTINUOUS
 10
6.368560
 20
1.628440
  0
SEQEND
  8
0
  0
SOLID
  8
0
 62
    15
 10
6.387040
 20
1.687400
 11
7.035160
 21
2.061840
 12
6.368560
 22
1.628440
 13
7.016680
 23
2.002880
  0
POLYLINE
  8
0
  6
CONTINUOUS
 66
     1
 40
0.000000
 41
0.000000
  0
VERTEX
  8
0
  6
CONTINUOUS
 10
6.387040
 20
1.687400
  0
VERTEX
  8
0
  6
CONTINUOUS
 10
7.035160
 20
2.061840
  0
VERTEX
  8
0
  6
CONTINUOUS
 10
7.016680
 20
2.002880
  0
VERTEX
  8
0
  6
CONTINUOUS
 10
6.368560
 20
1.628440
  0
VERTEX
  8
0
  6
CONTINUOUS
 10
6.387040
 20
1.687400
  0
SEQEND
  8
0
  0
SOLID
  8
0
 62
    15
 10
6.339520
 20
1.574760
 11
6.987640
 21
1.949200
 12
6.301240
 22
1.528120
 13
6.949360
 23
1.902560
  0
POLYLINE
  8
0
  6
CONTINUOUS
 66
     1
 40
0.000000
 41
0.000000
  0
VERTEX
  8
0
  6
CONTINUOUS
 10
6.339520
 20
1.574760
  0
VERTEX
  8
0
  6
CONTINUOUS
 10
6.987640
 20
1.949200
  0
VERTEX
  8
0
  6
CONTINUOUS
 10
6.949360
 20
1.902560
  0
VERTEX
  8
0
  6
CONTINUOUS
 10
6.301240
 20
1.528120
  0
VERTEX
  8
0
  6
CONTINUOUS
 10
6.339520
 20
1.574760
  0
SEQEND
  8
0
  0
SOLID
  8
0
 62
    15
 10
6.078600
 20
1.435720
 11
6.726720
 21
1.810600
 12
6.078600
 22
1.344640
 13
6.726720
 23
1.719080
  0
POLYLINE
  8
0
  6
CONTINUOUS
 66
     1
 40
0.000000
 41
0.000000
  0
VERTEX
  8
0
  6
CONTINUOUS
 10
6.078600
 20
1.435720
  0
VERTEX
  8
0
  6
CONTINUOUS
 10
6.726720
 20
1.810600
  0
VERTEX
  8
0
  6
CONTINUOUS
 10
6.726720
 20
1.719080
  0
VERTEX
  8
0
  6
CONTINUOUS
 10
6.078600
 20
1.344640
  0
VERTEX
  8
0
  6
CONTINUOUS
 10
6.078600
 20
1.435720
  0
SEQEND
  8
0
  0
SOLID
  8
0
 62
    15
 10
6.301240
 20
1.528120
 11
6.949360
 21
1.902560
 12
6.254600
 22
1.489840
 13
6.902720
 23
1.864280
  0
POLYLINE
  8
0
  6
CONTINUOUS
 66
     1
 40
0.000000
 41
0.000000
  0
VERTEX
  8
0
  6
CONTINUOUS
 10
6.301240
 20
1.528120
  0
VERTEX
  8
0
  6
CONTINUOUS
 10
6.949360
 20
1.902560
  0
VERTEX
  8
0
  6
CONTINUOUS
 10
6.902720
 20
1.864280
  0
VERTEX
  8
0
  6
CONTINUOUS
 10
6.254600
 20
1.489840
  0
VERTEX
  8
0
  6
CONTINUOUS
 10
6.301240
 20
1.528120
  0
SEQEND
  8
0
  0
SOLID
  8
0
 62
    15
 10
1.005840
 20
2.102320
 11
1.653960
 21
2.476760
 12
3.007400
 22
2.102320
 13
3.655520
 23
2.476760
  0
POLYLINE
  8
0
  6
CONTINUOUS
 66
     1
 40
0.000000
 41
0.000000
  0
VERTEX
  8
0
  6
CONTINUOUS
 10
1.005840
 20
2.102320
  0
VERTEX
  8
0
  6
CONTINUOUS
 10
1.653960
 20
2.476760
  0
VERTEX
  8
0
  6
CONTINUOUS
 10
3.655520
 20
2.476760
  0
VERTEX
  8
0
  6
CONTINUOUS
 10
3.007400
 20
2.102320
  0
VERTEX
  8
0
  6
CONTINUOUS
 10
1.005840
 20
2.102320
  0
SEQEND
  8
0
  0
SOLID
  8
0
 62
    15
 10
3.007400
 20
2.102320
 11
3.655520
 21
2.476760
 12
4.640240
 22
2.102320
 13
5.288360
 23
2.476760
  0
POLYLINE
  8
0
  6
CONTINUOUS
 66
     1
 40
0.000000
 41
0.000000
  0
VERTEX
  8
0
  6
CONTINUOUS
 10
3.007400
 20
2.102320
  0
VERTEX
  8
0
  6
CONTINUOUS
 10
3.655520
 20
2.476760
  0
VERTEX
  8
0
  6
CONTINUOUS
 10
5.288360
 20
2.476760
  0
VERTEX
  8
0
  6
CONTINUOUS
 10
4.640240
 20
2.102320
  0
VERTEX
  8
0
  6
CONTINUOUS
 10
3.007400
 20
2.102320
  0
SEQEND
  8
0
  0
POLYLINE
  8
0
  6
CONTINUOUS
 66
     1
 40
0.000000
 41
0.000000
  0
VERTEX
  8
0
  6
CONTINUOUS
 10
4.640240
 20
2.102320
  0
VERTEX
  8
0
  6
CONTINUOUS
 10
5.636400
 20
2.102320
  0
VERTEX
  8
0
  6
CONTINUOUS
 10
5.636840
 20
2.096160
  0
VERTEX
  8
0
  6
CONTINUOUS
 10
5.636840
 20
1.738000
  0
VERTEX
  8
0
  6
CONTINUOUS
 10
5.767960
 20
1.738000
  0
VERTEX
  8
0
  6
CONTINUOUS
 10
5.774120
 20
1.801800
  0
VERTEX
  8
0
  6
CONTINUOUS
 10
5.792160
 20
1.862520
  0
VERTEX
  8
0
  6
CONTINUOUS
 10
5.820320
 20
1.918400
  0
VERTEX
  8
0
  6
CONTINUOUS
 10
5.858160
 20
1.967240
  0
VERTEX
  8
0
  6
CONTINUOUS
 10
5.903480
 20
2.008160
  0
VERTEX
  8
0
  6
CONTINUOUS
 10
5.956280
 20
2.039400
  0
VERTEX
  8
0
  6
CONTINUOUS
 10
6.015240
 20
2.059200
  0
VERTEX
  8
0
  6
CONTINUOUS
 10
6.046040
 20
2.064480
  0
VERTEX
  8
0
  6
CONTINUOUS
 10
6.078600
 20
2.066240
  0
VERTEX
  8
0
  6
CONTINUOUS
 10
6.141960
 20
2.059640
  0
VERTEX
  8
0
  6
CONTINUOUS
 10
6.200920
 20
2.041160
  0
VERTEX
  8
0
  6
CONTINUOUS
 10
6.254600
 20
2.012120
  0
VERTEX
  8
0
  6
CONTINUOUS
 10
6.301240
 20
1.973840
  0
VERTEX
  8
0
  6
CONTINUOUS
 10
6.339520
 20
1.927200
  0
VERTEX
  8
0
  6
CONTINUOUS
 10
6.368560
 20
1.873520
  0
VERTEX
  8
0
  6
CONTINUOUS
 10
6.387040
 20
1.814560
  0
VERTEX
  8
0
  6
CONTINUOUS
 10
6.393640
 20
1.750760
  0
VERTEX
  8
0
  6
CONTINUOUS
 10
6.387040
 20
1.687400
  0
VERTEX
  8
0
  6
CONTINUOUS
 10
6.368560
 20
1.628440
  0
VERTEX
  8
0
  6
CONTINUOUS
 10
6.339520
 20
1.574760
  0
VERTEX
  8
0
  6
CONTINUOUS
 10
6.301240
 20
1.528120
  0
VERTEX
  8
0
  6
CONTINUOUS
 10
6.254600
 20
1.489840
  0
VERTEX
  8
0
  6
CONTINUOUS
 10
6.200920
 20
1.460800
  0
VERTEX
  8
0
  6
CONTINUOUS
 10
6.141960
 20
1.442320
  0
VERTEX
  8
0
  6
CONTINUOUS
 10
6.078600
 20
1.435720
  0
VERTEX
  8
0
  6
CONTINUOUS
 10
6.078600
 20
1.344640
  0
VERTEX
  8
0
  6
CONTINUOUS
 10
1.005840
 20
1.344640
  0
VERTEX
  8
0
  6
CONTINUOUS
 10
1.005840
 20
2.102320
  0
VERTEX
  8
0
  6
CONTINUOUS
 10
3.007400
 20
2.102320
  0
VERTEX
  8
0
  6
CONTINUOUS
 10
4.640240
 20
2.102320
  0
SEQEND
  8
0
  0
TEXT
  8
0
 10
3.442560
 20
1.077120
 40
0.138182
  1
BA  1131 & 494
 41
1.000000
  7
SN0
 71
     0
 72
     5
 11
4.604065
 21
1.077120
  0
TEXT
  8
0
 10
3.526600
 20
0.885720
 40
0.138182
  1
3/4" x 5-5/16"
 41
1.000000
  7
SN0
 71
     0
 72
     5
 11
4.519241
 21
0.885720
  0
ENDSEC
  0
EOF
