  0
SECTION
  2
HEADER
  9
$ACADVER
  1
AC1006
  9
$EXTMIN
 10
2.071960
 20
0.823680
  9
$EXTMAX
 10
6.842880
 20
8.912640
  9
$LTSCALE
 40
0.044000
  9
$PDMODE
 70
    35
  9
$PDSIZE
 40
0.035200
  0
ENDSEC
  0
SECTION
  2
TABLES
  0
TABLE
  2
LTYPE
 70
     9
  0
LTYPE
  2
CONTINUOUS
 70
    64
  3
Solid line
 72
    65
 73
     0
 40
0.000000
  0
LTYPE
  2
DASHED
 70
    64
  3
__ __ __ __ __ __ __ __ __ __ __ __ __ __ __
 72
    65
 73
     2
 40
0.000330
 49
0.000220
 49
-0.000110
  0
LTYPE
  2
HIDDEN
 70
    64
  3
 _ _ _ _ _ _ _ _ _ _ _ _ _ _ _ _ _ _ _ _ _ _
 72
    65
 73
     2
 40
0.000165
 49
0.000110
 49
-0.000055
  0
LTYPE
  2
CENTER
 70
    64
  3
____ _ ____ _ ____ _ ____ _ ____ _ ____ _ ____
 72
    65
 73
     4
 40
0.000880
 49
0.000550
 49
-0.000110
 49
0.000110
 49
-0.000110
  0
LTYPE
  2
PHANTOM
 70
    64
  3
_____ _ _ _____ _ _ _____ _ _ _____ _ _ ____
 72
    65
 73
     6
 40
0.001100
 49
0.000550
 49
-0.000110
 49
0.000110
 49
-0.000110
 49
0.000110
 49
-0.000110
  0
LTYPE
  2
DOT
 70
    64
  3
...............................................
 72
    65
 73
     2
 40
0.000110
 49
0.000000
 49
-0.000110
  0
LTYPE
  2
DASHDOT
 70
    64
  3
__ . __ . __ . __ . __ . __ . __ . __ . __ . __
 72
    65
 73
     4
 40
0.000440
 49
0.000220
 49
-0.000110
 49
0.000000
 49
-0.000110
  0
LTYPE
  2
BORDER
 70
    64
  3
__ __ . __ __ . __ __ . __ __ . __ __ . __ __
 72
    65
 73
     6
 40
0.000770
 49
0.000220
 49
-0.000110
 49
0.000220
 49
-0.000110
 49
0.000000
 49
-0.000110
  0
LTYPE
  2
DIVIDE
 70
    64
  3
__ . . __ . . __ . . __ . . __ . . __ . . __
 72
    65
 73
     6
 40
0.000550
 49
0.000220
 49
-0.000110
 49
0.000000
 49
-0.000110
 49
0.000000
 49
-0.000110
  0
LTYPE
  2
DOTDOT
 70
    64
  3
 . .  . .  . .  . .  . .  . . 
 72
    65
 73
     5
 40
0.000242
 49
-0.000110
 49
0.000000
 49
-0.000110
 49
0.000000
 49
-0.000110
  0
ENDTAB
  0
TABLE
  2
STYLE
 70
     2
  0
STYLE
 70
     0
  2
SN0
 40
0.000000
 41
0.000440
 50
0.000000
 71
     0
 42
0.000000
  3
ROMAND
  0
STYLE
 70
    68
  2
SV0
 40
0.000000
 41
0.000440
 50
0.000000
 71
     0
 42
0.000000
  3
ROMAND
  0
ENDTAB
  0
TABLE
  2
LAYER
 70
     3
  0
LAYER
  2
FOREGROUND
 70
    64
 62
     7
  6
CONTINUOUS
  0
LAYER
  2
BACKGROUND
 70
    65
 62
    -7
  6
CONTINUOUS
  0
LAYER
  2
0
 70
    64
 62
     7
  6
CONTINUOUS
  0
ENDTAB
  0
ENDSEC
  0
SECTION
  2
ENTITIES
  0
POLYLINE
  8
FOREGROUND
  6
CONTINUOUS
 66
     1
 40
0.000000
 41
0.000000
  0
VERTEX
  8
FOREGROUND
  6
CONTINUOUS
 10
0.000000
 20
9.736320
  0
VERTEX
  8
FOREGROUND
  6
CONTINUOUS
 10
8.499920
 20
9.736320
  0
VERTEX
  8
FOREGROUND
  6
CONTINUOUS
 10
8.499920
 20
-1.263680
  0
VERTEX
  8
FOREGROUND
  6
CONTINUOUS
 10
0.000000
 20
-1.263680
  0
VERTEX
  8
FOREGROUND
  6
CONTINUOUS
 10
0.000000
 20
9.736320
  0
SEQEND
  8
0
  0
POLYLINE
  8
FOREGROUND
  6
CONTINUOUS
 66
     1
 40
0.000000
 41
0.000000
  0
VERTEX
  8
FOREGROUND
  6
CONTINUOUS
 10
0.000000
 20
9.736320
  0
VERTEX
  8
FOREGROUND
  6
CONTINUOUS
 10
8.499920
 20
9.736320
  0
VERTEX
  8
FOREGROUND
  6
CONTINUOUS
 10
8.499920
 20
-1.263680
  0
VERTEX
  8
FOREGROUND
  6
CONTINUOUS
 10
0.000000
 20
-1.263680
  0
VERTEX
  8
FOREGROUND
  6
CONTINUOUS
 10
0.000000
 20
9.736320
  0
SEQEND
  8
0
  0
POLYLINE
  8
0
  6
CONTINUOUS
 66
     1
 40
0.000000
 41
0.000000
  0
VERTEX
  8
0
  6
CONTINUOUS
 10
6.832760
 20
1.702360
  0
VERTEX
  8
0
  6
CONTINUOUS
 10
6.339960
 20
1.702360
  0
VERTEX
  8
0
  6
CONTINUOUS
 10
6.339960
 20
1.617000
  0
VERTEX
  8
0
  6
CONTINUOUS
 10
6.254600
 20
1.617000
  0
VERTEX
  8
0
  6
CONTINUOUS
 10
6.226000
 20
1.523280
  0
VERTEX
  8
0
  6
CONTINUOUS
 10
6.189480
 20
1.523280
  0
VERTEX
  8
0
  6
CONTINUOUS
 10
6.174960
 20
1.561120
  0
VERTEX
  8
0
  6
CONTINUOUS
 10
6.157800
 20
1.592800
  0
VERTEX
  8
0
  6
CONTINUOUS
 10
6.138440
 20
1.618760
  0
VERTEX
  8
0
  6
CONTINUOUS
 10
6.117320
 20
1.639440
  0
VERTEX
  8
0
  6
CONTINUOUS
 10
6.094000
 20
1.654840
  0
VERTEX
  8
0
  6
CONTINUOUS
 10
6.069800
 20
1.665840
  0
VERTEX
  8
0
  6
CONTINUOUS
 10
6.044280
 20
1.672440
  0
VERTEX
  8
0
  6
CONTINUOUS
 10
6.018320
 20
1.675520
  0
VERTEX
  8
0
  6
CONTINUOUS
 10
5.991920
 20
1.675520
  0
VERTEX
  8
0
  6
CONTINUOUS
 10
5.965080
 20
1.672440
  0
VERTEX
  8
0
  6
CONTINUOUS
 10
5.939120
 20
1.666720
  0
VERTEX
  8
0
  6
CONTINUOUS
 10
5.913160
 20
1.659240
  0
VERTEX
  8
0
  6
CONTINUOUS
 10
5.865200
 20
1.639440
  0
VERTEX
  8
0
  6
CONTINUOUS
 10
5.822960
 20
1.617000
  0
VERTEX
  8
0
  6
CONTINUOUS
 10
5.768400
 20
1.586200
  0
VERTEX
  8
0
  6
CONTINUOUS
 10
5.732760
 20
1.571680
  0
VERTEX
  8
0
  6
CONTINUOUS
 10
5.705040
 20
1.565960
  0
VERTEX
  8
0
  6
CONTINUOUS
 10
5.685680
 20
1.565080
  0
VERTEX
  8
0
  6
CONTINUOUS
 10
5.654440
 20
1.568600
  0
VERTEX
  8
0
  6
CONTINUOUS
 10
5.620120
 20
1.579600
  0
VERTEX
  8
0
  6
CONTINUOUS
 10
5.581400
 20
1.598080
  0
VERTEX
  8
0
  6
CONTINUOUS
 10
5.537840
 20
1.625800
  0
VERTEX
  8
0
  6
CONTINUOUS
 10
5.488560
 20
1.663200
  0
VERTEX
  8
0
  6
CONTINUOUS
 10
5.452040
 20
1.694440
  0
VERTEX
  8
0
  6
CONTINUOUS
 10
5.379000
 20
1.580480
  0
VERTEX
  8
0
  6
CONTINUOUS
 10
5.350400
 20
1.580480
  0
VERTEX
  8
0
  6
CONTINUOUS
 10
5.324440
 20
1.597640
  0
VERTEX
  8
0
  6
CONTINUOUS
 10
5.295840
 20
1.610400
  0
VERTEX
  8
0
  6
CONTINUOUS
 10
5.265040
 20
1.617880
  0
VERTEX
  8
0
  6
CONTINUOUS
 10
5.233800
 20
1.620080
  0
VERTEX
  8
0
  6
CONTINUOUS
 10
5.202560
 20
1.617000
  0
VERTEX
  8
0
  6
CONTINUOUS
 10
5.187160
 20
1.613920
  0
VERTEX
  8
0
  6
CONTINUOUS
 10
5.157680
 20
1.602920
  0
VERTEX
  8
0
  6
CONTINUOUS
 10
5.130400
 20
1.586640
  0
VERTEX
  8
0
  6
CONTINUOUS
 10
5.118080
 20
1.576520
  0
VERTEX
  8
0
  6
CONTINUOUS
 10
5.027880
 20
1.606000
  0
VERTEX
  8
0
  6
CONTINUOUS
 10
4.916120
 20
1.637240
  0
VERTEX
  8
0
  6
CONTINUOUS
 10
4.814920
 20
1.660560
  0
VERTEX
  8
0
  6
CONTINUOUS
 10
4.702720
 20
1.680360
  0
VERTEX
  8
0
  6
CONTINUOUS
 10
4.607240
 20
1.691800
  0
VERTEX
  8
0
  6
CONTINUOUS
 10
4.502080
 20
1.697960
  0
VERTEX
  8
0
  6
CONTINUOUS
 10
4.411440
 20
1.697960
  0
VERTEX
  8
0
  6
CONTINUOUS
 10
4.305840
 20
1.691800
  0
VERTEX
  8
0
  6
CONTINUOUS
 10
4.209920
 20
1.680360
  0
VERTEX
  8
0
  6
CONTINUOUS
 10
4.097720
 20
1.660560
  0
VERTEX
  8
0
  6
CONTINUOUS
 10
3.996080
 20
1.637240
  0
VERTEX
  8
0
  6
CONTINUOUS
 10
3.884320
 20
1.606000
  0
VERTEX
  8
0
  6
CONTINUOUS
 10
3.794120
 20
1.576520
  0
VERTEX
  8
0
  6
CONTINUOUS
 10
3.768600
 20
1.595880
  0
VERTEX
  8
0
  6
CONTINUOUS
 10
3.740000
 20
1.609520
  0
VERTEX
  8
0
  6
CONTINUOUS
 10
3.710080
 20
1.617440
  0
VERTEX
  8
0
  6
CONTINUOUS
 10
3.678840
 20
1.620520
  0
VERTEX
  8
0
  6
CONTINUOUS
 10
3.663000
 20
1.620080
  0
VERTEX
  8
0
  6
CONTINUOUS
 10
3.631760
 20
1.614800
  0
VERTEX
  8
0
  6
CONTINUOUS
 10
3.602280
 20
1.604680
  0
VERTEX
  8
0
  6
CONTINUOUS
 10
3.574560
 20
1.589720
  0
VERTEX
  8
0
  6
CONTINUOUS
 10
3.561800
 20
1.580480
  0
VERTEX
  8
0
  6
CONTINUOUS
 10
3.533640
 20
1.580480
  0
VERTEX
  8
0
  6
CONTINUOUS
 10
3.460160
 20
1.694440
  0
VERTEX
  8
0
  6
CONTINUOUS
 10
3.406480
 20
1.649560
  0
VERTEX
  8
0
  6
CONTINUOUS
 10
3.358960
 20
1.615680
  0
VERTEX
  8
0
  6
CONTINUOUS
 10
3.317160
 20
1.591040
  0
VERTEX
  8
0
  6
CONTINUOUS
 10
3.280200
 20
1.575200
  0
VERTEX
  8
0
  6
CONTINUOUS
 10
3.247200
 20
1.566840
  0
VERTEX
  8
0
  6
CONTINUOUS
 10
3.216840
 20
1.565520
  0
VERTEX
  8
0
  6
CONTINUOUS
 10
3.197920
 20
1.567720
  0
VERTEX
  8
0
  6
CONTINUOUS
 10
3.179440
 20
1.572120
  0
VERTEX
  8
0
  6
CONTINUOUS
 10
3.161840
 20
1.578280
  0
VERTEX
  8
0
  6
CONTINUOUS
 10
3.108160
 20
1.606440
  0
VERTEX
  8
0
  6
CONTINUOUS
 10
3.069440
 20
1.628880
  0
VERTEX
  8
0
  6
CONTINUOUS
 10
3.023680
 20
1.650000
  0
VERTEX
  8
0
  6
CONTINUOUS
 10
2.999040
 20
1.659240
  0
VERTEX
  8
0
  6
CONTINUOUS
 10
2.973520
 20
1.666720
  0
VERTEX
  8
0
  6
CONTINUOUS
 10
2.933920
 20
1.674200
  0
VERTEX
  8
0
  6
CONTINUOUS
 10
2.907080
 20
1.675960
  0
VERTEX
  8
0
  6
CONTINUOUS
 10
2.881120
 20
1.674640
  0
VERTEX
  8
0
  6
CONTINUOUS
 10
2.855160
 20
1.669800
  0
VERTEX
  8
0
  6
CONTINUOUS
 10
2.830080
 20
1.661000
  0
VERTEX
  8
0
  6
CONTINUOUS
 10
2.806320
 20
1.647800
  0
VERTEX
  8
0
  6
CONTINUOUS
 10
2.784320
 20
1.629760
  0
VERTEX
  8
0
  6
CONTINUOUS
 10
2.764080
 20
1.606880
  0
VERTEX
  8
0
  6
CONTINUOUS
 10
2.745600
 20
1.578280
  0
VERTEX
  8
0
  6
CONTINUOUS
 10
2.730200
 20
1.543520
  0
VERTEX
  8
0
  6
CONTINUOUS
 10
2.723160
 20
1.523720
  0
VERTEX
  8
0
  6
CONTINUOUS
 10
2.686200
 20
1.523720
  0
VERTEX
  8
0
  6
CONTINUOUS
 10
2.658040
 20
1.617440
  0
VERTEX
  8
0
  6
CONTINUOUS
 10
2.572240
 20
1.617440
  0
VERTEX
  8
0
  6
CONTINUOUS
 10
2.572240
 20
1.702800
  0
VERTEX
  8
0
  6
CONTINUOUS
 10
2.079440
 20
1.702800
  0
VERTEX
  8
0
  6
CONTINUOUS
 10
2.079440
 20
0.823680
  0
VERTEX
  8
0
  6
CONTINUOUS
 10
6.835840
 20
0.823680
  0
VERTEX
  8
0
  6
CONTINUOUS
 10
6.835840
 20
1.704120
  0
VERTEX
  8
0
  6
CONTINUOUS
 10
6.832760
 20
1.702360
  0
SEQEND
  8
0
  0
POLYLINE
  8
0
  6
CONTINUOUS
 66
     1
 40
0.000000
 41
0.000000
  0
VERTEX
  8
0
  6
CONTINUOUS
 10
6.832760
 20
3.690280
  0
VERTEX
  8
0
  6
CONTINUOUS
 10
6.339960
 20
3.690280
  0
VERTEX
  8
0
  6
CONTINUOUS
 10
6.339960
 20
3.604480
  0
VERTEX
  8
0
  6
CONTINUOUS
 10
6.254600
 20
3.604480
  0
VERTEX
  8
0
  6
CONTINUOUS
 10
6.226000
 20
3.510760
  0
VERTEX
  8
0
  6
CONTINUOUS
 10
6.189480
 20
3.510760
  0
VERTEX
  8
0
  6
CONTINUOUS
 10
6.174960
 20
3.548600
  0
VERTEX
  8
0
  6
CONTINUOUS
 10
6.157800
 20
3.580280
  0
VERTEX
  8
0
  6
CONTINUOUS
 10
6.138440
 20
3.606240
  0
VERTEX
  8
0
  6
CONTINUOUS
 10
6.117320
 20
3.626920
  0
VERTEX
  8
0
  6
CONTINUOUS
 10
6.094000
 20
3.642320
  0
VERTEX
  8
0
  6
CONTINUOUS
 10
6.069800
 20
3.653320
  0
VERTEX
  8
0
  6
CONTINUOUS
 10
6.044280
 20
3.659920
  0
VERTEX
  8
0
  6
CONTINUOUS
 10
6.018320
 20
3.663000
  0
VERTEX
  8
0
  6
CONTINUOUS
 10
5.991920
 20
3.663000
  0
VERTEX
  8
0
  6
CONTINUOUS
 10
5.965080
 20
3.659920
  0
VERTEX
  8
0
  6
CONTINUOUS
 10
5.939120
 20
3.654200
  0
VERTEX
  8
0
  6
CONTINUOUS
 10
5.913160
 20
3.646720
  0
VERTEX
  8
0
  6
CONTINUOUS
 10
5.865200
 20
3.626920
  0
VERTEX
  8
0
  6
CONTINUOUS
 10
5.822960
 20
3.604480
  0
VERTEX
  8
0
  6
CONTINUOUS
 10
5.768400
 20
3.573680
  0
VERTEX
  8
0
  6
CONTINUOUS
 10
5.732760
 20
3.559160
  0
VERTEX
  8
0
  6
CONTINUOUS
 10
5.705040
 20
3.553440
  0
VERTEX
  8
0
  6
CONTINUOUS
 10
5.685680
 20
3.552560
  0
VERTEX
  8
0
  6
CONTINUOUS
 10
5.654440
 20
3.556080
  0
VERTEX
  8
0
  6
CONTINUOUS
 10
5.620120
 20
3.567080
  0
VERTEX
  8
0
  6
CONTINUOUS
 10
5.581400
 20
3.585560
  0
VERTEX
  8
0
  6
CONTINUOUS
 10
5.537840
 20
3.613280
  0
VERTEX
  8
0
  6
CONTINUOUS
 10
5.488560
 20
3.650680
  0
VERTEX
  8
0
  6
CONTINUOUS
 10
5.452040
 20
3.681920
  0
VERTEX
  8
0
  6
CONTINUOUS
 10
5.379000
 20
3.567960
  0
VERTEX
  8
0
  6
CONTINUOUS
 10
5.350400
 20
3.567960
  0
VERTEX
  8
0
  6
CONTINUOUS
 10
5.324440
 20
3.585560
  0
VERTEX
  8
0
  6
CONTINUOUS
 10
5.295840
 20
3.597880
  0
VERTEX
  8
0
  6
CONTINUOUS
 10
5.265040
 20
3.605360
  0
VERTEX
  8
0
  6
CONTINUOUS
 10
5.233800
 20
3.607560
  0
VERTEX
  8
0
  6
CONTINUOUS
 10
5.218400
 20
3.607120
  0
VERTEX
  8
0
  6
CONTINUOUS
 10
5.187160
 20
3.601400
  0
VERTEX
  8
0
  6
CONTINUOUS
 10
5.157680
 20
3.590840
  0
VERTEX
  8
0
  6
CONTINUOUS
 10
5.130400
 20
3.574120
  0
VERTEX
  8
0
  6
CONTINUOUS
 10
5.118080
 20
3.564000
  0
VERTEX
  8
0
  6
CONTINUOUS
 10
5.027880
 20
3.593480
  0
VERTEX
  8
0
  6
CONTINUOUS
 10
4.916120
 20
3.624720
  0
VERTEX
  8
0
  6
CONTINUOUS
 10
4.814920
 20
3.648040
  0
VERTEX
  8
0
  6
CONTINUOUS
 10
4.702720
 20
3.667840
  0
VERTEX
  8
0
  6
CONTINUOUS
 10
4.607240
 20
3.679280
  0
VERTEX
  8
0
  6
CONTINUOUS
 10
4.502080
 20
3.685440
  0
VERTEX
  8
0
  6
CONTINUOUS
 10
4.411440
 20
3.685440
  0
VERTEX
  8
0
  6
CONTINUOUS
 10
4.305840
 20
3.679280
  0
VERTEX
  8
0
  6
CONTINUOUS
 10
4.209920
 20
3.667840
  0
VERTEX
  8
0
  6
CONTINUOUS
 10
4.097720
 20
3.648040
  0
VERTEX
  8
0
  6
CONTINUOUS
 10
3.996080
 20
3.624720
  0
VERTEX
  8
0
  6
CONTINUOUS
 10
3.884320
 20
3.593480
  0
VERTEX
  8
0
  6
CONTINUOUS
 10
3.794120
 20
3.564000
  0
VERTEX
  8
0
  6
CONTINUOUS
 10
3.768600
 20
3.583360
  0
VERTEX
  8
0
  6
CONTINUOUS
 10
3.740000
 20
3.597000
  0
VERTEX
  8
0
  6
CONTINUOUS
 10
3.710080
 20
3.604920
  0
VERTEX
  8
0
  6
CONTINUOUS
 10
3.678840
 20
3.608000
  0
VERTEX
  8
0
  6
CONTINUOUS
 10
3.663000
 20
3.607560
  0
VERTEX
  8
0
  6
CONTINUOUS
 10
3.631760
 20
3.602280
  0
VERTEX
  8
0
  6
CONTINUOUS
 10
3.602280
 20
3.592160
  0
VERTEX
  8
0
  6
CONTINUOUS
 10
3.574560
 20
3.577200
  0
VERTEX
  8
0
  6
CONTINUOUS
 10
3.561800
 20
3.567960
  0
VERTEX
  8
0
  6
CONTINUOUS
 10
3.533640
 20
3.567960
  0
VERTEX
  8
0
  6
CONTINUOUS
 10
3.460160
 20
3.682360
  0
VERTEX
  8
0
  6
CONTINUOUS
 10
3.406480
 20
3.637480
  0
VERTEX
  8
0
  6
CONTINUOUS
 10
3.358960
 20
3.603160
  0
VERTEX
  8
0
  6
CONTINUOUS
 10
3.317160
 20
3.578960
  0
VERTEX
  8
0
  6
CONTINUOUS
 10
3.292080
 20
3.567080
  0
VERTEX
  8
0
  6
CONTINUOUS
 10
3.257760
 20
3.556520
  0
VERTEX
  8
0
  6
CONTINUOUS
 10
3.226520
 20
3.553000
  0
VERTEX
  8
0
  6
CONTINUOUS
 10
3.207160
 20
3.553880
  0
VERTEX
  8
0
  6
CONTINUOUS
 10
3.179440
 20
3.559600
  0
VERTEX
  8
0
  6
CONTINUOUS
 10
3.161840
 20
3.565760
  0
VERTEX
  8
0
  6
CONTINUOUS
 10
3.108160
 20
3.593920
  0
VERTEX
  8
0
  6
CONTINUOUS
 10
3.069440
 20
3.616360
  0
VERTEX
  8
0
  6
CONTINUOUS
 10
3.023680
 20
3.637480
  0
VERTEX
  8
0
  6
CONTINUOUS
 10
2.999040
 20
3.646720
  0
VERTEX
  8
0
  6
CONTINUOUS
 10
2.973520
 20
3.654200
  0
VERTEX
  8
0
  6
CONTINUOUS
 10
2.933920
 20
3.661680
  0
VERTEX
  8
0
  6
CONTINUOUS
 10
2.907080
 20
3.663440
  0
VERTEX
  8
0
  6
CONTINUOUS
 10
2.893880
 20
3.663440
  0
VERTEX
  8
0
  6
CONTINUOUS
 10
2.867920
 20
3.660360
  0
VERTEX
  8
0
  6
CONTINUOUS
 10
2.842400
 20
3.653760
  0
VERTEX
  8
0
  6
CONTINUOUS
 10
2.818200
 20
3.642760
  0
VERTEX
  8
0
  6
CONTINUOUS
 10
2.795320
 20
3.627360
  0
VERTEX
  8
0
  6
CONTINUOUS
 10
2.773760
 20
3.606680
  0
VERTEX
  8
0
  6
CONTINUOUS
 10
2.754400
 20
3.580720
  0
VERTEX
  8
0
  6
CONTINUOUS
 10
2.737680
 20
3.549040
  0
VERTEX
  8
0
  6
CONTINUOUS
 10
2.723160
 20
3.511200
  0
VERTEX
  8
0
  6
CONTINUOUS
 10
2.686200
 20
3.511200
  0
VERTEX
  8
0
  6
CONTINUOUS
 10
2.658040
 20
3.604920
  0
VERTEX
  8
0
  6
CONTINUOUS
 10
2.572240
 20
3.604920
  0
VERTEX
  8
0
  6
CONTINUOUS
 10
2.572240
 20
3.690280
  0
VERTEX
  8
0
  6
CONTINUOUS
 10
2.079440
 20
3.690280
  0
VERTEX
  8
0
  6
CONTINUOUS
 10
2.079440
 20
2.811160
  0
VERTEX
  8
0
  6
CONTINUOUS
 10
6.835840
 20
2.811160
  0
VERTEX
  8
0
  6
CONTINUOUS
 10
6.835840
 20
3.691600
  0
VERTEX
  8
0
  6
CONTINUOUS
 10
6.832760
 20
3.690280
  0
SEQEND
  8
0
  0
SOLID
  8
0
 62
    15
 10
4.407480
 20
6.181120
 11
4.414960
 21
6.905360
 12
4.452800
 22
6.181560
 13
4.460280
 23
6.906240
  0
POLYLINE
  8
0
  6
CONTINUOUS
 66
     1
 40
0.000000
 41
0.000000
  0
VERTEX
  8
0
  6
CONTINUOUS
 10
4.407480
 20
6.181120
  0
VERTEX
  8
0
  6
CONTINUOUS
 10
4.414960
 20
6.905360
  0
VERTEX
  8
0
  6
CONTINUOUS
 10
4.460280
 20
6.906240
  0
VERTEX
  8
0
  6
CONTINUOUS
 10
4.452800
 20
6.181560
  0
VERTEX
  8
0
  6
CONTINUOUS
 10
4.407480
 20
6.181120
  0
SEQEND
  8
0
  0
SOLID
  8
0
 62
    15
 10
2.075920
 20
6.185960
 11
2.083400
 21
6.910640
 12
2.568720
 22
6.185960
 13
2.576200
 23
6.910640
  0
POLYLINE
  8
0
  6
CONTINUOUS
 66
     1
 40
0.000000
 41
0.000000
  0
VERTEX
  8
0
  6
CONTINUOUS
 10
2.075920
 20
6.185960
  0
VERTEX
  8
0
  6
CONTINUOUS
 10
2.083400
 20
6.910640
  0
VERTEX
  8
0
  6
CONTINUOUS
 10
2.576200
 20
6.910640
  0
VERTEX
  8
0
  6
CONTINUOUS
 10
2.568720
 20
6.185960
  0
VERTEX
  8
0
  6
CONTINUOUS
 10
2.075920
 20
6.185960
  0
SEQEND
  8
0
  0
SOLID
  8
0
 62
    15
 10
2.568720
 20
6.185960
 11
2.576200
 21
6.910640
 12
2.568720
 22
6.100600
 13
2.576200
 23
6.824840
  0
POLYLINE
  8
0
  6
CONTINUOUS
 66
     1
 40
0.000000
 41
0.000000
  0
VERTEX
  8
0
  6
CONTINUOUS
 10
2.568720
 20
6.185960
  0
VERTEX
  8
0
  6
CONTINUOUS
 10
2.576200
 20
6.910640
  0
VERTEX
  8
0
  6
CONTINUOUS
 10
2.576200
 20
6.824840
  0
VERTEX
  8
0
  6
CONTINUOUS
 10
2.568720
 20
6.100600
  0
VERTEX
  8
0
  6
CONTINUOUS
 10
2.568720
 20
6.185960
  0
SEQEND
  8
0
  0
SOLID
  8
0
 62
    15
 10
2.568720
 20
6.100600
 11
2.576200
 21
6.824840
 12
2.654080
 22
6.100600
 13
2.661560
 23
6.824840
  0
POLYLINE
  8
0
  6
CONTINUOUS
 66
     1
 40
0.000000
 41
0.000000
  0
VERTEX
  8
0
  6
CONTINUOUS
 10
2.568720
 20
6.100600
  0
VERTEX
  8
0
  6
CONTINUOUS
 10
2.576200
 20
6.824840
  0
VERTEX
  8
0
  6
CONTINUOUS
 10
2.661560
 20
6.824840
  0
VERTEX
  8
0
  6
CONTINUOUS
 10
2.654080
 20
6.100600
  0
VERTEX
  8
0
  6
CONTINUOUS
 10
2.568720
 20
6.100600
  0
SEQEND
  8
0
  0
SOLID
  8
0
 62
    15
 10
2.654080
 20
6.100600
 11
2.661560
 21
6.824840
 12
2.682680
 22
6.006880
 13
2.690160
 23
6.731120
  0
POLYLINE
  8
0
  6
CONTINUOUS
 66
     1
 40
0.000000
 41
0.000000
  0
VERTEX
  8
0
  6
CONTINUOUS
 10
2.654080
 20
6.100600
  0
VERTEX
  8
0
  6
CONTINUOUS
 10
2.661560
 20
6.824840
  0
VERTEX
  8
0
  6
CONTINUOUS
 10
2.690160
 20
6.731120
  0
VERTEX
  8
0
  6
CONTINUOUS
 10
2.682680
 20
6.006880
  0
VERTEX
  8
0
  6
CONTINUOUS
 10
2.654080
 20
6.100600
  0
SEQEND
  8
0
  0
SOLID
  8
0
 62
    15
 10
2.682680
 20
6.006880
 11
2.690160
 21
6.731120
 12
2.719200
 22
6.006880
 13
2.726680
 23
6.731120
  0
POLYLINE
  8
0
  6
CONTINUOUS
 66
     1
 40
0.000000
 41
0.000000
  0
VERTEX
  8
0
  6
CONTINUOUS
 10
2.682680
 20
6.006880
  0
VERTEX
  8
0
  6
CONTINUOUS
 10
2.690160
 20
6.731120
  0
VERTEX
  8
0
  6
CONTINUOUS
 10
2.726680
 20
6.731120
  0
VERTEX
  8
0
  6
CONTINUOUS
 10
2.719200
 20
6.006880
  0
VERTEX
  8
0
  6
CONTINUOUS
 10
2.682680
 20
6.006880
  0
SEQEND
  8
0
  0
SOLID
  8
0
 62
    15
 10
2.719200
 20
6.006880
 11
2.726680
 21
6.731120
 12
2.733720
 22
6.045160
 13
2.741200
 23
6.769400
  0
POLYLINE
  8
0
  6
CONTINUOUS
 66
     1
 40
0.000000
 41
0.000000
  0
VERTEX
  8
0
  6
CONTINUOUS
 10
2.719200
 20
6.006880
  0
VERTEX
  8
0
  6
CONTINUOUS
 10
2.726680
 20
6.731120
  0
VERTEX
  8
0
  6
CONTINUOUS
 10
2.741200
 20
6.769400
  0
VERTEX
  8
0
  6
CONTINUOUS
 10
2.733720
 20
6.045160
  0
VERTEX
  8
0
  6
CONTINUOUS
 10
2.719200
 20
6.006880
  0
SEQEND
  8
0
  0
SOLID
  8
0
 62
    15
 10
2.733720
 20
6.045160
 11
2.741200
 21
6.769400
 12
2.750880
 22
6.076840
 13
2.758360
 23
6.801080
  0
POLYLINE
  8
0
  6
CONTINUOUS
 66
     1
 40
0.000000
 41
0.000000
  0
VERTEX
  8
0
  6
CONTINUOUS
 10
2.733720
 20
6.045160
  0
VERTEX
  8
0
  6
CONTINUOUS
 10
2.741200
 20
6.769400
  0
VERTEX
  8
0
  6
CONTINUOUS
 10
2.758360
 20
6.801080
  0
VERTEX
  8
0
  6
CONTINUOUS
 10
2.750880
 20
6.076840
  0
VERTEX
  8
0
  6
CONTINUOUS
 10
2.733720
 20
6.045160
  0
SEQEND
  8
0
  0
SOLID
  8
0
 62
    15
 10
2.750880
 20
6.076840
 11
2.758360
 21
6.801080
 12
2.770240
 22
6.102360
 13
2.777720
 23
6.827040
  0
POLYLINE
  8
0
  6
CONTINUOUS
 66
     1
 40
0.000000
 41
0.000000
  0
VERTEX
  8
0
  6
CONTINUOUS
 10
2.750880
 20
6.076840
  0
VERTEX
  8
0
  6
CONTINUOUS
 10
2.758360
 20
6.801080
  0
VERTEX
  8
0
  6
CONTINUOUS
 10
2.777720
 20
6.827040
  0
VERTEX
  8
0
  6
CONTINUOUS
 10
2.770240
 20
6.102360
  0
VERTEX
  8
0
  6
CONTINUOUS
 10
2.750880
 20
6.076840
  0
SEQEND
  8
0
  0
SOLID
  8
0
 62
    15
 10
2.770240
 20
6.102360
 11
2.777720
 21
6.827040
 12
2.791360
 22
6.123040
 13
2.798840
 23
6.847280
  0
POLYLINE
  8
0
  6
CONTINUOUS
 66
     1
 40
0.000000
 41
0.000000
  0
VERTEX
  8
0
  6
CONTINUOUS
 10
2.770240
 20
6.102360
  0
VERTEX
  8
0
  6
CONTINUOUS
 10
2.777720
 20
6.827040
  0
VERTEX
  8
0
  6
CONTINUOUS
 10
2.798840
 20
6.847280
  0
VERTEX
  8
0
  6
CONTINUOUS
 10
2.791360
 20
6.123040
  0
VERTEX
  8
0
  6
CONTINUOUS
 10
2.770240
 20
6.102360
  0
SEQEND
  8
0
  0
SOLID
  8
0
 62
    15
 10
2.791360
 20
6.123040
 11
2.798840
 21
6.847280
 12
2.814240
 22
6.138440
 13
2.821720
 23
6.862680
  0
POLYLINE
  8
0
  6
CONTINUOUS
 66
     1
 40
0.000000
 41
0.000000
  0
VERTEX
  8
0
  6
CONTINUOUS
 10
2.791360
 20
6.123040
  0
VERTEX
  8
0
  6
CONTINUOUS
 10
2.798840
 20
6.847280
  0
VERTEX
  8
0
  6
CONTINUOUS
 10
2.821720
 20
6.862680
  0
VERTEX
  8
0
  6
CONTINUOUS
 10
2.814240
 20
6.138440
  0
VERTEX
  8
0
  6
CONTINUOUS
 10
2.791360
 20
6.123040
  0
SEQEND
  8
0
  0
SOLID
  8
0
 62
    15
 10
2.814240
 20
6.138440
 11
2.821720
 21
6.862680
 12
2.838880
 22
6.149440
 13
2.846360
 23
6.873680
  0
POLYLINE
  8
0
  6
CONTINUOUS
 66
     1
 40
0.000000
 41
0.000000
  0
VERTEX
  8
0
  6
CONTINUOUS
 10
2.814240
 20
6.138440
  0
VERTEX
  8
0
  6
CONTINUOUS
 10
2.821720
 20
6.862680
  0
VERTEX
  8
0
  6
CONTINUOUS
 10
2.846360
 20
6.873680
  0
VERTEX
  8
0
  6
CONTINUOUS
 10
2.838880
 20
6.149440
  0
VERTEX
  8
0
  6
CONTINUOUS
 10
2.814240
 20
6.138440
  0
SEQEND
  8
0
  0
SOLID
  8
0
 62
    15
 10
2.838880
 20
6.149440
 11
2.846360
 21
6.873680
 12
2.890360
 22
6.159120
 13
2.897840
 23
6.883360
  0
POLYLINE
  8
0
  6
CONTINUOUS
 66
     1
 40
0.000000
 41
0.000000
  0
VERTEX
  8
0
  6
CONTINUOUS
 10
2.838880
 20
6.149440
  0
VERTEX
  8
0
  6
CONTINUOUS
 10
2.846360
 20
6.873680
  0
VERTEX
  8
0
  6
CONTINUOUS
 10
2.897840
 20
6.883360
  0
VERTEX
  8
0
  6
CONTINUOUS
 10
2.890360
 20
6.159120
  0
VERTEX
  8
0
  6
CONTINUOUS
 10
2.838880
 20
6.149440
  0
SEQEND
  8
0
  0
SOLID
  8
0
 62
    15
 10
2.890360
 20
6.159120
 11
2.897840
 21
6.883360
 12
2.943160
 22
6.155600
 13
2.950640
 23
6.880280
  0
POLYLINE
  8
0
  6
CONTINUOUS
 66
     1
 40
0.000000
 41
0.000000
  0
VERTEX
  8
0
  6
CONTINUOUS
 10
2.890360
 20
6.159120
  0
VERTEX
  8
0
  6
CONTINUOUS
 10
2.897840
 20
6.883360
  0
VERTEX
  8
0
  6
CONTINUOUS
 10
2.950640
 20
6.880280
  0
VERTEX
  8
0
  6
CONTINUOUS
 10
2.943160
 20
6.155600
  0
VERTEX
  8
0
  6
CONTINUOUS
 10
2.890360
 20
6.159120
  0
SEQEND
  8
0
  0
SOLID
  8
0
 62
    15
 10
2.943160
 20
6.155600
 11
2.950640
 21
6.880280
 12
2.995520
 22
6.142840
 13
3.003000
 23
6.867080
  0
POLYLINE
  8
0
  6
CONTINUOUS
 66
     1
 40
0.000000
 41
0.000000
  0
VERTEX
  8
0
  6
CONTINUOUS
 10
2.943160
 20
6.155600
  0
VERTEX
  8
0
  6
CONTINUOUS
 10
2.950640
 20
6.880280
  0
VERTEX
  8
0
  6
CONTINUOUS
 10
3.003000
 20
6.867080
  0
VERTEX
  8
0
  6
CONTINUOUS
 10
2.995520
 20
6.142840
  0
VERTEX
  8
0
  6
CONTINUOUS
 10
2.943160
 20
6.155600
  0
SEQEND
  8
0
  0
SOLID
  8
0
 62
    15
 10
2.995520
 20
6.142840
 11
3.003000
 21
6.867080
 12
3.043480
 22
6.123040
 13
3.050960
 23
6.847280
  0
POLYLINE
  8
0
  6
CONTINUOUS
 66
     1
 40
0.000000
 41
0.000000
  0
VERTEX
  8
0
  6
CONTINUOUS
 10
2.995520
 20
6.142840
  0
VERTEX
  8
0
  6
CONTINUOUS
 10
3.003000
 20
6.867080
  0
VERTEX
  8
0
  6
CONTINUOUS
 10
3.050960
 20
6.847280
  0
VERTEX
  8
0
  6
CONTINUOUS
 10
3.043480
 20
6.123040
  0
VERTEX
  8
0
  6
CONTINUOUS
 10
2.995520
 20
6.142840
  0
SEQEND
  8
0
  0
SOLID
  8
0
 62
    15
 10
3.043480
 20
6.123040
 11
3.050960
 21
6.847280
 12
3.085720
 22
6.100600
 13
3.093200
 23
6.824840
  0
POLYLINE
  8
0
  6
CONTINUOUS
 66
     1
 40
0.000000
 41
0.000000
  0
VERTEX
  8
0
  6
CONTINUOUS
 10
3.043480
 20
6.123040
  0
VERTEX
  8
0
  6
CONTINUOUS
 10
3.050960
 20
6.847280
  0
VERTEX
  8
0
  6
CONTINUOUS
 10
3.093200
 20
6.824840
  0
VERTEX
  8
0
  6
CONTINUOUS
 10
3.085720
 20
6.100600
  0
VERTEX
  8
0
  6
CONTINUOUS
 10
3.043480
 20
6.123040
  0
SEQEND
  8
0
  0
SOLID
  8
0
 62
    15
 10
3.085720
 20
6.100600
 11
3.093200
 21
6.824840
 12
3.122680
 22
6.079040
 13
3.130160
 23
6.803280
  0
POLYLINE
  8
0
  6
CONTINUOUS
 66
     1
 40
0.000000
 41
0.000000
  0
VERTEX
  8
0
  6
CONTINUOUS
 10
3.085720
 20
6.100600
  0
VERTEX
  8
0
  6
CONTINUOUS
 10
3.093200
 20
6.824840
  0
VERTEX
  8
0
  6
CONTINUOUS
 10
3.130160
 20
6.803280
  0
VERTEX
  8
0
  6
CONTINUOUS
 10
3.122680
 20
6.079040
  0
VERTEX
  8
0
  6
CONTINUOUS
 10
3.085720
 20
6.100600
  0
SEQEND
  8
0
  0
SOLID
  8
0
 62
    15
 10
3.122680
 20
6.079040
 11
3.130160
 21
6.803280
 12
3.157880
 22
6.061880
 13
3.165360
 23
6.786120
  0
POLYLINE
  8
0
  6
CONTINUOUS
 66
     1
 40
0.000000
 41
0.000000
  0
VERTEX
  8
0
  6
CONTINUOUS
 10
3.122680
 20
6.079040
  0
VERTEX
  8
0
  6
CONTINUOUS
 10
3.130160
 20
6.803280
  0
VERTEX
  8
0
  6
CONTINUOUS
 10
3.165360
 20
6.786120
  0
VERTEX
  8
0
  6
CONTINUOUS
 10
3.157880
 20
6.061880
  0
VERTEX
  8
0
  6
CONTINUOUS
 10
3.122680
 20
6.079040
  0
SEQEND
  8
0
  0
SOLID
  8
0
 62
    15
 10
3.157880
 20
6.061880
 11
3.165360
 21
6.786120
 12
3.193960
 22
6.050880
 13
3.201440
 23
6.775560
  0
POLYLINE
  8
0
  6
CONTINUOUS
 66
     1
 40
0.000000
 41
0.000000
  0
VERTEX
  8
0
  6
CONTINUOUS
 10
3.157880
 20
6.061880
  0
VERTEX
  8
0
  6
CONTINUOUS
 10
3.165360
 20
6.786120
  0
VERTEX
  8
0
  6
CONTINUOUS
 10
3.201440
 20
6.775560
  0
VERTEX
  8
0
  6
CONTINUOUS
 10
3.193960
 20
6.050880
  0
VERTEX
  8
0
  6
CONTINUOUS
 10
3.157880
 20
6.061880
  0
SEQEND
  8
0
  0
SOLID
  8
0
 62
    15
 10
3.193960
 20
6.050880
 11
3.201440
 21
6.775560
 12
3.233120
 22
6.049120
 13
3.240600
 23
6.773360
  0
POLYLINE
  8
0
  6
CONTINUOUS
 66
     1
 40
0.000000
 41
0.000000
  0
VERTEX
  8
0
  6
CONTINUOUS
 10
3.193960
 20
6.050880
  0
VERTEX
  8
0
  6
CONTINUOUS
 10
3.201440
 20
6.775560
  0
VERTEX
  8
0
  6
CONTINUOUS
 10
3.240600
 20
6.773360
  0
VERTEX
  8
0
  6
CONTINUOUS
 10
3.233120
 20
6.049120
  0
VERTEX
  8
0
  6
CONTINUOUS
 10
3.193960
 20
6.050880
  0
SEQEND
  8
0
  0
SOLID
  8
0
 62
    15
 10
3.233120
 20
6.049120
 11
3.240600
 21
6.773360
 12
3.276680
 22
6.058800
 13
3.284160
 23
6.783040
  0
POLYLINE
  8
0
  6
CONTINUOUS
 66
     1
 40
0.000000
 41
0.000000
  0
VERTEX
  8
0
  6
CONTINUOUS
 10
3.233120
 20
6.049120
  0
VERTEX
  8
0
  6
CONTINUOUS
 10
3.240600
 20
6.773360
  0
VERTEX
  8
0
  6
CONTINUOUS
 10
3.284160
 20
6.783040
  0
VERTEX
  8
0
  6
CONTINUOUS
 10
3.276680
 20
6.058800
  0
VERTEX
  8
0
  6
CONTINUOUS
 10
3.233120
 20
6.049120
  0
SEQEND
  8
0
  0
SOLID
  8
0
 62
    15
 10
3.276680
 20
6.058800
 11
3.284160
 21
6.783040
 12
3.300880
 22
6.068480
 13
3.308360
 23
6.792720
  0
POLYLINE
  8
0
  6
CONTINUOUS
 66
     1
 40
0.000000
 41
0.000000
  0
VERTEX
  8
0
  6
CONTINUOUS
 10
3.276680
 20
6.058800
  0
VERTEX
  8
0
  6
CONTINUOUS
 10
3.284160
 20
6.783040
  0
VERTEX
  8
0
  6
CONTINUOUS
 10
3.308360
 20
6.792720
  0
VERTEX
  8
0
  6
CONTINUOUS
 10
3.300880
 20
6.068480
  0
VERTEX
  8
0
  6
CONTINUOUS
 10
3.276680
 20
6.058800
  0
SEQEND
  8
0
  0
SOLID
  8
0
 62
    15
 10
3.300880
 20
6.068480
 11
3.308360
 21
6.792720
 12
3.326840
 22
6.081680
 13
3.334320
 23
6.805920
  0
POLYLINE
  8
0
  6
CONTINUOUS
 66
     1
 40
0.000000
 41
0.000000
  0
VERTEX
  8
0
  6
CONTINUOUS
 10
3.300880
 20
6.068480
  0
VERTEX
  8
0
  6
CONTINUOUS
 10
3.308360
 20
6.792720
  0
VERTEX
  8
0
  6
CONTINUOUS
 10
3.334320
 20
6.805920
  0
VERTEX
  8
0
  6
CONTINUOUS
 10
3.326840
 20
6.081680
  0
VERTEX
  8
0
  6
CONTINUOUS
 10
3.300880
 20
6.068480
  0
SEQEND
  8
0
  0
SOLID
  8
0
 62
    15
 10
3.326840
 20
6.081680
 11
3.334320
 21
6.805920
 12
3.355440
 22
6.099280
 13
3.362920
 23
6.823520
  0
POLYLINE
  8
0
  6
CONTINUOUS
 66
     1
 40
0.000000
 41
0.000000
  0
VERTEX
  8
0
  6
CONTINUOUS
 10
3.326840
 20
6.081680
  0
VERTEX
  8
0
  6
CONTINUOUS
 10
3.334320
 20
6.805920
  0
VERTEX
  8
0
  6
CONTINUOUS
 10
3.362920
 20
6.823520
  0
VERTEX
  8
0
  6
CONTINUOUS
 10
3.355440
 20
6.099280
  0
VERTEX
  8
0
  6
CONTINUOUS
 10
3.326840
 20
6.081680
  0
SEQEND
  8
0
  0
SOLID
  8
0
 62
    15
 10
3.355440
 20
6.099280
 11
3.362920
 21
6.823520
 12
3.386240
 22
6.120840
 13
3.393720
 23
6.845080
  0
POLYLINE
  8
0
  6
CONTINUOUS
 66
     1
 40
0.000000
 41
0.000000
  0
VERTEX
  8
0
  6
CONTINUOUS
 10
3.355440
 20
6.099280
  0
VERTEX
  8
0
  6
CONTINUOUS
 10
3.362920
 20
6.823520
  0
VERTEX
  8
0
  6
CONTINUOUS
 10
3.393720
 20
6.845080
  0
VERTEX
  8
0
  6
CONTINUOUS
 10
3.386240
 20
6.120840
  0
VERTEX
  8
0
  6
CONTINUOUS
 10
3.355440
 20
6.099280
  0
SEQEND
  8
0
  0
SOLID
  8
0
 62
    15
 10
3.386240
 20
6.120840
 11
3.393720
 21
6.845080
 12
3.419680
 22
6.146800
 13
3.427160
 23
6.871480
  0
POLYLINE
  8
0
  6
CONTINUOUS
 66
     1
 40
0.000000
 41
0.000000
  0
VERTEX
  8
0
  6
CONTINUOUS
 10
3.386240
 20
6.120840
  0
VERTEX
  8
0
  6
CONTINUOUS
 10
3.393720
 20
6.845080
  0
VERTEX
  8
0
  6
CONTINUOUS
 10
3.427160
 20
6.871480
  0
VERTEX
  8
0
  6
CONTINUOUS
 10
3.419680
 20
6.146800
  0
VERTEX
  8
0
  6
CONTINUOUS
 10
3.386240
 20
6.120840
  0
SEQEND
  8
0
  0
SOLID
  8
0
 62
    15
 10
3.419680
 20
6.146800
 11
3.427160
 21
6.871480
 12
3.456640
 22
6.178040
 13
3.464120
 23
6.902280
  0
POLYLINE
  8
0
  6
CONTINUOUS
 66
     1
 40
0.000000
 41
0.000000
  0
VERTEX
  8
0
  6
CONTINUOUS
 10
3.419680
 20
6.146800
  0
VERTEX
  8
0
  6
CONTINUOUS
 10
3.427160
 20
6.871480
  0
VERTEX
  8
0
  6
CONTINUOUS
 10
3.464120
 20
6.902280
  0
VERTEX
  8
0
  6
CONTINUOUS
 10
3.456640
 20
6.178040
  0
VERTEX
  8
0
  6
CONTINUOUS
 10
3.419680
 20
6.146800
  0
SEQEND
  8
0
  0
SOLID
  8
0
 62
    15
 10
3.456640
 20
6.178040
 11
3.464120
 21
6.902280
 12
3.529680
 22
6.064080
 13
3.537160
 23
6.788320
  0
POLYLINE
  8
0
  6
CONTINUOUS
 66
     1
 40
0.000000
 41
0.000000
  0
VERTEX
  8
0
  6
CONTINUOUS
 10
3.456640
 20
6.178040
  0
VERTEX
  8
0
  6
CONTINUOUS
 10
3.464120
 20
6.902280
  0
VERTEX
  8
0
  6
CONTINUOUS
 10
3.537160
 20
6.788320
  0
VERTEX
  8
0
  6
CONTINUOUS
 10
3.529680
 20
6.064080
  0
VERTEX
  8
0
  6
CONTINUOUS
 10
3.456640
 20
6.178040
  0
SEQEND
  8
0
  0
SOLID
  8
0
 62
    15
 10
3.529680
 20
6.064080
 11
3.537160
 21
6.788320
 12
3.558280
 22
6.064080
 13
3.565760
 23
6.788320
  0
POLYLINE
  8
0
  6
CONTINUOUS
 66
     1
 40
0.000000
 41
0.000000
  0
VERTEX
  8
0
  6
CONTINUOUS
 10
3.529680
 20
6.064080
  0
VERTEX
  8
0
  6
CONTINUOUS
 10
3.537160
 20
6.788320
  0
VERTEX
  8
0
  6
CONTINUOUS
 10
3.565760
 20
6.788320
  0
VERTEX
  8
0
  6
CONTINUOUS
 10
3.558280
 20
6.064080
  0
VERTEX
  8
0
  6
CONTINUOUS
 10
3.529680
 20
6.064080
  0
SEQEND
  8
0
  0
SOLID
  8
0
 62
    15
 10
3.558280
 20
6.064080
 11
3.565760
 21
6.788320
 12
3.584240
 22
6.081240
 13
3.591720
 23
6.805480
  0
POLYLINE
  8
0
  6
CONTINUOUS
 66
     1
 40
0.000000
 41
0.000000
  0
VERTEX
  8
0
  6
CONTINUOUS
 10
3.558280
 20
6.064080
  0
VERTEX
  8
0
  6
CONTINUOUS
 10
3.565760
 20
6.788320
  0
VERTEX
  8
0
  6
CONTINUOUS
 10
3.591720
 20
6.805480
  0
VERTEX
  8
0
  6
CONTINUOUS
 10
3.584240
 20
6.081240
  0
VERTEX
  8
0
  6
CONTINUOUS
 10
3.558280
 20
6.064080
  0
SEQEND
  8
0
  0
SOLID
  8
0
 62
    15
 10
3.584240
 20
6.081240
 11
3.591720
 21
6.805480
 12
3.613280
 22
6.094000
 13
3.620760
 23
6.818240
  0
POLYLINE
  8
0
  6
CONTINUOUS
 66
     1
 40
0.000000
 41
0.000000
  0
VERTEX
  8
0
  6
CONTINUOUS
 10
3.584240
 20
6.081240
  0
VERTEX
  8
0
  6
CONTINUOUS
 10
3.591720
 20
6.805480
  0
VERTEX
  8
0
  6
CONTINUOUS
 10
3.620760
 20
6.818240
  0
VERTEX
  8
0
  6
CONTINUOUS
 10
3.613280
 20
6.094000
  0
VERTEX
  8
0
  6
CONTINUOUS
 10
3.584240
 20
6.081240
  0
SEQEND
  8
0
  0
SOLID
  8
0
 62
    15
 10
3.613280
 20
6.094000
 11
3.620760
 21
6.818240
 12
3.643640
 22
6.101480
 13
3.651120
 23
6.825720
  0
POLYLINE
  8
0
  6
CONTINUOUS
 66
     1
 40
0.000000
 41
0.000000
  0
VERTEX
  8
0
  6
CONTINUOUS
 10
3.613280
 20
6.094000
  0
VERTEX
  8
0
  6
CONTINUOUS
 10
3.620760
 20
6.818240
  0
VERTEX
  8
0
  6
CONTINUOUS
 10
3.651120
 20
6.825720
  0
VERTEX
  8
0
  6
CONTINUOUS
 10
3.643640
 20
6.101480
  0
VERTEX
  8
0
  6
CONTINUOUS
 10
3.613280
 20
6.094000
  0
SEQEND
  8
0
  0
SOLID
  8
0
 62
    15
 10
3.643640
 20
6.101480
 11
3.651120
 21
6.825720
 12
3.674880
 22
6.103680
 13
3.682360
 23
6.827920
  0
POLYLINE
  8
0
  6
CONTINUOUS
 66
     1
 40
0.000000
 41
0.000000
  0
VERTEX
  8
0
  6
CONTINUOUS
 10
3.643640
 20
6.101480
  0
VERTEX
  8
0
  6
CONTINUOUS
 10
3.651120
 20
6.825720
  0
VERTEX
  8
0
  6
CONTINUOUS
 10
3.682360
 20
6.827920
  0
VERTEX
  8
0
  6
CONTINUOUS
 10
3.674880
 20
6.103680
  0
VERTEX
  8
0
  6
CONTINUOUS
 10
3.643640
 20
6.101480
  0
SEQEND
  8
0
  0
SOLID
  8
0
 62
    15
 10
3.674880
 20
6.103680
 11
3.682360
 21
6.827920
 12
3.706120
 22
6.100600
 13
3.713600
 23
6.825280
  0
POLYLINE
  8
0
  6
CONTINUOUS
 66
     1
 40
0.000000
 41
0.000000
  0
VERTEX
  8
0
  6
CONTINUOUS
 10
3.674880
 20
6.103680
  0
VERTEX
  8
0
  6
CONTINUOUS
 10
3.682360
 20
6.827920
  0
VERTEX
  8
0
  6
CONTINUOUS
 10
3.713600
 20
6.825280
  0
VERTEX
  8
0
  6
CONTINUOUS
 10
3.706120
 20
6.100600
  0
VERTEX
  8
0
  6
CONTINUOUS
 10
3.674880
 20
6.103680
  0
SEQEND
  8
0
  0
SOLID
  8
0
 62
    15
 10
3.706120
 20
6.100600
 11
3.713600
 21
6.825280
 12
3.736480
 22
6.092680
 13
3.743960
 23
6.816920
  0
POLYLINE
  8
0
  6
CONTINUOUS
 66
     1
 40
0.000000
 41
0.000000
  0
VERTEX
  8
0
  6
CONTINUOUS
 10
3.706120
 20
6.100600
  0
VERTEX
  8
0
  6
CONTINUOUS
 10
3.713600
 20
6.825280
  0
VERTEX
  8
0
  6
CONTINUOUS
 10
3.743960
 20
6.816920
  0
VERTEX
  8
0
  6
CONTINUOUS
 10
3.736480
 20
6.092680
  0
VERTEX
  8
0
  6
CONTINUOUS
 10
3.706120
 20
6.100600
  0
SEQEND
  8
0
  0
SOLID
  8
0
 62
    15
 10
3.736480
 20
6.092680
 11
3.743960
 21
6.816920
 12
3.764640
 22
6.079040
 13
3.772120
 23
6.803280
  0
POLYLINE
  8
0
  6
CONTINUOUS
 66
     1
 40
0.000000
 41
0.000000
  0
VERTEX
  8
0
  6
CONTINUOUS
 10
3.736480
 20
6.092680
  0
VERTEX
  8
0
  6
CONTINUOUS
 10
3.743960
 20
6.816920
  0
VERTEX
  8
0
  6
CONTINUOUS
 10
3.772120
 20
6.803280
  0
VERTEX
  8
0
  6
CONTINUOUS
 10
3.764640
 20
6.079040
  0
VERTEX
  8
0
  6
CONTINUOUS
 10
3.736480
 20
6.092680
  0
SEQEND
  8
0
  0
SOLID
  8
0
 62
    15
 10
3.764640
 20
6.079040
 11
3.772120
 21
6.803280
 12
3.790600
 22
6.059680
 13
3.798080
 23
6.784360
  0
POLYLINE
  8
0
  6
CONTINUOUS
 66
     1
 40
0.000000
 41
0.000000
  0
VERTEX
  8
0
  6
CONTINUOUS
 10
3.764640
 20
6.079040
  0
VERTEX
  8
0
  6
CONTINUOUS
 10
3.772120
 20
6.803280
  0
VERTEX
  8
0
  6
CONTINUOUS
 10
3.798080
 20
6.784360
  0
VERTEX
  8
0
  6
CONTINUOUS
 10
3.790600
 20
6.059680
  0
VERTEX
  8
0
  6
CONTINUOUS
 10
3.764640
 20
6.079040
  0
SEQEND
  8
0
  0
SOLID
  8
0
 62
    15
 10
3.790600
 20
6.059680
 11
3.798080
 21
6.784360
 12
3.909840
 22
6.097960
 13
3.917320
 23
6.822200
  0
POLYLINE
  8
0
  6
CONTINUOUS
 66
     1
 40
0.000000
 41
0.000000
  0
VERTEX
  8
0
  6
CONTINUOUS
 10
3.790600
 20
6.059680
  0
VERTEX
  8
0
  6
CONTINUOUS
 10
3.798080
 20
6.784360
  0
VERTEX
  8
0
  6
CONTINUOUS
 10
3.917320
 20
6.822200
  0
VERTEX
  8
0
  6
CONTINUOUS
 10
3.909840
 20
6.097960
  0
VERTEX
  8
0
  6
CONTINUOUS
 10
3.790600
 20
6.059680
  0
SEQEND
  8
0
  0
SOLID
  8
0
 62
    15
 10
3.909840
 20
6.097960
 11
3.917320
 21
6.822200
 12
4.018960
 22
6.127000
 13
4.026440
 23
6.851240
  0
POLYLINE
  8
0
  6
CONTINUOUS
 66
     1
 40
0.000000
 41
0.000000
  0
VERTEX
  8
0
  6
CONTINUOUS
 10
3.909840
 20
6.097960
  0
VERTEX
  8
0
  6
CONTINUOUS
 10
3.917320
 20
6.822200
  0
VERTEX
  8
0
  6
CONTINUOUS
 10
4.026440
 20
6.851240
  0
VERTEX
  8
0
  6
CONTINUOUS
 10
4.018960
 20
6.127000
  0
VERTEX
  8
0
  6
CONTINUOUS
 10
3.909840
 20
6.097960
  0
SEQEND
  8
0
  0
SOLID
  8
0
 62
    15
 10
4.018960
 20
6.127000
 11
4.026440
 21
6.851240
 12
4.117960
 22
6.148560
 13
4.125440
 23
6.872800
  0
POLYLINE
  8
0
  6
CONTINUOUS
 66
     1
 40
0.000000
 41
0.000000
  0
VERTEX
  8
0
  6
CONTINUOUS
 10
4.018960
 20
6.127000
  0
VERTEX
  8
0
  6
CONTINUOUS
 10
4.026440
 20
6.851240
  0
VERTEX
  8
0
  6
CONTINUOUS
 10
4.125440
 20
6.872800
  0
VERTEX
  8
0
  6
CONTINUOUS
 10
4.117960
 20
6.148560
  0
VERTEX
  8
0
  6
CONTINUOUS
 10
4.018960
 20
6.127000
  0
SEQEND
  8
0
  0
SOLID
  8
0
 62
    15
 10
4.117960
 20
6.148560
 11
4.125440
 21
6.872800
 12
4.206400
 22
6.163520
 13
4.213880
 23
6.887760
  0
POLYLINE
  8
0
  6
CONTINUOUS
 66
     1
 40
0.000000
 41
0.000000
  0
VERTEX
  8
0
  6
CONTINUOUS
 10
4.117960
 20
6.148560
  0
VERTEX
  8
0
  6
CONTINUOUS
 10
4.125440
 20
6.872800
  0
VERTEX
  8
0
  6
CONTINUOUS
 10
4.213880
 20
6.887760
  0
VERTEX
  8
0
  6
CONTINUOUS
 10
4.206400
 20
6.163520
  0
VERTEX
  8
0
  6
CONTINUOUS
 10
4.117960
 20
6.148560
  0
SEQEND
  8
0
  0
SOLID
  8
0
 62
    15
 10
4.206400
 20
6.163520
 11
4.213880
 21
6.887760
 12
4.284280
 22
6.173200
 13
4.291760
 23
6.897440
  0
POLYLINE
  8
0
  6
CONTINUOUS
 66
     1
 40
0.000000
 41
0.000000
  0
VERTEX
  8
0
  6
CONTINUOUS
 10
4.206400
 20
6.163520
  0
VERTEX
  8
0
  6
CONTINUOUS
 10
4.213880
 20
6.887760
  0
VERTEX
  8
0
  6
CONTINUOUS
 10
4.291760
 20
6.897440
  0
VERTEX
  8
0
  6
CONTINUOUS
 10
4.284280
 20
6.173200
  0
VERTEX
  8
0
  6
CONTINUOUS
 10
4.206400
 20
6.163520
  0
SEQEND
  8
0
  0
SOLID
  8
0
 62
    15
 10
4.284280
 20
6.173200
 11
4.291760
 21
6.897440
 12
4.351160
 22
6.178920
 13
4.358640
 23
6.903160
  0
POLYLINE
  8
0
  6
CONTINUOUS
 66
     1
 40
0.000000
 41
0.000000
  0
VERTEX
  8
0
  6
CONTINUOUS
 10
4.284280
 20
6.173200
  0
VERTEX
  8
0
  6
CONTINUOUS
 10
4.291760
 20
6.897440
  0
VERTEX
  8
0
  6
CONTINUOUS
 10
4.358640
 20
6.903160
  0
VERTEX
  8
0
  6
CONTINUOUS
 10
4.351160
 20
6.178920
  0
VERTEX
  8
0
  6
CONTINUOUS
 10
4.284280
 20
6.173200
  0
SEQEND
  8
0
  0
SOLID
  8
0
 62
    15
 10
4.351160
 20
6.178920
 11
4.358640
 21
6.903160
 12
4.407480
 22
6.181120
 13
4.414960
 23
6.905360
  0
POLYLINE
  8
0
  6
CONTINUOUS
 66
     1
 40
0.000000
 41
0.000000
  0
VERTEX
  8
0
  6
CONTINUOUS
 10
4.351160
 20
6.178920
  0
VERTEX
  8
0
  6
CONTINUOUS
 10
4.358640
 20
6.903160
  0
VERTEX
  8
0
  6
CONTINUOUS
 10
4.414960
 20
6.905360
  0
VERTEX
  8
0
  6
CONTINUOUS
 10
4.407480
 20
6.181120
  0
VERTEX
  8
0
  6
CONTINUOUS
 10
4.351160
 20
6.178920
  0
SEQEND
  8
0
  0
SOLID
  8
0
 62
    15
 10
6.831880
 20
6.187280
 11
6.839360
 21
6.911960
 12
6.831880
 22
5.307280
 13
6.839360
 23
6.031520
  0
POLYLINE
  8
0
  6
CONTINUOUS
 66
     1
 40
0.000000
 41
0.000000
  0
VERTEX
  8
0
  6
CONTINUOUS
 10
6.831880
 20
6.187280
  0
VERTEX
  8
0
  6
CONTINUOUS
 10
6.839360
 20
6.911960
  0
VERTEX
  8
0
  6
CONTINUOUS
 10
6.839360
 20
6.031520
  0
VERTEX
  8
0
  6
CONTINUOUS
 10
6.831880
 20
5.307280
  0
VERTEX
  8
0
  6
CONTINUOUS
 10
6.831880
 20
6.187280
  0
SEQEND
  8
0
  0
SOLID
  8
0
 62
    15
 10
4.452800
 20
6.181560
 11
4.460280
 21
6.906240
 12
4.498120
 22
6.181120
 13
4.505600
 23
6.905360
  0
POLYLINE
  8
0
  6
CONTINUOUS
 66
     1
 40
0.000000
 41
0.000000
  0
VERTEX
  8
0
  6
CONTINUOUS
 10
4.452800
 20
6.181560
  0
VERTEX
  8
0
  6
CONTINUOUS
 10
4.460280
 20
6.906240
  0
VERTEX
  8
0
  6
CONTINUOUS
 10
4.505600
 20
6.905360
  0
VERTEX
  8
0
  6
CONTINUOUS
 10
4.498120
 20
6.181120
  0
VERTEX
  8
0
  6
CONTINUOUS
 10
4.452800
 20
6.181560
  0
SEQEND
  8
0
  0
SOLID
  8
0
 62
    15
 10
4.498120
 20
6.181120
 11
4.505600
 21
6.905360
 12
4.554440
 22
6.178480
 13
4.561920
 23
6.903160
  0
POLYLINE
  8
0
  6
CONTINUOUS
 66
     1
 40
0.000000
 41
0.000000
  0
VERTEX
  8
0
  6
CONTINUOUS
 10
4.498120
 20
6.181120
  0
VERTEX
  8
0
  6
CONTINUOUS
 10
4.505600
 20
6.905360
  0
VERTEX
  8
0
  6
CONTINUOUS
 10
4.561920
 20
6.903160
  0
VERTEX
  8
0
  6
CONTINUOUS
 10
4.554440
 20
6.178480
  0
VERTEX
  8
0
  6
CONTINUOUS
 10
4.498120
 20
6.181120
  0
SEQEND
  8
0
  0
SOLID
  8
0
 62
    15
 10
4.554440
 20
6.178480
 11
4.561920
 21
6.903160
 12
4.621320
 22
6.173200
 13
4.628800
 23
6.897440
  0
POLYLINE
  8
0
  6
CONTINUOUS
 66
     1
 40
0.000000
 41
0.000000
  0
VERTEX
  8
0
  6
CONTINUOUS
 10
4.554440
 20
6.178480
  0
VERTEX
  8
0
  6
CONTINUOUS
 10
4.561920
 20
6.903160
  0
VERTEX
  8
0
  6
CONTINUOUS
 10
4.628800
 20
6.897440
  0
VERTEX
  8
0
  6
CONTINUOUS
 10
4.621320
 20
6.173200
  0
VERTEX
  8
0
  6
CONTINUOUS
 10
4.554440
 20
6.178480
  0
SEQEND
  8
0
  0
SOLID
  8
0
 62
    15
 10
4.621320
 20
6.173200
 11
4.628800
 21
6.897440
 12
4.699200
 22
6.163520
 13
4.706680
 23
6.887760
  0
POLYLINE
  8
0
  6
CONTINUOUS
 66
     1
 40
0.000000
 41
0.000000
  0
VERTEX
  8
0
  6
CONTINUOUS
 10
4.621320
 20
6.173200
  0
VERTEX
  8
0
  6
CONTINUOUS
 10
4.628800
 20
6.897440
  0
VERTEX
  8
0
  6
CONTINUOUS
 10
4.706680
 20
6.887760
  0
VERTEX
  8
0
  6
CONTINUOUS
 10
4.699200
 20
6.163520
  0
VERTEX
  8
0
  6
CONTINUOUS
 10
4.621320
 20
6.173200
  0
SEQEND
  8
0
  0
SOLID
  8
0
 62
    15
 10
4.699200
 20
6.163520
 11
4.706680
 21
6.887760
 12
4.787640
 22
6.148560
 13
4.795120
 23
6.872800
  0
POLYLINE
  8
0
  6
CONTINUOUS
 66
     1
 40
0.000000
 41
0.000000
  0
VERTEX
  8
0
  6
CONTINUOUS
 10
4.699200
 20
6.163520
  0
VERTEX
  8
0
  6
CONTINUOUS
 10
4.706680
 20
6.887760
  0
VERTEX
  8
0
  6
CONTINUOUS
 10
4.795120
 20
6.872800
  0
VERTEX
  8
0
  6
CONTINUOUS
 10
4.787640
 20
6.148560
  0
VERTEX
  8
0
  6
CONTINUOUS
 10
4.699200
 20
6.163520
  0
SEQEND
  8
0
  0
SOLID
  8
0
 62
    15
 10
4.787640
 20
6.148560
 11
4.795120
 21
6.872800
 12
4.886200
 22
6.127000
 13
4.893680
 23
6.851240
  0
POLYLINE
  8
0
  6
CONTINUOUS
 66
     1
 40
0.000000
 41
0.000000
  0
VERTEX
  8
0
  6
CONTINUOUS
 10
4.787640
 20
6.148560
  0
VERTEX
  8
0
  6
CONTINUOUS
 10
4.795120
 20
6.872800
  0
VERTEX
  8
0
  6
CONTINUOUS
 10
4.893680
 20
6.851240
  0
VERTEX
  8
0
  6
CONTINUOUS
 10
4.886200
 20
6.127000
  0
VERTEX
  8
0
  6
CONTINUOUS
 10
4.787640
 20
6.148560
  0
SEQEND
  8
0
  0
SOLID
  8
0
 62
    15
 10
4.886200
 20
6.127000
 11
4.893680
 21
6.851240
 12
4.995320
 22
6.097520
 13
5.002800
 23
6.822200
  0
POLYLINE
  8
0
  6
CONTINUOUS
 66
     1
 40
0.000000
 41
0.000000
  0
VERTEX
  8
0
  6
CONTINUOUS
 10
4.886200
 20
6.127000
  0
VERTEX
  8
0
  6
CONTINUOUS
 10
4.893680
 20
6.851240
  0
VERTEX
  8
0
  6
CONTINUOUS
 10
5.002800
 20
6.822200
  0
VERTEX
  8
0
  6
CONTINUOUS
 10
4.995320
 20
6.097520
  0
VERTEX
  8
0
  6
CONTINUOUS
 10
4.886200
 20
6.127000
  0
SEQEND
  8
0
  0
SOLID
  8
0
 62
    15
 10
4.995320
 20
6.097520
 11
5.002800
 21
6.822200
 12
5.114560
 22
6.059680
 13
5.122040
 23
6.783920
  0
POLYLINE
  8
0
  6
CONTINUOUS
 66
     1
 40
0.000000
 41
0.000000
  0
VERTEX
  8
0
  6
CONTINUOUS
 10
4.995320
 20
6.097520
  0
VERTEX
  8
0
  6
CONTINUOUS
 10
5.002800
 20
6.822200
  0
VERTEX
  8
0
  6
CONTINUOUS
 10
5.122040
 20
6.783920
  0
VERTEX
  8
0
  6
CONTINUOUS
 10
5.114560
 20
6.059680
  0
VERTEX
  8
0
  6
CONTINUOUS
 10
4.995320
 20
6.097520
  0
SEQEND
  8
0
  0
SOLID
  8
0
 62
    15
 10
5.114560
 20
6.059680
 11
5.122040
 21
6.783920
 12
5.140080
 22
6.078600
 13
5.147560
 23
6.803280
  0
POLYLINE
  8
0
  6
CONTINUOUS
 66
     1
 40
0.000000
 41
0.000000
  0
VERTEX
  8
0
  6
CONTINUOUS
 10
5.114560
 20
6.059680
  0
VERTEX
  8
0
  6
CONTINUOUS
 10
5.122040
 20
6.783920
  0
VERTEX
  8
0
  6
CONTINUOUS
 10
5.147560
 20
6.803280
  0
VERTEX
  8
0
  6
CONTINUOUS
 10
5.140080
 20
6.078600
  0
VERTEX
  8
0
  6
CONTINUOUS
 10
5.114560
 20
6.059680
  0
SEQEND
  8
0
  0
SOLID
  8
0
 62
    15
 10
5.140080
 20
6.078600
 11
5.147560
 21
6.803280
 12
5.168680
 22
6.092240
 13
5.176160
 23
6.816920
  0
POLYLINE
  8
0
  6
CONTINUOUS
 66
     1
 40
0.000000
 41
0.000000
  0
VERTEX
  8
0
  6
CONTINUOUS
 10
5.140080
 20
6.078600
  0
VERTEX
  8
0
  6
CONTINUOUS
 10
5.147560
 20
6.803280
  0
VERTEX
  8
0
  6
CONTINUOUS
 10
5.176160
 20
6.816920
  0
VERTEX
  8
0
  6
CONTINUOUS
 10
5.168680
 20
6.092240
  0
VERTEX
  8
0
  6
CONTINUOUS
 10
5.140080
 20
6.078600
  0
SEQEND
  8
0
  0
SOLID
  8
0
 62
    15
 10
5.168680
 20
6.092240
 11
5.176160
 21
6.816920
 12
5.199040
 22
6.100600
 13
5.206520
 23
6.824840
  0
POLYLINE
  8
0
  6
CONTINUOUS
 66
     1
 40
0.000000
 41
0.000000
  0
VERTEX
  8
0
  6
CONTINUOUS
 10
5.168680
 20
6.092240
  0
VERTEX
  8
0
  6
CONTINUOUS
 10
5.176160
 20
6.816920
  0
VERTEX
  8
0
  6
CONTINUOUS
 10
5.206520
 20
6.824840
  0
VERTEX
  8
0
  6
CONTINUOUS
 10
5.199040
 20
6.100600
  0
VERTEX
  8
0
  6
CONTINUOUS
 10
5.168680
 20
6.092240
  0
SEQEND
  8
0
  0
SOLID
  8
0
 62
    15
 10
5.199040
 20
6.100600
 11
5.206520
 21
6.824840
 12
5.230280
 22
6.103240
 13
5.237760
 23
6.827920
  0
POLYLINE
  8
0
  6
CONTINUOUS
 66
     1
 40
0.000000
 41
0.000000
  0
VERTEX
  8
0
  6
CONTINUOUS
 10
5.199040
 20
6.100600
  0
VERTEX
  8
0
  6
CONTINUOUS
 10
5.206520
 20
6.824840
  0
VERTEX
  8
0
  6
CONTINUOUS
 10
5.237760
 20
6.827920
  0
VERTEX
  8
0
  6
CONTINUOUS
 10
5.230280
 20
6.103240
  0
VERTEX
  8
0
  6
CONTINUOUS
 10
5.199040
 20
6.100600
  0
SEQEND
  8
0
  0
SOLID
  8
0
 62
    15
 10
5.230280
 20
6.103240
 11
5.237760
 21
6.827920
 12
5.261520
 22
6.101040
 13
5.269000
 23
6.825280
  0
POLYLINE
  8
0
  6
CONTINUOUS
 66
     1
 40
0.000000
 41
0.000000
  0
VERTEX
  8
0
  6
CONTINUOUS
 10
5.230280
 20
6.103240
  0
VERTEX
  8
0
  6
CONTINUOUS
 10
5.237760
 20
6.827920
  0
VERTEX
  8
0
  6
CONTINUOUS
 10
5.269000
 20
6.825280
  0
VERTEX
  8
0
  6
CONTINUOUS
 10
5.261520
 20
6.101040
  0
VERTEX
  8
0
  6
CONTINUOUS
 10
5.230280
 20
6.103240
  0
SEQEND
  8
0
  0
SOLID
  8
0
 62
    15
 10
5.261520
 20
6.101040
 11
5.269000
 21
6.825280
 12
5.291880
 22
6.093560
 13
5.299360
 23
6.817800
  0
POLYLINE
  8
0
  6
CONTINUOUS
 66
     1
 40
0.000000
 41
0.000000
  0
VERTEX
  8
0
  6
CONTINUOUS
 10
5.261520
 20
6.101040
  0
VERTEX
  8
0
  6
CONTINUOUS
 10
5.269000
 20
6.825280
  0
VERTEX
  8
0
  6
CONTINUOUS
 10
5.299360
 20
6.817800
  0
VERTEX
  8
0
  6
CONTINUOUS
 10
5.291880
 20
6.093560
  0
VERTEX
  8
0
  6
CONTINUOUS
 10
5.261520
 20
6.101040
  0
SEQEND
  8
0
  0
SOLID
  8
0
 62
    15
 10
5.291880
 20
6.093560
 11
5.299360
 21
6.817800
 12
5.320480
 22
6.081240
 13
5.327960
 23
6.805480
  0
POLYLINE
  8
0
  6
CONTINUOUS
 66
     1
 40
0.000000
 41
0.000000
  0
VERTEX
  8
0
  6
CONTINUOUS
 10
5.291880
 20
6.093560
  0
VERTEX
  8
0
  6
CONTINUOUS
 10
5.299360
 20
6.817800
  0
VERTEX
  8
0
  6
CONTINUOUS
 10
5.327960
 20
6.805480
  0
VERTEX
  8
0
  6
CONTINUOUS
 10
5.320480
 20
6.081240
  0
VERTEX
  8
0
  6
CONTINUOUS
 10
5.291880
 20
6.093560
  0
SEQEND
  8
0
  0
SOLID
  8
0
 62
    15
 10
5.320480
 20
6.081240
 11
5.327960
 21
6.805480
 12
5.346880
 22
6.063640
 13
5.354360
 23
6.787880
  0
POLYLINE
  8
0
  6
CONTINUOUS
 66
     1
 40
0.000000
 41
0.000000
  0
VERTEX
  8
0
  6
CONTINUOUS
 10
5.320480
 20
6.081240
  0
VERTEX
  8
0
  6
CONTINUOUS
 10
5.327960
 20
6.805480
  0
VERTEX
  8
0
  6
CONTINUOUS
 10
5.354360
 20
6.787880
  0
VERTEX
  8
0
  6
CONTINUOUS
 10
5.346880
 20
6.063640
  0
VERTEX
  8
0
  6
CONTINUOUS
 10
5.320480
 20
6.081240
  0
SEQEND
  8
0
  0
SOLID
  8
0
 62
    15
 10
5.346880
 20
6.063640
 11
5.354360
 21
6.787880
 12
5.375040
 22
6.063640
 13
5.382520
 23
6.787880
  0
POLYLINE
  8
0
  6
CONTINUOUS
 66
     1
 40
0.000000
 41
0.000000
  0
VERTEX
  8
0
  6
CONTINUOUS
 10
5.346880
 20
6.063640
  0
VERTEX
  8
0
  6
CONTINUOUS
 10
5.354360
 20
6.787880
  0
VERTEX
  8
0
  6
CONTINUOUS
 10
5.382520
 20
6.787880
  0
VERTEX
  8
0
  6
CONTINUOUS
 10
5.375040
 20
6.063640
  0
VERTEX
  8
0
  6
CONTINUOUS
 10
5.346880
 20
6.063640
  0
SEQEND
  8
0
  0
SOLID
  8
0
 62
    15
 10
5.375040
 20
6.063640
 11
5.382520
 21
6.787880
 12
5.448520
 22
6.177600
 13
5.456000
 23
6.902280
  0
POLYLINE
  8
0
  6
CONTINUOUS
 66
     1
 40
0.000000
 41
0.000000
  0
VERTEX
  8
0
  6
CONTINUOUS
 10
5.375040
 20
6.063640
  0
VERTEX
  8
0
  6
CONTINUOUS
 10
5.382520
 20
6.787880
  0
VERTEX
  8
0
  6
CONTINUOUS
 10
5.456000
 20
6.902280
  0
VERTEX
  8
0
  6
CONTINUOUS
 10
5.448520
 20
6.177600
  0
VERTEX
  8
0
  6
CONTINUOUS
 10
5.375040
 20
6.063640
  0
SEQEND
  8
0
  0
SOLID
  8
0
 62
    15
 10
5.448520
 20
6.177600
 11
5.456000
 21
6.902280
 12
5.485040
 22
6.146800
 13
5.492520
 23
6.871040
  0
POLYLINE
  8
0
  6
CONTINUOUS
 66
     1
 40
0.000000
 41
0.000000
  0
VERTEX
  8
0
  6
CONTINUOUS
 10
5.448520
 20
6.177600
  0
VERTEX
  8
0
  6
CONTINUOUS
 10
5.456000
 20
6.902280
  0
VERTEX
  8
0
  6
CONTINUOUS
 10
5.492520
 20
6.871040
  0
VERTEX
  8
0
  6
CONTINUOUS
 10
5.485040
 20
6.146800
  0
VERTEX
  8
0
  6
CONTINUOUS
 10
5.448520
 20
6.177600
  0
SEQEND
  8
0
  0
SOLID
  8
0
 62
    15
 10
5.485040
 20
6.146800
 11
5.492520
 21
6.871040
 12
5.518480
 22
6.120400
 13
5.525960
 23
6.845080
  0
POLYLINE
  8
0
  6
CONTINUOUS
 66
     1
 40
0.000000
 41
0.000000
  0
VERTEX
  8
0
  6
CONTINUOUS
 10
5.485040
 20
6.146800
  0
VERTEX
  8
0
  6
CONTINUOUS
 10
5.492520
 20
6.871040
  0
VERTEX
  8
0
  6
CONTINUOUS
 10
5.525960
 20
6.845080
  0
VERTEX
  8
0
  6
CONTINUOUS
 10
5.518480
 20
6.120400
  0
VERTEX
  8
0
  6
CONTINUOUS
 10
5.485040
 20
6.146800
  0
SEQEND
  8
0
  0
SOLID
  8
0
 62
    15
 10
5.518480
 20
6.120400
 11
5.525960
 21
6.845080
 12
5.549720
 22
6.098840
 13
5.557200
 23
6.823080
  0
POLYLINE
  8
0
  6
CONTINUOUS
 66
     1
 40
0.000000
 41
0.000000
  0
VERTEX
  8
0
  6
CONTINUOUS
 10
5.518480
 20
6.120400
  0
VERTEX
  8
0
  6
CONTINUOUS
 10
5.525960
 20
6.845080
  0
VERTEX
  8
0
  6
CONTINUOUS
 10
5.557200
 20
6.823080
  0
VERTEX
  8
0
  6
CONTINUOUS
 10
5.549720
 20
6.098840
  0
VERTEX
  8
0
  6
CONTINUOUS
 10
5.518480
 20
6.120400
  0
SEQEND
  8
0
  0
SOLID
  8
0
 62
    15
 10
5.549720
 20
6.098840
 11
5.557200
 21
6.823080
 12
5.577880
 22
6.081680
 13
5.585360
 23
6.805920
  0
POLYLINE
  8
0
  6
CONTINUOUS
 66
     1
 40
0.000000
 41
0.000000
  0
VERTEX
  8
0
  6
CONTINUOUS
 10
5.549720
 20
6.098840
  0
VERTEX
  8
0
  6
CONTINUOUS
 10
5.557200
 20
6.823080
  0
VERTEX
  8
0
  6
CONTINUOUS
 10
5.585360
 20
6.805920
  0
VERTEX
  8
0
  6
CONTINUOUS
 10
5.577880
 20
6.081680
  0
VERTEX
  8
0
  6
CONTINUOUS
 10
5.549720
 20
6.098840
  0
SEQEND
  8
0
  0
SOLID
  8
0
 62
    15
 10
5.577880
 20
6.081680
 11
5.585360
 21
6.805920
 12
5.604280
 22
6.068040
 13
5.611760
 23
6.792720
  0
POLYLINE
  8
0
  6
CONTINUOUS
 66
     1
 40
0.000000
 41
0.000000
  0
VERTEX
  8
0
  6
CONTINUOUS
 10
5.577880
 20
6.081680
  0
VERTEX
  8
0
  6
CONTINUOUS
 10
5.585360
 20
6.805920
  0
VERTEX
  8
0
  6
CONTINUOUS
 10
5.611760
 20
6.792720
  0
VERTEX
  8
0
  6
CONTINUOUS
 10
5.604280
 20
6.068040
  0
VERTEX
  8
0
  6
CONTINUOUS
 10
5.577880
 20
6.081680
  0
SEQEND
  8
0
  0
SOLID
  8
0
 62
    15
 10
5.604280
 20
6.068040
 11
5.611760
 21
6.792720
 12
5.628480
 22
6.058360
 13
5.635960
 23
6.783040
  0
POLYLINE
  8
0
  6
CONTINUOUS
 66
     1
 40
0.000000
 41
0.000000
  0
VERTEX
  8
0
  6
CONTINUOUS
 10
5.604280
 20
6.068040
  0
VERTEX
  8
0
  6
CONTINUOUS
 10
5.611760
 20
6.792720
  0
VERTEX
  8
0
  6
CONTINUOUS
 10
5.635960
 20
6.783040
  0
VERTEX
  8
0
  6
CONTINUOUS
 10
5.628480
 20
6.058360
  0
VERTEX
  8
0
  6
CONTINUOUS
 10
5.604280
 20
6.068040
  0
SEQEND
  8
0
  0
SOLID
  8
0
 62
    15
 10
5.628480
 20
6.058360
 11
5.635960
 21
6.783040
 12
5.672040
 22
6.049120
 13
5.679520
 23
6.773360
  0
POLYLINE
  8
0
  6
CONTINUOUS
 66
     1
 40
0.000000
 41
0.000000
  0
VERTEX
  8
0
  6
CONTINUOUS
 10
5.628480
 20
6.058360
  0
VERTEX
  8
0
  6
CONTINUOUS
 10
5.635960
 20
6.783040
  0
VERTEX
  8
0
  6
CONTINUOUS
 10
5.679520
 20
6.773360
  0
VERTEX
  8
0
  6
CONTINUOUS
 10
5.672040
 20
6.049120
  0
VERTEX
  8
0
  6
CONTINUOUS
 10
5.628480
 20
6.058360
  0
SEQEND
  8
0
  0
SOLID
  8
0
 62
    15
 10
5.672040
 20
6.049120
 11
5.679520
 21
6.773360
 12
5.710760
 22
6.050880
 13
5.718240
 23
6.775120
  0
POLYLINE
  8
0
  6
CONTINUOUS
 66
     1
 40
0.000000
 41
0.000000
  0
VERTEX
  8
0
  6
CONTINUOUS
 10
5.672040
 20
6.049120
  0
VERTEX
  8
0
  6
CONTINUOUS
 10
5.679520
 20
6.773360
  0
VERTEX
  8
0
  6
CONTINUOUS
 10
5.718240
 20
6.775120
  0
VERTEX
  8
0
  6
CONTINUOUS
 10
5.710760
 20
6.050880
  0
VERTEX
  8
0
  6
CONTINUOUS
 10
5.672040
 20
6.049120
  0
SEQEND
  8
0
  0
SOLID
  8
0
 62
    15
 10
5.710760
 20
6.050880
 11
5.718240
 21
6.775120
 12
5.746840
 22
6.061440
 13
5.754320
 23
6.785680
  0
POLYLINE
  8
0
  6
CONTINUOUS
 66
     1
 40
0.000000
 41
0.000000
  0
VERTEX
  8
0
  6
CONTINUOUS
 10
5.710760
 20
6.050880
  0
VERTEX
  8
0
  6
CONTINUOUS
 10
5.718240
 20
6.775120
  0
VERTEX
  8
0
  6
CONTINUOUS
 10
5.754320
 20
6.785680
  0
VERTEX
  8
0
  6
CONTINUOUS
 10
5.746840
 20
6.061440
  0
VERTEX
  8
0
  6
CONTINUOUS
 10
5.710760
 20
6.050880
  0
SEQEND
  8
0
  0
SOLID
  8
0
 62
    15
 10
5.746840
 20
6.061440
 11
5.754320
 21
6.785680
 12
5.782040
 22
6.079040
 13
5.789520
 23
6.803280
  0
POLYLINE
  8
0
  6
CONTINUOUS
 66
     1
 40
0.000000
 41
0.000000
  0
VERTEX
  8
0
  6
CONTINUOUS
 10
5.746840
 20
6.061440
  0
VERTEX
  8
0
  6
CONTINUOUS
 10
5.754320
 20
6.785680
  0
VERTEX
  8
0
  6
CONTINUOUS
 10
5.789520
 20
6.803280
  0
VERTEX
  8
0
  6
CONTINUOUS
 10
5.782040
 20
6.079040
  0
VERTEX
  8
0
  6
CONTINUOUS
 10
5.746840
 20
6.061440
  0
SEQEND
  8
0
  0
SOLID
  8
0
 62
    15
 10
5.782040
 20
6.079040
 11
5.789520
 21
6.803280
 12
5.819000
 22
6.100160
 13
5.826480
 23
6.824840
  0
POLYLINE
  8
0
  6
CONTINUOUS
 66
     1
 40
0.000000
 41
0.000000
  0
VERTEX
  8
0
  6
CONTINUOUS
 10
5.782040
 20
6.079040
  0
VERTEX
  8
0
  6
CONTINUOUS
 10
5.789520
 20
6.803280
  0
VERTEX
  8
0
  6
CONTINUOUS
 10
5.826480
 20
6.824840
  0
VERTEX
  8
0
  6
CONTINUOUS
 10
5.819000
 20
6.100160
  0
VERTEX
  8
0
  6
CONTINUOUS
 10
5.782040
 20
6.079040
  0
SEQEND
  8
0
  0
SOLID
  8
0
 62
    15
 10
5.819000
 20
6.100160
 11
5.826480
 21
6.824840
 12
5.861240
 22
6.123040
 13
5.868720
 23
6.847280
  0
POLYLINE
  8
0
  6
CONTINUOUS
 66
     1
 40
0.000000
 41
0.000000
  0
VERTEX
  8
0
  6
CONTINUOUS
 10
5.819000
 20
6.100160
  0
VERTEX
  8
0
  6
CONTINUOUS
 10
5.826480
 20
6.824840
  0
VERTEX
  8
0
  6
CONTINUOUS
 10
5.868720
 20
6.847280
  0
VERTEX
  8
0
  6
CONTINUOUS
 10
5.861240
 20
6.123040
  0
VERTEX
  8
0
  6
CONTINUOUS
 10
5.819000
 20
6.100160
  0
SEQEND
  8
0
  0
SOLID
  8
0
 62
    15
 10
5.861240
 20
6.123040
 11
5.868720
 21
6.847280
 12
5.909640
 22
6.142400
 13
5.917120
 23
6.866640
  0
POLYLINE
  8
0
  6
CONTINUOUS
 66
     1
 40
0.000000
 41
0.000000
  0
VERTEX
  8
0
  6
CONTINUOUS
 10
5.861240
 20
6.123040
  0
VERTEX
  8
0
  6
CONTINUOUS
 10
5.868720
 20
6.847280
  0
VERTEX
  8
0
  6
CONTINUOUS
 10
5.917120
 20
6.866640
  0
VERTEX
  8
0
  6
CONTINUOUS
 10
5.909640
 20
6.142400
  0
VERTEX
  8
0
  6
CONTINUOUS
 10
5.861240
 20
6.123040
  0
SEQEND
  8
0
  0
SOLID
  8
0
 62
    15
 10
5.909640
 20
6.142400
 11
5.917120
 21
6.866640
 12
5.961560
 22
6.155600
 13
5.969040
 23
6.879840
  0
POLYLINE
  8
0
  6
CONTINUOUS
 66
     1
 40
0.000000
 41
0.000000
  0
VERTEX
  8
0
  6
CONTINUOUS
 10
5.909640
 20
6.142400
  0
VERTEX
  8
0
  6
CONTINUOUS
 10
5.917120
 20
6.866640
  0
VERTEX
  8
0
  6
CONTINUOUS
 10
5.969040
 20
6.879840
  0
VERTEX
  8
0
  6
CONTINUOUS
 10
5.961560
 20
6.155600
  0
VERTEX
  8
0
  6
CONTINUOUS
 10
5.909640
 20
6.142400
  0
SEQEND
  8
0
  0
SOLID
  8
0
 62
    15
 10
5.961560
 20
6.155600
 11
5.969040
 21
6.879840
 12
6.014360
 22
6.159120
 13
6.021840
 23
6.883360
  0
POLYLINE
  8
0
  6
CONTINUOUS
 66
     1
 40
0.000000
 41
0.000000
  0
VERTEX
  8
0
  6
CONTINUOUS
 10
5.961560
 20
6.155600
  0
VERTEX
  8
0
  6
CONTINUOUS
 10
5.969040
 20
6.879840
  0
VERTEX
  8
0
  6
CONTINUOUS
 10
6.021840
 20
6.883360
  0
VERTEX
  8
0
  6
CONTINUOUS
 10
6.014360
 20
6.159120
  0
VERTEX
  8
0
  6
CONTINUOUS
 10
5.961560
 20
6.155600
  0
SEQEND
  8
0
  0
SOLID
  8
0
 62
    15
 10
6.014360
 20
6.159120
 11
6.021840
 21
6.883360
 12
6.065840
 22
6.149000
 13
6.073320
 23
6.873680
  0
POLYLINE
  8
0
  6
CONTINUOUS
 66
     1
 40
0.000000
 41
0.000000
  0
VERTEX
  8
0
  6
CONTINUOUS
 10
6.014360
 20
6.159120
  0
VERTEX
  8
0
  6
CONTINUOUS
 10
6.021840
 20
6.883360
  0
VERTEX
  8
0
  6
CONTINUOUS
 10
6.073320
 20
6.873680
  0
VERTEX
  8
0
  6
CONTINUOUS
 10
6.065840
 20
6.149000
  0
VERTEX
  8
0
  6
CONTINUOUS
 10
6.014360
 20
6.159120
  0
SEQEND
  8
0
  0
SOLID
  8
0
 62
    15
 10
6.065840
 20
6.149000
 11
6.073320
 21
6.873680
 12
6.090480
 22
6.138440
 13
6.097960
 23
6.862680
  0
POLYLINE
  8
0
  6
CONTINUOUS
 66
     1
 40
0.000000
 41
0.000000
  0
VERTEX
  8
0
  6
CONTINUOUS
 10
6.065840
 20
6.149000
  0
VERTEX
  8
0
  6
CONTINUOUS
 10
6.073320
 20
6.873680
  0
VERTEX
  8
0
  6
CONTINUOUS
 10
6.097960
 20
6.862680
  0
VERTEX
  8
0
  6
CONTINUOUS
 10
6.090480
 20
6.138440
  0
VERTEX
  8
0
  6
CONTINUOUS
 10
6.065840
 20
6.149000
  0
SEQEND
  8
0
  0
SOLID
  8
0
 62
    15
 10
6.090480
 20
6.138440
 11
6.097960
 21
6.862680
 12
6.113360
 22
6.122600
 13
6.120840
 23
6.847280
  0
POLYLINE
  8
0
  6
CONTINUOUS
 66
     1
 40
0.000000
 41
0.000000
  0
VERTEX
  8
0
  6
CONTINUOUS
 10
6.090480
 20
6.138440
  0
VERTEX
  8
0
  6
CONTINUOUS
 10
6.097960
 20
6.862680
  0
VERTEX
  8
0
  6
CONTINUOUS
 10
6.120840
 20
6.847280
  0
VERTEX
  8
0
  6
CONTINUOUS
 10
6.113360
 20
6.122600
  0
VERTEX
  8
0
  6
CONTINUOUS
 10
6.090480
 20
6.138440
  0
SEQEND
  8
0
  0
SOLID
  8
0
 62
    15
 10
6.113360
 20
6.122600
 11
6.120840
 21
6.847280
 12
6.134920
 22
6.102360
 13
6.142400
 23
6.826600
  0
POLYLINE
  8
0
  6
CONTINUOUS
 66
     1
 40
0.000000
 41
0.000000
  0
VERTEX
  8
0
  6
CONTINUOUS
 10
6.113360
 20
6.122600
  0
VERTEX
  8
0
  6
CONTINUOUS
 10
6.120840
 20
6.847280
  0
VERTEX
  8
0
  6
CONTINUOUS
 10
6.142400
 20
6.826600
  0
VERTEX
  8
0
  6
CONTINUOUS
 10
6.134920
 20
6.102360
  0
VERTEX
  8
0
  6
CONTINUOUS
 10
6.113360
 20
6.122600
  0
SEQEND
  8
0
  0
SOLID
  8
0
 62
    15
 10
6.134920
 20
6.102360
 11
6.142400
 21
6.826600
 12
6.154280
 22
6.076400
 13
6.161760
 23
6.800640
  0
POLYLINE
  8
0
  6
CONTINUOUS
 66
     1
 40
0.000000
 41
0.000000
  0
VERTEX
  8
0
  6
CONTINUOUS
 10
6.134920
 20
6.102360
  0
VERTEX
  8
0
  6
CONTINUOUS
 10
6.142400
 20
6.826600
  0
VERTEX
  8
0
  6
CONTINUOUS
 10
6.161760
 20
6.800640
  0
VERTEX
  8
0
  6
CONTINUOUS
 10
6.154280
 20
6.076400
  0
VERTEX
  8
0
  6
CONTINUOUS
 10
6.134920
 20
6.102360
  0
SEQEND
  8
0
  0
SOLID
  8
0
 62
    15
 10
6.154280
 20
6.076400
 11
6.161760
 21
6.800640
 12
6.171000
 22
6.044720
 13
6.178480
 23
6.768960
  0
POLYLINE
  8
0
  6
CONTINUOUS
 66
     1
 40
0.000000
 41
0.000000
  0
VERTEX
  8
0
  6
CONTINUOUS
 10
6.154280
 20
6.076400
  0
VERTEX
  8
0
  6
CONTINUOUS
 10
6.161760
 20
6.800640
  0
VERTEX
  8
0
  6
CONTINUOUS
 10
6.178480
 20
6.768960
  0
VERTEX
  8
0
  6
CONTINUOUS
 10
6.171000
 20
6.044720
  0
VERTEX
  8
0
  6
CONTINUOUS
 10
6.154280
 20
6.076400
  0
SEQEND
  8
0
  0
SOLID
  8
0
 62
    15
 10
6.171000
 20
6.044720
 11
6.178480
 21
6.768960
 12
6.185520
 22
6.006880
 13
6.193000
 23
6.731120
  0
POLYLINE
  8
0
  6
CONTINUOUS
 66
     1
 40
0.000000
 41
0.000000
  0
VERTEX
  8
0
  6
CONTINUOUS
 10
6.171000
 20
6.044720
  0
VERTEX
  8
0
  6
CONTINUOUS
 10
6.178480
 20
6.768960
  0
VERTEX
  8
0
  6
CONTINUOUS
 10
6.193000
 20
6.731120
  0
VERTEX
  8
0
  6
CONTINUOUS
 10
6.185520
 20
6.006880
  0
VERTEX
  8
0
  6
CONTINUOUS
 10
6.171000
 20
6.044720
  0
SEQEND
  8
0
  0
SOLID
  8
0
 62
    15
 10
6.185520
 20
6.006880
 11
6.193000
 21
6.731120
 12
6.222480
 22
6.006880
 13
6.229960
 23
6.731120
  0
POLYLINE
  8
0
  6
CONTINUOUS
 66
     1
 40
0.000000
 41
0.000000
  0
VERTEX
  8
0
  6
CONTINUOUS
 10
6.185520
 20
6.006880
  0
VERTEX
  8
0
  6
CONTINUOUS
 10
6.193000
 20
6.731120
  0
VERTEX
  8
0
  6
CONTINUOUS
 10
6.229960
 20
6.731120
  0
VERTEX
  8
0
  6
CONTINUOUS
 10
6.222480
 20
6.006880
  0
VERTEX
  8
0
  6
CONTINUOUS
 10
6.185520
 20
6.006880
  0
SEQEND
  8
0
  0
SOLID
  8
0
 62
    15
 10
6.222480
 20
6.006880
 11
6.229960
 21
6.731120
 12
6.250640
 22
6.100160
 13
6.258120
 23
6.824840
  0
POLYLINE
  8
0
  6
CONTINUOUS
 66
     1
 40
0.000000
 41
0.000000
  0
VERTEX
  8
0
  6
CONTINUOUS
 10
6.222480
 20
6.006880
  0
VERTEX
  8
0
  6
CONTINUOUS
 10
6.229960
 20
6.731120
  0
VERTEX
  8
0
  6
CONTINUOUS
 10
6.258120
 20
6.824840
  0
VERTEX
  8
0
  6
CONTINUOUS
 10
6.250640
 20
6.100160
  0
VERTEX
  8
0
  6
CONTINUOUS
 10
6.222480
 20
6.006880
  0
SEQEND
  8
0
  0
SOLID
  8
0
 62
    15
 10
6.250640
 20
6.100160
 11
6.258120
 21
6.824840
 12
6.336440
 22
6.100160
 13
6.343920
 23
6.824840
  0
POLYLINE
  8
0
  6
CONTINUOUS
 66
     1
 40
0.000000
 41
0.000000
  0
VERTEX
  8
0
  6
CONTINUOUS
 10
6.250640
 20
6.100160
  0
VERTEX
  8
0
  6
CONTINUOUS
 10
6.258120
 20
6.824840
  0
VERTEX
  8
0
  6
CONTINUOUS
 10
6.343920
 20
6.824840
  0
VERTEX
  8
0
  6
CONTINUOUS
 10
6.336440
 20
6.100160
  0
VERTEX
  8
0
  6
CONTINUOUS
 10
6.250640
 20
6.100160
  0
SEQEND
  8
0
  0
SOLID
  8
0
 62
    15
 10
6.336440
 20
6.185960
 11
6.343920
 21
6.910200
 12
6.829240
 22
6.185960
 13
6.836720
 23
6.910200
  0
POLYLINE
  8
0
  6
CONTINUOUS
 66
     1
 40
0.000000
 41
0.000000
  0
VERTEX
  8
0
  6
CONTINUOUS
 10
6.336440
 20
6.185960
  0
VERTEX
  8
0
  6
CONTINUOUS
 10
6.343920
 20
6.910200
  0
VERTEX
  8
0
  6
CONTINUOUS
 10
6.836720
 20
6.910200
  0
VERTEX
  8
0
  6
CONTINUOUS
 10
6.829240
 20
6.185960
  0
VERTEX
  8
0
  6
CONTINUOUS
 10
6.336440
 20
6.185960
  0
SEQEND
  8
0
  0
SOLID
  8
0
 62
    15
 10
6.829240
 20
6.185960
 11
6.836720
 21
6.910200
 12
6.831880
 22
6.187280
 13
6.839360
 23
6.911960
  0
POLYLINE
  8
0
  6
CONTINUOUS
 66
     1
 40
0.000000
 41
0.000000
  0
VERTEX
  8
0
  6
CONTINUOUS
 10
6.829240
 20
6.185960
  0
VERTEX
  8
0
  6
CONTINUOUS
 10
6.836720
 20
6.910200
  0
VERTEX
  8
0
  6
CONTINUOUS
 10
6.839360
 20
6.911960
  0
VERTEX
  8
0
  6
CONTINUOUS
 10
6.831880
 20
6.187280
  0
VERTEX
  8
0
  6
CONTINUOUS
 10
6.829240
 20
6.185960
  0
SEQEND
  8
0
  0
POLYLINE
  8
0
  6
CONTINUOUS
 66
     1
 40
0.000000
 41
0.000000
  0
VERTEX
  8
0
  6
CONTINUOUS
 10
6.831880
 20
6.187280
  0
VERTEX
  8
0
  6
CONTINUOUS
 10
6.831880
 20
5.307280
  0
VERTEX
  8
0
  6
CONTINUOUS
 10
2.075920
 20
5.307280
  0
VERTEX
  8
0
  6
CONTINUOUS
 10
2.075920
 20
6.185960
  0
VERTEX
  8
0
  6
CONTINUOUS
 10
2.568720
 20
6.185960
  0
VERTEX
  8
0
  6
CONTINUOUS
 10
2.568720
 20
6.100600
  0
VERTEX
  8
0
  6
CONTINUOUS
 10
2.654080
 20
6.100600
  0
VERTEX
  8
0
  6
CONTINUOUS
 10
2.682680
 20
6.006880
  0
VERTEX
  8
0
  6
CONTINUOUS
 10
2.719200
 20
6.006880
  0
VERTEX
  8
0
  6
CONTINUOUS
 10
2.733720
 20
6.045160
  0
VERTEX
  8
0
  6
CONTINUOUS
 10
2.750880
 20
6.076840
  0
VERTEX
  8
0
  6
CONTINUOUS
 10
2.770240
 20
6.102360
  0
VERTEX
  8
0
  6
CONTINUOUS
 10
2.791360
 20
6.123040
  0
VERTEX
  8
0
  6
CONTINUOUS
 10
2.814240
 20
6.138440
  0
VERTEX
  8
0
  6
CONTINUOUS
 10
2.838880
 20
6.149440
  0
VERTEX
  8
0
  6
CONTINUOUS
 10
2.890360
 20
6.159120
  0
VERTEX
  8
0
  6
CONTINUOUS
 10
2.943160
 20
6.155600
  0
VERTEX
  8
0
  6
CONTINUOUS
 10
2.995520
 20
6.142840
  0
VERTEX
  8
0
  6
CONTINUOUS
 10
3.043480
 20
6.123040
  0
VERTEX
  8
0
  6
CONTINUOUS
 10
3.085720
 20
6.100600
  0
VERTEX
  8
0
  6
CONTINUOUS
 10
3.122680
 20
6.079040
  0
VERTEX
  8
0
  6
CONTINUOUS
 10
3.157880
 20
6.061880
  0
VERTEX
  8
0
  6
CONTINUOUS
 10
3.193960
 20
6.050880
  0
VERTEX
  8
0
  6
CONTINUOUS
 10
3.233120
 20
6.049120
  0
VERTEX
  8
0
  6
CONTINUOUS
 10
3.276680
 20
6.058800
  0
VERTEX
  8
0
  6
CONTINUOUS
 10
3.300880
 20
6.068480
  0
VERTEX
  8
0
  6
CONTINUOUS
 10
3.326840
 20
6.081680
  0
VERTEX
  8
0
  6
CONTINUOUS
 10
3.355440
 20
6.099280
  0
VERTEX
  8
0
  6
CONTINUOUS
 10
3.386240
 20
6.120840
  0
VERTEX
  8
0
  6
CONTINUOUS
 10
3.419680
 20
6.146800
  0
VERTEX
  8
0
  6
CONTINUOUS
 10
3.456640
 20
6.178040
  0
VERTEX
  8
0
  6
CONTINUOUS
 10
3.529680
 20
6.064080
  0
VERTEX
  8
0
  6
CONTINUOUS
 10
3.558280
 20
6.064080
  0
VERTEX
  8
0
  6
CONTINUOUS
 10
3.584240
 20
6.081240
  0
VERTEX
  8
0
  6
CONTINUOUS
 10
3.613280
 20
6.094000
  0
VERTEX
  8
0
  6
CONTINUOUS
 10
3.643640
 20
6.101480
  0
VERTEX
  8
0
  6
CONTINUOUS
 10
3.674880
 20
6.103680
  0
VERTEX
  8
0
  6
CONTINUOUS
 10
3.706120
 20
6.100600
  0
VERTEX
  8
0
  6
CONTINUOUS
 10
3.736480
 20
6.092680
  0
VERTEX
  8
0
  6
CONTINUOUS
 10
3.764640
 20
6.079040
  0
VERTEX
  8
0
  6
CONTINUOUS
 10
3.790600
 20
6.059680
  0
VERTEX
  8
0
  6
CONTINUOUS
 10
3.909840
 20
6.097960
  0
VERTEX
  8
0
  6
CONTINUOUS
 10
4.018960
 20
6.127000
  0
VERTEX
  8
0
  6
CONTINUOUS
 10
4.117960
 20
6.148560
  0
VERTEX
  8
0
  6
CONTINUOUS
 10
4.206400
 20
6.163520
  0
VERTEX
  8
0
  6
CONTINUOUS
 10
4.284280
 20
6.173200
  0
VERTEX
  8
0
  6
CONTINUOUS
 10
4.351160
 20
6.178920
  0
VERTEX
  8
0
  6
CONTINUOUS
 10
4.407480
 20
6.181120
  0
VERTEX
  8
0
  6
CONTINUOUS
 10
4.498120
 20
6.181120
  0
VERTEX
  8
0
  6
CONTINUOUS
 10
4.554440
 20
6.178480
  0
VERTEX
  8
0
  6
CONTINUOUS
 10
4.621320
 20
6.173200
  0
VERTEX
  8
0
  6
CONTINUOUS
 10
4.699200
 20
6.163520
  0
VERTEX
  8
0
  6
CONTINUOUS
 10
4.787640
 20
6.148560
  0
VERTEX
  8
0
  6
CONTINUOUS
 10
4.886200
 20
6.127000
  0
VERTEX
  8
0
  6
CONTINUOUS
 10
4.995320
 20
6.097520
  0
VERTEX
  8
0
  6
CONTINUOUS
 10
5.114560
 20
6.059680
  0
VERTEX
  8
0
  6
CONTINUOUS
 10
5.140080
 20
6.078600
  0
VERTEX
  8
0
  6
CONTINUOUS
 10
5.168680
 20
6.092240
  0
VERTEX
  8
0
  6
CONTINUOUS
 10
5.199040
 20
6.100600
  0
VERTEX
  8
0
  6
CONTINUOUS
 10
5.230280
 20
6.103240
  0
VERTEX
  8
0
  6
CONTINUOUS
 10
5.261520
 20
6.101040
  0
VERTEX
  8
0
  6
CONTINUOUS
 10
5.291880
 20
6.093560
  0
VERTEX
  8
0
  6
CONTINUOUS
 10
5.320480
 20
6.081240
  0
VERTEX
  8
0
  6
CONTINUOUS
 10
5.346880
 20
6.063640
  0
VERTEX
  8
0
  6
CONTINUOUS
 10
5.375040
 20
6.063640
  0
VERTEX
  8
0
  6
CONTINUOUS
 10
5.448520
 20
6.177600
  0
VERTEX
  8
0
  6
CONTINUOUS
 10
5.518480
 20
6.120400
  0
VERTEX
  8
0
  6
CONTINUOUS
 10
5.549720
 20
6.098840
  0
VERTEX
  8
0
  6
CONTINUOUS
 10
5.577880
 20
6.081680
  0
VERTEX
  8
0
  6
CONTINUOUS
 10
5.604280
 20
6.068040
  0
VERTEX
  8
0
  6
CONTINUOUS
 10
5.628480
 20
6.058360
  0
VERTEX
  8
0
  6
CONTINUOUS
 10
5.672040
 20
6.049120
  0
VERTEX
  8
0
  6
CONTINUOUS
 10
5.710760
 20
6.050880
  0
VERTEX
  8
0
  6
CONTINUOUS
 10
5.746840
 20
6.061440
  0
VERTEX
  8
0
  6
CONTINUOUS
 10
5.782040
 20
6.079040
  0
VERTEX
  8
0
  6
CONTINUOUS
 10
5.861240
 20
6.123040
  0
VERTEX
  8
0
  6
CONTINUOUS
 10
5.909640
 20
6.142400
  0
VERTEX
  8
0
  6
CONTINUOUS
 10
5.961560
 20
6.155600
  0
VERTEX
  8
0
  6
CONTINUOUS
 10
6.014360
 20
6.159120
  0
VERTEX
  8
0
  6
CONTINUOUS
 10
6.065840
 20
6.149000
  0
VERTEX
  8
0
  6
CONTINUOUS
 10
6.090480
 20
6.138440
  0
VERTEX
  8
0
  6
CONTINUOUS
 10
6.113360
 20
6.122600
  0
VERTEX
  8
0
  6
CONTINUOUS
 10
6.134920
 20
6.102360
  0
VERTEX
  8
0
  6
CONTINUOUS
 10
6.154280
 20
6.076400
  0
VERTEX
  8
0
  6
CONTINUOUS
 10
6.171000
 20
6.044720
  0
VERTEX
  8
0
  6
CONTINUOUS
 10
6.185520
 20
6.006880
  0
VERTEX
  8
0
  6
CONTINUOUS
 10
6.222480
 20
6.006880
  0
VERTEX
  8
0
  6
CONTINUOUS
 10
6.250640
 20
6.100160
  0
VERTEX
  8
0
  6
CONTINUOUS
 10
6.336440
 20
6.100160
  0
VERTEX
  8
0
  6
CONTINUOUS
 10
6.336440
 20
6.185960
  0
VERTEX
  8
0
  6
CONTINUOUS
 10
6.829240
 20
6.185960
  0
VERTEX
  8
0
  6
CONTINUOUS
 10
6.831880
 20
6.187280
  0
SEQEND
  8
0
  0
TEXT
  8
0
 10
4.138200
 20
5.033160
 40
0.138293
  1
BA 1130
 41
1.000000
  7
SN0
 71
     0
 72
     5
 11
4.774801
 21
5.033160
  0
TEXT
  8
0
 10
4.005320
 20
4.841760
 40
0.138293
  1
7/8" x 4-3/4"
 41
1.000000
  7
SN0
 71
     0
 72
     5
 11
4.904812
 21
4.841760
  0
POLYLINE
  8
0
  6
CONTINUOUS
 66
     1
 40
0.014080
 41
0.014080
  0
VERTEX
  8
0
  6
CONTINUOUS
 10
6.832760
 20
8.904720
  0
VERTEX
  8
0
  6
CONTINUOUS
 10
6.339960
 20
8.904720
  0
VERTEX
  8
0
  6
CONTINUOUS
 10
6.339960
 20
8.819360
  0
VERTEX
  8
0
  6
CONTINUOUS
 10
6.254600
 20
8.819360
  0
VERTEX
  8
0
  6
CONTINUOUS
 10
6.226000
 20
8.725640
  0
VERTEX
  8
0
  6
CONTINUOUS
 10
6.189480
 20
8.725640
  0
VERTEX
  8
0
  6
CONTINUOUS
 10
6.174960
 20
8.763480
  0
VERTEX
  8
0
  6
CONTINUOUS
 10
6.157800
 20
8.795160
  0
VERTEX
  8
0
  6
CONTINUOUS
 10
6.138440
 20
8.821120
  0
VERTEX
  8
0
  6
CONTINUOUS
 10
6.117320
 20
8.841800
  0
VERTEX
  8
0
  6
CONTINUOUS
 10
6.094000
 20
8.857200
  0
VERTEX
  8
0
  6
CONTINUOUS
 10
6.069800
 20
8.868200
  0
VERTEX
  8
0
  6
CONTINUOUS
 10
6.044280
 20
8.874800
  0
VERTEX
  8
0
  6
CONTINUOUS
 10
6.018320
 20
8.877880
  0
VERTEX
  8
0
  6
CONTINUOUS
 10
5.991920
 20
8.877440
  0
VERTEX
  8
0
  6
CONTINUOUS
 10
5.965080
 20
8.874360
  0
VERTEX
  8
0
  6
CONTINUOUS
 10
5.939120
 20
8.868640
  0
VERTEX
  8
0
  6
CONTINUOUS
 10
5.913160
 20
8.861160
  0
VERTEX
  8
0
  6
CONTINUOUS
 10
5.865200
 20
8.841800
  0
VERTEX
  8
0
  6
CONTINUOUS
 10
5.822960
 20
8.819360
  0
VERTEX
  8
0
  6
CONTINUOUS
 10
5.768400
 20
8.788560
  0
VERTEX
  8
0
  6
CONTINUOUS
 10
5.750800
 20
8.780200
  0
VERTEX
  8
0
  6
CONTINUOUS
 10
5.732760
 20
8.774040
  0
VERTEX
  8
0
  6
CONTINUOUS
 10
5.705040
 20
8.768320
  0
VERTEX
  8
0
  6
CONTINUOUS
 10
5.685680
 20
8.767440
  0
VERTEX
  8
0
  6
CONTINUOUS
 10
5.654440
 20
8.770960
  0
VERTEX
  8
0
  6
CONTINUOUS
 10
5.620120
 20
8.781520
  0
VERTEX
  8
0
  6
CONTINUOUS
 10
5.581400
 20
8.800440
  0
VERTEX
  8
0
  6
CONTINUOUS
 10
5.537840
 20
8.828160
  0
VERTEX
  8
0
  6
CONTINUOUS
 10
5.488560
 20
8.865560
  0
VERTEX
  8
0
  6
CONTINUOUS
 10
5.452040
 20
8.896800
  0
VERTEX
  8
0
  6
CONTINUOUS
 10
5.379000
 20
8.782400
  0
VERTEX
  8
0
  6
CONTINUOUS
 10
5.350400
 20
8.782400
  0
VERTEX
  8
0
  6
CONTINUOUS
 10
5.324440
 20
8.800000
  0
VERTEX
  8
0
  6
CONTINUOUS
 10
5.295840
 20
8.812320
  0
VERTEX
  8
0
  6
CONTINUOUS
 10
5.265040
 20
8.819800
  0
VERTEX
  8
0
  6
CONTINUOUS
 10
5.249640
 20
8.822000
  0
VERTEX
  8
0
  6
CONTINUOUS
 10
5.233800
 20
8.822440
  0
VERTEX
  8
0
  6
CONTINUOUS
 10
5.202560
 20
8.819360
  0
VERTEX
  8
0
  6
CONTINUOUS
 10
5.172200
 20
8.811440
  0
VERTEX
  8
0
  6
CONTINUOUS
 10
5.144040
 20
8.797800
  0
VERTEX
  8
0
  6
CONTINUOUS
 10
5.118080
 20
8.778440
  0
VERTEX
  8
0
  6
CONTINUOUS
 10
5.027880
 20
8.807920
  0
VERTEX
  8
0
  6
CONTINUOUS
 10
4.916120
 20
8.839160
  0
VERTEX
  8
0
  6
CONTINUOUS
 10
4.791160
 20
8.867320
  0
VERTEX
  8
0
  6
CONTINUOUS
 10
4.682480
 20
8.885360
  0
VERTEX
  8
0
  6
CONTINUOUS
 10
4.573800
 20
8.896800
  0
VERTEX
  8
0
  6
CONTINUOUS
 10
4.502080
 20
8.900320
  0
VERTEX
  8
0
  6
CONTINUOUS
 10
4.411440
 20
8.900320
  0
VERTEX
  8
0
  6
CONTINUOUS
 10
4.305840
 20
8.894160
  0
VERTEX
  8
0
  6
CONTINUOUS
 10
4.209920
 20
8.882720
  0
VERTEX
  8
0
  6
CONTINUOUS
 10
4.097720
 20
8.862920
  0
VERTEX
  8
0
  6
CONTINUOUS
 10
3.996080
 20
8.839600
  0
VERTEX
  8
0
  6
CONTINUOUS
 10
3.884320
 20
8.808360
  0
VERTEX
  8
0
  6
CONTINUOUS
 10
3.794120
 20
8.778880
  0
VERTEX
  8
0
  6
CONTINUOUS
 10
3.768600
 20
8.797800
  0
VERTEX
  8
0
  6
CONTINUOUS
 10
3.740000
 20
8.811440
  0
VERTEX
  8
0
  6
CONTINUOUS
 10
3.725040
 20
8.816280
  0
VERTEX
  8
0
  6
CONTINUOUS
 10
3.694240
 20
8.821560
  0
VERTEX
  8
0
  6
CONTINUOUS
 10
3.663000
 20
8.822000
  0
VERTEX
  8
0
  6
CONTINUOUS
 10
3.631760
 20
8.817160
  0
VERTEX
  8
0
  6
CONTINUOUS
 10
3.602280
 20
8.807040
  0
VERTEX
  8
0
  6
CONTINUOUS
 10
3.574560
 20
8.792080
  0
VERTEX
  8
0
  6
CONTINUOUS
 10
3.561800
 20
8.782840
  0
VERTEX
  8
0
  6
CONTINUOUS
 10
3.533640
 20
8.782840
  0
VERTEX
  8
0
  6
CONTINUOUS
 10
3.460160
 20
8.896800
  0
VERTEX
  8
0
  6
CONTINUOUS
 10
3.406480
 20
8.851920
  0
VERTEX
  8
0
  6
CONTINUOUS
 10
3.358960
 20
8.818040
  0
VERTEX
  8
0
  6
CONTINUOUS
 10
3.317160
 20
8.793400
  0
VERTEX
  8
0
  6
CONTINUOUS
 10
3.280200
 20
8.777560
  0
VERTEX
  8
0
  6
CONTINUOUS
 10
3.257760
 20
8.770960
  0
VERTEX
  8
0
  6
CONTINUOUS
 10
3.226520
 20
8.767440
  0
VERTEX
  8
0
  6
CONTINUOUS
 10
3.207160
 20
8.768320
  0
VERTEX
  8
0
  6
CONTINUOUS
 10
3.179440
 20
8.774040
  0
VERTEX
  8
0
  6
CONTINUOUS
 10
3.144240
 20
8.788560
  0
VERTEX
  8
0
  6
CONTINUOUS
 10
3.069440
 20
8.830800
  0
VERTEX
  8
0
  6
CONTINUOUS
 10
3.023680
 20
8.852360
  0
VERTEX
  8
0
  6
CONTINUOUS
 10
2.999040
 20
8.861600
  0
VERTEX
  8
0
  6
CONTINUOUS
 10
2.973520
 20
8.869080
  0
VERTEX
  8
0
  6
CONTINUOUS
 10
2.933920
 20
8.876560
  0
VERTEX
  8
0
  6
CONTINUOUS
 10
2.907080
 20
8.878320
  0
VERTEX
  8
0
  6
CONTINUOUS
 10
2.881120
 20
8.877000
  0
VERTEX
  8
0
  6
CONTINUOUS
 10
2.855160
 20
8.872160
  0
VERTEX
  8
0
  6
CONTINUOUS
 10
2.830080
 20
8.863360
  0
VERTEX
  8
0
  6
CONTINUOUS
 10
2.806320
 20
8.850160
  0
VERTEX
  8
0
  6
CONTINUOUS
 10
2.784320
 20
8.832120
  0
VERTEX
  8
0
  6
CONTINUOUS
 10
2.764080
 20
8.808800
  0
VERTEX
  8
0
  6
CONTINUOUS
 10
2.745600
 20
8.780200
  0
VERTEX
  8
0
  6
CONTINUOUS
 10
2.730200
 20
8.745440
  0
VERTEX
  8
0
  6
CONTINUOUS
 10
2.723160
 20
8.725640
  0
VERTEX
  8
0
  6
CONTINUOUS
 10
2.686200
 20
8.725640
  0
VERTEX
  8
0
  6
CONTINUOUS
 10
2.658040
 20
8.819360
  0
VERTEX
  8
0
  6
CONTINUOUS
 10
2.572240
 20
8.819360
  0
VERTEX
  8
0
  6
CONTINUOUS
 10
2.572240
 20
8.905160
  0
VERTEX
  8
0
  6
CONTINUOUS
 10
2.079440
 20
8.905160
  0
VERTEX
  8
0
  6
CONTINUOUS
 10
2.079440
 20
8.026040
  0
VERTEX
  8
0
  6
CONTINUOUS
 10
6.835840
 20
8.026040
  0
VERTEX
  8
0
  6
CONTINUOUS
 10
6.835840
 20
8.906480
  0
VERTEX
  8
0
  6
CONTINUOUS
 10
6.832760
 20
8.904720
  0
SEQEND
  8
0
  0
TEXT
  8
0
 10
4.204640
 20
8.327880
 40
0.138293
  1
BA 1130
 41
1.000000
  7
SN0
 71
     0
 72
     5
 11
4.841241
 21
8.327880
  0
TEXT
  8
0
 10
4.072200
 20
8.136480
 40
0.138293
  1
7/8" x 4-3/4"
 41
1.000000
  7
SN0
 71
     0
 72
     5
 11
4.971692
 21
8.136480
  0
ENDSEC
  0
EOF
