  0
SECTION
  2
HEADER
  9
$ACADVER
  1
AC1006
  9
$EXTMIN
 10
3.207160
 20
4.360400
  9
$EXTMAX
 10
6.127000
 20
7.046160
  9
$LTSCALE
 40
0.044000
  9
$PDMODE
 70
    35
  9
$PDSIZE
 40
0.035200
  0
ENDSEC
  0
SECTION
  2
TABLES
  0
TABLE
  2
LTYPE
 70
     9
  0
LTYPE
  2
CONTINUOUS
 70
    64
  3
Solid line
 72
    65
 73
     0
 40
0.000000
  0
LTYPE
  2
DASHED
 70
    64
  3
__ __ __ __ __ __ __ __ __ __ __ __ __ __ __
 72
    65
 73
     2
 40
0.000330
 49
0.000220
 49
-0.000110
  0
LTYPE
  2
HIDDEN
 70
    64
  3
 _ _ _ _ _ _ _ _ _ _ _ _ _ _ _ _ _ _ _ _ _ _
 72
    65
 73
     2
 40
0.000165
 49
0.000110
 49
-0.000055
  0
LTYPE
  2
CENTER
 70
    64
  3
____ _ ____ _ ____ _ ____ _ ____ _ ____ _ ____
 72
    65
 73
     4
 40
0.000880
 49
0.000550
 49
-0.000110
 49
0.000110
 49
-0.000110
  0
LTYPE
  2
PHANTOM
 70
    64
  3
_____ _ _ _____ _ _ _____ _ _ _____ _ _ ____
 72
    65
 73
     6
 40
0.001100
 49
0.000550
 49
-0.000110
 49
0.000110
 49
-0.000110
 49
0.000110
 49
-0.000110
  0
LTYPE
  2
DOT
 70
    64
  3
...............................................
 72
    65
 73
     2
 40
0.000110
 49
0.000000
 49
-0.000110
  0
LTYPE
  2
DASHDOT
 70
    64
  3
__ . __ . __ . __ . __ . __ . __ . __ . __ . __
 72
    65
 73
     4
 40
0.000440
 49
0.000220
 49
-0.000110
 49
0.000000
 49
-0.000110
  0
LTYPE
  2
BORDER
 70
    64
  3
__ __ . __ __ . __ __ . __ __ . __ __ . __ __
 72
    65
 73
     6
 40
0.000770
 49
0.000220
 49
-0.000110
 49
0.000220
 49
-0.000110
 49
0.000000
 49
-0.000110
  0
LTYPE
  2
DIVIDE
 70
    64
  3
__ . . __ . . __ . . __ . . __ . . __ . . __
 72
    65
 73
     6
 40
0.000550
 49
0.000220
 49
-0.000110
 49
0.000000
 49
-0.000110
 49
0.000000
 49
-0.000110
  0
LTYPE
  2
DOTDOT
 70
    64
  3
 . .  . .  . .  . .  . .  . . 
 72
    65
 73
     5
 40
0.000242
 49
-0.000110
 49
0.000000
 49
-0.000110
 49
0.000000
 49
-0.000110
  0
ENDTAB
  0
TABLE
  2
STYLE
 70
     2
  0
STYLE
 70
     0
  2
SN0
 40
0.000000
 41
0.000440
 50
0.000000
 71
     0
 42
0.000000
  3
ROMAND
  0
STYLE
 70
    68
  2
SV0
 40
0.000000
 41
0.000440
 50
0.000000
 71
     0
 42
0.000000
  3
ROMAND
  0
ENDTAB
  0
TABLE
  2
LAYER
 70
     3
  0
LAYER
  2
FOREGROUND
 70
    64
 62
     7
  6
CONTINUOUS
  0
LAYER
  2
BACKGROUND
 70
    65
 62
    -7
  6
CONTINUOUS
  0
LAYER
  2
0
 70
    64
 62
     7
  6
CONTINUOUS
  0
ENDTAB
  0
ENDSEC
  0
SECTION
  2
ENTITIES
  0
POLYLINE
  8
FOREGROUND
  6
CONTINUOUS
 66
     1
 40
0.000000
 41
0.000000
  0
VERTEX
  8
FOREGROUND
  6
CONTINUOUS
 10
0.000000
 20
11.406560
  0
VERTEX
  8
FOREGROUND
  6
CONTINUOUS
 10
8.499920
 20
11.406560
  0
VERTEX
  8
FOREGROUND
  6
CONTINUOUS
 10
8.499920
 20
0.406560
  0
VERTEX
  8
FOREGROUND
  6
CONTINUOUS
 10
0.000000
 20
0.406560
  0
VERTEX
  8
FOREGROUND
  6
CONTINUOUS
 10
0.000000
 20
11.406560
  0
SEQEND
  8
0
  0
POLYLINE
  8
FOREGROUND
  6
CONTINUOUS
 66
     1
 40
0.000000
 41
0.000000
  0
VERTEX
  8
FOREGROUND
  6
CONTINUOUS
 10
0.000000
 20
11.406560
  0
VERTEX
  8
FOREGROUND
  6
CONTINUOUS
 10
8.499920
 20
11.406560
  0
VERTEX
  8
FOREGROUND
  6
CONTINUOUS
 10
8.499920
 20
0.406560
  0
VERTEX
  8
FOREGROUND
  6
CONTINUOUS
 10
0.000000
 20
0.406560
  0
VERTEX
  8
FOREGROUND
  6
CONTINUOUS
 10
0.000000
 20
11.406560
  0
SEQEND
  8
0
  0
POLYLINE
  8
0
  6
CONTINUOUS
 66
     1
 40
0.000000
 41
0.000000
  0
VERTEX
  8
0
  6
CONTINUOUS
 10
4.275480
 20
4.367440
  0
VERTEX
  8
0
  6
CONTINUOUS
 10
4.275480
 20
4.458960
  0
VERTEX
  8
0
  6
CONTINUOUS
 10
4.118400
 20
4.458960
  0
VERTEX
  8
0
  6
CONTINUOUS
 10
4.118400
 20
4.521880
  0
VERTEX
  8
0
  6
CONTINUOUS
 10
4.029960
 20
4.521880
  0
VERTEX
  8
0
  6
CONTINUOUS
 10
4.014120
 20
4.522320
  0
VERTEX
  8
0
  6
CONTINUOUS
 10
3.998720
 20
4.524080
  0
VERTEX
  8
0
  6
CONTINUOUS
 10
3.983760
 20
4.526280
  0
VERTEX
  8
0
  6
CONTINUOUS
 10
3.968800
 20
4.529800
  0
VERTEX
  8
0
  6
CONTINUOUS
 10
3.954720
 20
4.533760
  0
VERTEX
  8
0
  6
CONTINUOUS
 10
3.940640
 20
4.538160
  0
VERTEX
  8
0
  6
CONTINUOUS
 10
3.927440
 20
4.543440
  0
VERTEX
  8
0
  6
CONTINUOUS
 10
3.914680
 20
4.548720
  0
VERTEX
  8
0
  6
CONTINUOUS
 10
3.902800
 20
4.554440
  0
VERTEX
  8
0
  6
CONTINUOUS
 10
3.891360
 20
4.560160
  0
VERTEX
  8
0
  6
CONTINUOUS
 10
3.880800
 20
4.565880
  0
VERTEX
  8
0
  6
CONTINUOUS
 10
3.870680
 20
4.571600
  0
VERTEX
  8
0
  6
CONTINUOUS
 10
3.861880
 20
4.577320
  0
VERTEX
  8
0
  6
CONTINUOUS
 10
3.853520
 20
4.582600
  0
VERTEX
  8
0
  6
CONTINUOUS
 10
3.846040
 20
4.587440
  0
VERTEX
  8
0
  6
CONTINUOUS
 10
3.839880
 20
4.591840
  0
VERTEX
  8
0
  6
CONTINUOUS
 10
3.833720
 20
4.596680
  0
VERTEX
  8
0
  6
CONTINUOUS
 10
3.826680
 20
4.603280
  0
VERTEX
  8
0
  6
CONTINUOUS
 10
3.818320
 20
4.610760
  0
VERTEX
  8
0
  6
CONTINUOUS
 10
3.809080
 20
4.619120
  0
VERTEX
  8
0
  6
CONTINUOUS
 10
3.798080
 20
4.628360
  0
VERTEX
  8
0
  6
CONTINUOUS
 10
3.785320
 20
4.638040
  0
VERTEX
  8
0
  6
CONTINUOUS
 10
3.769920
 20
4.647720
  0
VERTEX
  8
0
  6
CONTINUOUS
 10
3.761560
 20
4.652560
  0
VERTEX
  8
0
  6
CONTINUOUS
 10
3.752760
 20
4.657400
  0
VERTEX
  8
0
  6
CONTINUOUS
 10
3.742640
 20
4.662240
  0
VERTEX
  8
0
  6
CONTINUOUS
 10
3.732080
 20
4.667080
  0
VERTEX
  8
0
  6
CONTINUOUS
 10
3.721080
 20
4.671480
  0
VERTEX
  8
0
  6
CONTINUOUS
 10
3.709200
 20
4.675880
  0
VERTEX
  8
0
  6
CONTINUOUS
 10
3.696000
 20
4.680280
  0
VERTEX
  8
0
  6
CONTINUOUS
 10
3.682360
 20
4.684240
  0
VERTEX
  8
0
  6
CONTINUOUS
 10
3.667840
 20
4.688200
  0
VERTEX
  8
0
  6
CONTINUOUS
 10
3.652440
 20
4.691720
  0
VERTEX
  8
0
  6
CONTINUOUS
 10
3.635720
 20
4.694800
  0
VERTEX
  8
0
  6
CONTINUOUS
 10
3.618560
 20
4.697440
  0
VERTEX
  8
0
  6
CONTINUOUS
 10
3.600080
 20
4.700080
  0
VERTEX
  8
0
  6
CONTINUOUS
 10
3.580280
 20
4.702280
  0
VERTEX
  8
0
  6
CONTINUOUS
 10
3.559600
 20
4.704040
  0
VERTEX
  8
0
  6
CONTINUOUS
 10
3.538040
 20
4.705360
  0
VERTEX
  8
0
  6
CONTINUOUS
 10
3.515160
 20
4.705800
  0
VERTEX
  8
0
  6
CONTINUOUS
 10
3.490960
 20
4.706240
  0
VERTEX
  8
0
  6
CONTINUOUS
 10
3.490960
 20
4.774880
  0
VERTEX
  8
0
  6
CONTINUOUS
 10
3.239720
 20
4.774880
  0
VERTEX
  8
0
  6
CONTINUOUS
 10
3.239720
 20
4.367440
  0
VERTEX
  8
0
  6
CONTINUOUS
 10
4.275480
 20
4.367440
  0
SEQEND
  8
0
  0
POLYLINE
  8
0
  6
CONTINUOUS
 66
     1
 40
0.000000
 41
0.000000
  0
VERTEX
  8
0
  6
CONTINUOUS
 10
4.891480
 20
4.360840
  0
VERTEX
  8
0
  6
CONTINUOUS
 10
4.891480
 20
4.452360
  0
VERTEX
  8
0
  6
CONTINUOUS
 10
5.048120
 20
4.452360
  0
VERTEX
  8
0
  6
CONTINUOUS
 10
5.048120
 20
4.514840
  0
VERTEX
  8
0
  6
CONTINUOUS
 10
5.137000
 20
4.514840
  0
VERTEX
  8
0
  6
CONTINUOUS
 10
5.152840
 20
4.515280
  0
VERTEX
  8
0
  6
CONTINUOUS
 10
5.168240
 20
4.517040
  0
VERTEX
  8
0
  6
CONTINUOUS
 10
5.183200
 20
4.519240
  0
VERTEX
  8
0
  6
CONTINUOUS
 10
5.198160
 20
4.522760
  0
VERTEX
  8
0
  6
CONTINUOUS
 10
5.212240
 20
4.526720
  0
VERTEX
  8
0
  6
CONTINUOUS
 10
5.226320
 20
4.531120
  0
VERTEX
  8
0
  6
CONTINUOUS
 10
5.239520
 20
4.536400
  0
VERTEX
  8
0
  6
CONTINUOUS
 10
5.252280
 20
4.541680
  0
VERTEX
  8
0
  6
CONTINUOUS
 10
5.264160
 20
4.547400
  0
VERTEX
  8
0
  6
CONTINUOUS
 10
5.275600
 20
4.553120
  0
VERTEX
  8
0
  6
CONTINUOUS
 10
5.286160
 20
4.559280
  0
VERTEX
  8
0
  6
CONTINUOUS
 10
5.296280
 20
4.565000
  0
VERTEX
  8
0
  6
CONTINUOUS
 10
5.305080
 20
4.570720
  0
VERTEX
  8
0
  6
CONTINUOUS
 10
5.313440
 20
4.576000
  0
VERTEX
  8
0
  6
CONTINUOUS
 10
5.320920
 20
4.580840
  0
VERTEX
  8
0
  6
CONTINUOUS
 10
5.327080
 20
4.585240
  0
VERTEX
  8
0
  6
CONTINUOUS
 10
5.333240
 20
4.590080
  0
VERTEX
  8
0
  6
CONTINUOUS
 10
5.340280
 20
4.596680
  0
VERTEX
  8
0
  6
CONTINUOUS
 10
5.348200
 20
4.604160
  0
VERTEX
  8
0
  6
CONTINUOUS
 10
5.357440
 20
4.612520
  0
VERTEX
  8
0
  6
CONTINUOUS
 10
5.368880
 20
4.621320
  0
VERTEX
  8
0
  6
CONTINUOUS
 10
5.381640
 20
4.631000
  0
VERTEX
  8
0
  6
CONTINUOUS
 10
5.396600
 20
4.641120
  0
VERTEX
  8
0
  6
CONTINUOUS
 10
5.404960
 20
4.645960
  0
VERTEX
  8
0
  6
CONTINUOUS
 10
5.414200
 20
4.650800
  0
VERTEX
  8
0
  6
CONTINUOUS
 10
5.423880
 20
4.655640
  0
VERTEX
  8
0
  6
CONTINUOUS
 10
5.434440
 20
4.660040
  0
VERTEX
  8
0
  6
CONTINUOUS
 10
5.445880
 20
4.664880
  0
VERTEX
  8
0
  6
CONTINUOUS
 10
5.457760
 20
4.669280
  0
VERTEX
  8
0
  6
CONTINUOUS
 10
5.470520
 20
4.673680
  0
VERTEX
  8
0
  6
CONTINUOUS
 10
5.484600
 20
4.677640
  0
VERTEX
  8
0
  6
CONTINUOUS
 10
5.499120
 20
4.681160
  0
VERTEX
  8
0
  6
CONTINUOUS
 10
5.514520
 20
4.684680
  0
VERTEX
  8
0
  6
CONTINUOUS
 10
5.530800
 20
4.688200
  0
VERTEX
  8
0
  6
CONTINUOUS
 10
5.548400
 20
4.690840
  0
VERTEX
  8
0
  6
CONTINUOUS
 10
5.566880
 20
4.693480
  0
VERTEX
  8
0
  6
CONTINUOUS
 10
5.586680
 20
4.695680
  0
VERTEX
  8
0
  6
CONTINUOUS
 10
5.607360
 20
4.697440
  0
VERTEX
  8
0
  6
CONTINUOUS
 10
5.628920
 20
4.698760
  0
VERTEX
  8
0
  6
CONTINUOUS
 10
5.651800
 20
4.699200
  0
VERTEX
  8
0
  6
CONTINUOUS
 10
5.676000
 20
4.699640
  0
VERTEX
  8
0
  6
CONTINUOUS
 10
5.676000
 20
4.767840
  0
VERTEX
  8
0
  6
CONTINUOUS
 10
5.927240
 20
4.767840
  0
VERTEX
  8
0
  6
CONTINUOUS
 10
5.927240
 20
4.360840
  0
VERTEX
  8
0
  6
CONTINUOUS
 10
4.891480
 20
4.360840
  0
SEQEND
  8
0
  0
SOLID
  8
0
 62
    15
 10
5.520240
 20
6.141520
 11
5.522880
 21
6.889960
 12
5.529920
 22
6.132720
 13
5.532120
 23
6.881160
  0
POLYLINE
  8
0
  6
CONTINUOUS
 66
     1
 40
0.000000
 41
0.000000
  0
VERTEX
  8
0
  6
CONTINUOUS
 10
5.520240
 20
6.141520
  0
VERTEX
  8
0
  6
CONTINUOUS
 10
5.522880
 20
6.889960
  0
VERTEX
  8
0
  6
CONTINUOUS
 10
5.532120
 20
6.881160
  0
VERTEX
  8
0
  6
CONTINUOUS
 10
5.529920
 20
6.132720
  0
VERTEX
  8
0
  6
CONTINUOUS
 10
5.520240
 20
6.141520
  0
SEQEND
  8
0
  0
SOLID
  8
0
 62
    15
 10
5.202120
 20
6.296840
 11
5.204320
 21
7.045280
 12
5.202120
 22
6.228640
 13
5.204320
 23
6.977080
  0
POLYLINE
  8
0
  6
CONTINUOUS
 66
     1
 40
0.000000
 41
0.000000
  0
VERTEX
  8
0
  6
CONTINUOUS
 10
5.202120
 20
6.296840
  0
VERTEX
  8
0
  6
CONTINUOUS
 10
5.204320
 20
7.045280
  0
VERTEX
  8
0
  6
CONTINUOUS
 10
5.204320
 20
6.977080
  0
VERTEX
  8
0
  6
CONTINUOUS
 10
5.202120
 20
6.228640
  0
VERTEX
  8
0
  6
CONTINUOUS
 10
5.202120
 20
6.296840
  0
SEQEND
  8
0
  0
SOLID
  8
0
 62
    15
 10
5.202120
 20
6.228640
 11
5.204320
 21
6.977080
 12
5.249200
 22
6.227760
 13
5.251400
 23
6.976200
  0
POLYLINE
  8
0
  6
CONTINUOUS
 66
     1
 40
0.000000
 41
0.000000
  0
VERTEX
  8
0
  6
CONTINUOUS
 10
5.202120
 20
6.228640
  0
VERTEX
  8
0
  6
CONTINUOUS
 10
5.204320
 20
6.977080
  0
VERTEX
  8
0
  6
CONTINUOUS
 10
5.251400
 20
6.976200
  0
VERTEX
  8
0
  6
CONTINUOUS
 10
5.249200
 20
6.227760
  0
VERTEX
  8
0
  6
CONTINUOUS
 10
5.202120
 20
6.228640
  0
SEQEND
  8
0
  0
SOLID
  8
0
 62
    15
 10
5.249200
 20
6.227760
 11
5.251400
 21
6.976200
 12
5.291440
 22
6.224680
 13
5.294080
 23
6.973120
  0
POLYLINE
  8
0
  6
CONTINUOUS
 66
     1
 40
0.000000
 41
0.000000
  0
VERTEX
  8
0
  6
CONTINUOUS
 10
5.249200
 20
6.227760
  0
VERTEX
  8
0
  6
CONTINUOUS
 10
5.251400
 20
6.976200
  0
VERTEX
  8
0
  6
CONTINUOUS
 10
5.294080
 20
6.973120
  0
VERTEX
  8
0
  6
CONTINUOUS
 10
5.291440
 20
6.224680
  0
VERTEX
  8
0
  6
CONTINUOUS
 10
5.249200
 20
6.227760
  0
SEQEND
  8
0
  0
SOLID
  8
0
 62
    15
 10
5.291440
 20
6.224680
 11
5.294080
 21
6.973120
 12
5.329720
 22
6.219840
 13
5.331920
 23
6.968280
  0
POLYLINE
  8
0
  6
CONTINUOUS
 66
     1
 40
0.000000
 41
0.000000
  0
VERTEX
  8
0
  6
CONTINUOUS
 10
5.291440
 20
6.224680
  0
VERTEX
  8
0
  6
CONTINUOUS
 10
5.294080
 20
6.973120
  0
VERTEX
  8
0
  6
CONTINUOUS
 10
5.331920
 20
6.968280
  0
VERTEX
  8
0
  6
CONTINUOUS
 10
5.329720
 20
6.219840
  0
VERTEX
  8
0
  6
CONTINUOUS
 10
5.291440
 20
6.224680
  0
SEQEND
  8
0
  0
SOLID
  8
0
 62
    15
 10
5.329720
 20
6.219840
 11
5.331920
 21
6.968280
 12
5.363600
 22
6.213680
 13
5.365800
 23
6.962120
  0
POLYLINE
  8
0
  6
CONTINUOUS
 66
     1
 40
0.000000
 41
0.000000
  0
VERTEX
  8
0
  6
CONTINUOUS
 10
5.329720
 20
6.219840
  0
VERTEX
  8
0
  6
CONTINUOUS
 10
5.331920
 20
6.968280
  0
VERTEX
  8
0
  6
CONTINUOUS
 10
5.365800
 20
6.962120
  0
VERTEX
  8
0
  6
CONTINUOUS
 10
5.363600
 20
6.213680
  0
VERTEX
  8
0
  6
CONTINUOUS
 10
5.329720
 20
6.219840
  0
SEQEND
  8
0
  0
SOLID
  8
0
 62
    15
 10
5.363600
 20
6.213680
 11
5.365800
 21
6.962120
 12
5.393520
 22
6.206640
 13
5.396160
 23
6.955080
  0
POLYLINE
  8
0
  6
CONTINUOUS
 66
     1
 40
0.000000
 41
0.000000
  0
VERTEX
  8
0
  6
CONTINUOUS
 10
5.363600
 20
6.213680
  0
VERTEX
  8
0
  6
CONTINUOUS
 10
5.365800
 20
6.962120
  0
VERTEX
  8
0
  6
CONTINUOUS
 10
5.396160
 20
6.955080
  0
VERTEX
  8
0
  6
CONTINUOUS
 10
5.393520
 20
6.206640
  0
VERTEX
  8
0
  6
CONTINUOUS
 10
5.363600
 20
6.213680
  0
SEQEND
  8
0
  0
SOLID
  8
0
 62
    15
 10
5.393520
 20
6.206640
 11
5.396160
 21
6.955080
 12
5.420360
 22
6.198280
 13
5.422560
 23
6.946720
  0
POLYLINE
  8
0
  6
CONTINUOUS
 66
     1
 40
0.000000
 41
0.000000
  0
VERTEX
  8
0
  6
CONTINUOUS
 10
5.393520
 20
6.206640
  0
VERTEX
  8
0
  6
CONTINUOUS
 10
5.396160
 20
6.955080
  0
VERTEX
  8
0
  6
CONTINUOUS
 10
5.422560
 20
6.946720
  0
VERTEX
  8
0
  6
CONTINUOUS
 10
5.420360
 20
6.198280
  0
VERTEX
  8
0
  6
CONTINUOUS
 10
5.393520
 20
6.206640
  0
SEQEND
  8
0
  0
SOLID
  8
0
 62
    15
 10
5.420360
 20
6.198280
 11
5.422560
 21
6.946720
 12
5.443680
 22
6.189040
 13
5.445880
 23
6.937480
  0
POLYLINE
  8
0
  6
CONTINUOUS
 66
     1
 40
0.000000
 41
0.000000
  0
VERTEX
  8
0
  6
CONTINUOUS
 10
5.420360
 20
6.198280
  0
VERTEX
  8
0
  6
CONTINUOUS
 10
5.422560
 20
6.946720
  0
VERTEX
  8
0
  6
CONTINUOUS
 10
5.445880
 20
6.937480
  0
VERTEX
  8
0
  6
CONTINUOUS
 10
5.443680
 20
6.189040
  0
VERTEX
  8
0
  6
CONTINUOUS
 10
5.420360
 20
6.198280
  0
SEQEND
  8
0
  0
SOLID
  8
0
 62
    15
 10
5.443680
 20
6.189040
 11
5.445880
 21
6.937480
 12
5.463920
 22
6.179800
 13
5.466120
 23
6.928240
  0
POLYLINE
  8
0
  6
CONTINUOUS
 66
     1
 40
0.000000
 41
0.000000
  0
VERTEX
  8
0
  6
CONTINUOUS
 10
5.443680
 20
6.189040
  0
VERTEX
  8
0
  6
CONTINUOUS
 10
5.445880
 20
6.937480
  0
VERTEX
  8
0
  6
CONTINUOUS
 10
5.466120
 20
6.928240
  0
VERTEX
  8
0
  6
CONTINUOUS
 10
5.463920
 20
6.179800
  0
VERTEX
  8
0
  6
CONTINUOUS
 10
5.443680
 20
6.189040
  0
SEQEND
  8
0
  0
SOLID
  8
0
 62
    15
 10
5.463920
 20
6.179800
 11
5.466120
 21
6.928240
 12
5.481520
 22
6.170120
 13
5.483720
 23
6.918560
  0
POLYLINE
  8
0
  6
CONTINUOUS
 66
     1
 40
0.000000
 41
0.000000
  0
VERTEX
  8
0
  6
CONTINUOUS
 10
5.463920
 20
6.179800
  0
VERTEX
  8
0
  6
CONTINUOUS
 10
5.466120
 20
6.928240
  0
VERTEX
  8
0
  6
CONTINUOUS
 10
5.483720
 20
6.918560
  0
VERTEX
  8
0
  6
CONTINUOUS
 10
5.481520
 20
6.170120
  0
VERTEX
  8
0
  6
CONTINUOUS
 10
5.463920
 20
6.179800
  0
SEQEND
  8
0
  0
SOLID
  8
0
 62
    15
 10
5.481520
 20
6.170120
 11
5.483720
 21
6.918560
 12
5.496480
 22
6.160000
 13
5.498680
 23
6.908440
  0
POLYLINE
  8
0
  6
CONTINUOUS
 66
     1
 40
0.000000
 41
0.000000
  0
VERTEX
  8
0
  6
CONTINUOUS
 10
5.481520
 20
6.170120
  0
VERTEX
  8
0
  6
CONTINUOUS
 10
5.483720
 20
6.918560
  0
VERTEX
  8
0
  6
CONTINUOUS
 10
5.498680
 20
6.908440
  0
VERTEX
  8
0
  6
CONTINUOUS
 10
5.496480
 20
6.160000
  0
VERTEX
  8
0
  6
CONTINUOUS
 10
5.481520
 20
6.170120
  0
SEQEND
  8
0
  0
SOLID
  8
0
 62
    15
 10
5.496480
 20
6.160000
 11
5.498680
 21
6.908440
 12
5.509240
 22
6.150320
 13
5.511880
 23
6.898760
  0
POLYLINE
  8
0
  6
CONTINUOUS
 66
     1
 40
0.000000
 41
0.000000
  0
VERTEX
  8
0
  6
CONTINUOUS
 10
5.496480
 20
6.160000
  0
VERTEX
  8
0
  6
CONTINUOUS
 10
5.498680
 20
6.908440
  0
VERTEX
  8
0
  6
CONTINUOUS
 10
5.511880
 20
6.898760
  0
VERTEX
  8
0
  6
CONTINUOUS
 10
5.509240
 20
6.150320
  0
VERTEX
  8
0
  6
CONTINUOUS
 10
5.496480
 20
6.160000
  0
SEQEND
  8
0
  0
SOLID
  8
0
 62
    15
 10
5.509240
 20
6.150320
 11
5.511880
 21
6.898760
 12
5.520240
 22
6.141520
 13
5.522880
 23
6.889960
  0
POLYLINE
  8
0
  6
CONTINUOUS
 66
     1
 40
0.000000
 41
0.000000
  0
VERTEX
  8
0
  6
CONTINUOUS
 10
5.509240
 20
6.150320
  0
VERTEX
  8
0
  6
CONTINUOUS
 10
5.511880
 20
6.898760
  0
VERTEX
  8
0
  6
CONTINUOUS
 10
5.522880
 20
6.889960
  0
VERTEX
  8
0
  6
CONTINUOUS
 10
5.520240
 20
6.141520
  0
VERTEX
  8
0
  6
CONTINUOUS
 10
5.509240
 20
6.150320
  0
SEQEND
  8
0
  0
SOLID
  8
0
 62
    15
 10
4.950880
 20
6.296840
 11
4.953080
 21
7.045280
 12
5.202120
 22
6.296840
 13
5.204320
 23
7.045280
  0
POLYLINE
  8
0
  6
CONTINUOUS
 66
     1
 40
0.000000
 41
0.000000
  0
VERTEX
  8
0
  6
CONTINUOUS
 10
4.950880
 20
6.296840
  0
VERTEX
  8
0
  6
CONTINUOUS
 10
4.953080
 20
7.045280
  0
VERTEX
  8
0
  6
CONTINUOUS
 10
5.204320
 20
7.045280
  0
VERTEX
  8
0
  6
CONTINUOUS
 10
5.202120
 20
6.296840
  0
VERTEX
  8
0
  6
CONTINUOUS
 10
4.950880
 20
6.296840
  0
SEQEND
  8
0
  0
SOLID
  8
0
 62
    15
 10
5.529920
 20
6.132720
 11
5.532120
 21
6.881160
 12
5.537840
 22
6.125240
 13
5.540040
 23
6.873680
  0
POLYLINE
  8
0
  6
CONTINUOUS
 66
     1
 40
0.000000
 41
0.000000
  0
VERTEX
  8
0
  6
CONTINUOUS
 10
5.529920
 20
6.132720
  0
VERTEX
  8
0
  6
CONTINUOUS
 10
5.532120
 20
6.881160
  0
VERTEX
  8
0
  6
CONTINUOUS
 10
5.540040
 20
6.873680
  0
VERTEX
  8
0
  6
CONTINUOUS
 10
5.537840
 20
6.125240
  0
VERTEX
  8
0
  6
CONTINUOUS
 10
5.529920
 20
6.132720
  0
SEQEND
  8
0
  0
SOLID
  8
0
 62
    15
 10
5.537840
 20
6.125240
 11
5.540040
 21
6.873680
 12
5.551040
 22
6.114240
 13
5.553240
 23
6.862680
  0
POLYLINE
  8
0
  6
CONTINUOUS
 66
     1
 40
0.000000
 41
0.000000
  0
VERTEX
  8
0
  6
CONTINUOUS
 10
5.537840
 20
6.125240
  0
VERTEX
  8
0
  6
CONTINUOUS
 10
5.540040
 20
6.873680
  0
VERTEX
  8
0
  6
CONTINUOUS
 10
5.553240
 20
6.862680
  0
VERTEX
  8
0
  6
CONTINUOUS
 10
5.551040
 20
6.114240
  0
VERTEX
  8
0
  6
CONTINUOUS
 10
5.537840
 20
6.125240
  0
SEQEND
  8
0
  0
SOLID
  8
0
 62
    15
 10
5.551040
 20
6.114240
 11
5.553240
 21
6.862680
 12
5.564680
 22
6.105000
 13
5.566880
 23
6.853000
  0
POLYLINE
  8
0
  6
CONTINUOUS
 66
     1
 40
0.000000
 41
0.000000
  0
VERTEX
  8
0
  6
CONTINUOUS
 10
5.551040
 20
6.114240
  0
VERTEX
  8
0
  6
CONTINUOUS
 10
5.553240
 20
6.862680
  0
VERTEX
  8
0
  6
CONTINUOUS
 10
5.566880
 20
6.853000
  0
VERTEX
  8
0
  6
CONTINUOUS
 10
5.564680
 20
6.105000
  0
VERTEX
  8
0
  6
CONTINUOUS
 10
5.551040
 20
6.114240
  0
SEQEND
  8
0
  0
SOLID
  8
0
 62
    15
 10
5.564680
 20
6.105000
 11
5.566880
 21
6.853000
 12
5.582280
 22
6.094000
 13
5.584480
 23
6.842440
  0
POLYLINE
  8
0
  6
CONTINUOUS
 66
     1
 40
0.000000
 41
0.000000
  0
VERTEX
  8
0
  6
CONTINUOUS
 10
5.564680
 20
6.105000
  0
VERTEX
  8
0
  6
CONTINUOUS
 10
5.566880
 20
6.853000
  0
VERTEX
  8
0
  6
CONTINUOUS
 10
5.584480
 20
6.842440
  0
VERTEX
  8
0
  6
CONTINUOUS
 10
5.582280
 20
6.094000
  0
VERTEX
  8
0
  6
CONTINUOUS
 10
5.564680
 20
6.105000
  0
SEQEND
  8
0
  0
SOLID
  8
0
 62
    15
 10
5.582280
 20
6.094000
 11
5.584480
 21
6.842440
 12
5.602520
 22
6.082120
 13
5.605160
 23
6.830560
  0
POLYLINE
  8
0
  6
CONTINUOUS
 66
     1
 40
0.000000
 41
0.000000
  0
VERTEX
  8
0
  6
CONTINUOUS
 10
5.582280
 20
6.094000
  0
VERTEX
  8
0
  6
CONTINUOUS
 10
5.584480
 20
6.842440
  0
VERTEX
  8
0
  6
CONTINUOUS
 10
5.605160
 20
6.830560
  0
VERTEX
  8
0
  6
CONTINUOUS
 10
5.602520
 20
6.082120
  0
VERTEX
  8
0
  6
CONTINUOUS
 10
5.582280
 20
6.094000
  0
SEQEND
  8
0
  0
SOLID
  8
0
 62
    15
 10
5.602520
 20
6.082120
 11
5.605160
 21
6.830560
 12
5.626280
 22
6.070680
 13
5.628480
 23
6.819120
  0
POLYLINE
  8
0
  6
CONTINUOUS
 66
     1
 40
0.000000
 41
0.000000
  0
VERTEX
  8
0
  6
CONTINUOUS
 10
5.602520
 20
6.082120
  0
VERTEX
  8
0
  6
CONTINUOUS
 10
5.605160
 20
6.830560
  0
VERTEX
  8
0
  6
CONTINUOUS
 10
5.628480
 20
6.819120
  0
VERTEX
  8
0
  6
CONTINUOUS
 10
5.626280
 20
6.070680
  0
VERTEX
  8
0
  6
CONTINUOUS
 10
5.602520
 20
6.082120
  0
SEQEND
  8
0
  0
SOLID
  8
0
 62
    15
 10
5.626280
 20
6.070680
 11
5.628480
 21
6.819120
 12
5.651800
 22
6.060120
 13
5.654440
 23
6.808560
  0
POLYLINE
  8
0
  6
CONTINUOUS
 66
     1
 40
0.000000
 41
0.000000
  0
VERTEX
  8
0
  6
CONTINUOUS
 10
5.626280
 20
6.070680
  0
VERTEX
  8
0
  6
CONTINUOUS
 10
5.628480
 20
6.819120
  0
VERTEX
  8
0
  6
CONTINUOUS
 10
5.654440
 20
6.808560
  0
VERTEX
  8
0
  6
CONTINUOUS
 10
5.651800
 20
6.060120
  0
VERTEX
  8
0
  6
CONTINUOUS
 10
5.626280
 20
6.070680
  0
SEQEND
  8
0
  0
SOLID
  8
0
 62
    15
 10
5.651800
 20
6.060120
 11
5.654440
 21
6.808560
 12
5.679960
 22
6.051760
 13
5.682600
 23
6.800200
  0
POLYLINE
  8
0
  6
CONTINUOUS
 66
     1
 40
0.000000
 41
0.000000
  0
VERTEX
  8
0
  6
CONTINUOUS
 10
5.651800
 20
6.060120
  0
VERTEX
  8
0
  6
CONTINUOUS
 10
5.654440
 20
6.808560
  0
VERTEX
  8
0
  6
CONTINUOUS
 10
5.682600
 20
6.800200
  0
VERTEX
  8
0
  6
CONTINUOUS
 10
5.679960
 20
6.051760
  0
VERTEX
  8
0
  6
CONTINUOUS
 10
5.651800
 20
6.060120
  0
SEQEND
  8
0
  0
SOLID
  8
0
 62
    15
 10
5.679960
 20
6.051760
 11
5.682600
 21
6.800200
 12
5.709880
 22
6.046040
 13
5.712520
 23
6.794480
  0
POLYLINE
  8
0
  6
CONTINUOUS
 66
     1
 40
0.000000
 41
0.000000
  0
VERTEX
  8
0
  6
CONTINUOUS
 10
5.679960
 20
6.051760
  0
VERTEX
  8
0
  6
CONTINUOUS
 10
5.682600
 20
6.800200
  0
VERTEX
  8
0
  6
CONTINUOUS
 10
5.712520
 20
6.794480
  0
VERTEX
  8
0
  6
CONTINUOUS
 10
5.709880
 20
6.046040
  0
VERTEX
  8
0
  6
CONTINUOUS
 10
5.679960
 20
6.051760
  0
SEQEND
  8
0
  0
SOLID
  8
0
 62
    15
 10
5.709880
 20
6.046040
 11
5.712520
 21
6.794480
 12
5.741120
 22
6.043840
 13
5.743760
 23
6.792280
  0
POLYLINE
  8
0
  6
CONTINUOUS
 66
     1
 40
0.000000
 41
0.000000
  0
VERTEX
  8
0
  6
CONTINUOUS
 10
5.709880
 20
6.046040
  0
VERTEX
  8
0
  6
CONTINUOUS
 10
5.712520
 20
6.794480
  0
VERTEX
  8
0
  6
CONTINUOUS
 10
5.743760
 20
6.792280
  0
VERTEX
  8
0
  6
CONTINUOUS
 10
5.741120
 20
6.043840
  0
VERTEX
  8
0
  6
CONTINUOUS
 10
5.709880
 20
6.046040
  0
SEQEND
  8
0
  0
SOLID
  8
0
 62
    15
 10
5.986640
 20
5.981360
 11
5.988840
 21
6.729800
 12
5.986640
 22
5.889840
 13
5.988840
 23
6.638280
  0
POLYLINE
  8
0
  6
CONTINUOUS
 66
     1
 40
0.000000
 41
0.000000
  0
VERTEX
  8
0
  6
CONTINUOUS
 10
5.986640
 20
5.981360
  0
VERTEX
  8
0
  6
CONTINUOUS
 10
5.988840
 20
6.729800
  0
VERTEX
  8
0
  6
CONTINUOUS
 10
5.988840
 20
6.638280
  0
VERTEX
  8
0
  6
CONTINUOUS
 10
5.986640
 20
5.889840
  0
VERTEX
  8
0
  6
CONTINUOUS
 10
5.986640
 20
5.981360
  0
SEQEND
  8
0
  0
SOLID
  8
0
 62
    15
 10
5.830000
 20
5.981360
 11
5.832200
 21
6.729800
 12
5.986640
 22
5.981360
 13
5.988840
 23
6.729800
  0
POLYLINE
  8
0
  6
CONTINUOUS
 66
     1
 40
0.000000
 41
0.000000
  0
VERTEX
  8
0
  6
CONTINUOUS
 10
5.830000
 20
5.981360
  0
VERTEX
  8
0
  6
CONTINUOUS
 10
5.832200
 20
6.729800
  0
VERTEX
  8
0
  6
CONTINUOUS
 10
5.988840
 20
6.729800
  0
VERTEX
  8
0
  6
CONTINUOUS
 10
5.986640
 20
5.981360
  0
VERTEX
  8
0
  6
CONTINUOUS
 10
5.830000
 20
5.981360
  0
SEQEND
  8
0
  0
SOLID
  8
0
 62
    15
 10
5.830000
 20
6.043840
 11
5.832200
 21
6.792280
 12
5.830000
 22
5.981360
 13
5.832200
 23
6.729800
  0
POLYLINE
  8
0
  6
CONTINUOUS
 66
     1
 40
0.000000
 41
0.000000
  0
VERTEX
  8
0
  6
CONTINUOUS
 10
5.830000
 20
6.043840
  0
VERTEX
  8
0
  6
CONTINUOUS
 10
5.832200
 20
6.792280
  0
VERTEX
  8
0
  6
CONTINUOUS
 10
5.832200
 20
6.729800
  0
VERTEX
  8
0
  6
CONTINUOUS
 10
5.830000
 20
5.981360
  0
VERTEX
  8
0
  6
CONTINUOUS
 10
5.830000
 20
6.043840
  0
SEQEND
  8
0
  0
SOLID
  8
0
 62
    15
 10
5.741120
 20
6.043840
 11
5.743760
 21
6.792280
 12
5.830000
 22
6.043840
 13
5.832200
 23
6.792280
  0
POLYLINE
  8
0
  6
CONTINUOUS
 66
     1
 40
0.000000
 41
0.000000
  0
VERTEX
  8
0
  6
CONTINUOUS
 10
5.741120
 20
6.043840
  0
VERTEX
  8
0
  6
CONTINUOUS
 10
5.743760
 20
6.792280
  0
VERTEX
  8
0
  6
CONTINUOUS
 10
5.832200
 20
6.792280
  0
VERTEX
  8
0
  6
CONTINUOUS
 10
5.830000
 20
6.043840
  0
VERTEX
  8
0
  6
CONTINUOUS
 10
5.741120
 20
6.043840
  0
SEQEND
  8
0
  0
POLYLINE
  8
0
  6
CONTINUOUS
 66
     1
 40
0.000000
 41
0.000000
  0
VERTEX
  8
0
  6
CONTINUOUS
 10
4.950880
 20
5.889840
  0
VERTEX
  8
0
  6
CONTINUOUS
 10
4.950880
 20
6.296840
  0
VERTEX
  8
0
  6
CONTINUOUS
 10
5.202120
 20
6.296840
  0
VERTEX
  8
0
  6
CONTINUOUS
 10
5.202120
 20
6.228640
  0
VERTEX
  8
0
  6
CONTINUOUS
 10
5.249200
 20
6.227760
  0
VERTEX
  8
0
  6
CONTINUOUS
 10
5.291440
 20
6.224680
  0
VERTEX
  8
0
  6
CONTINUOUS
 10
5.329720
 20
6.219840
  0
VERTEX
  8
0
  6
CONTINUOUS
 10
5.363600
 20
6.213680
  0
VERTEX
  8
0
  6
CONTINUOUS
 10
5.393520
 20
6.206640
  0
VERTEX
  8
0
  6
CONTINUOUS
 10
5.420360
 20
6.198280
  0
VERTEX
  8
0
  6
CONTINUOUS
 10
5.443680
 20
6.189040
  0
VERTEX
  8
0
  6
CONTINUOUS
 10
5.463920
 20
6.179800
  0
VERTEX
  8
0
  6
CONTINUOUS
 10
5.481520
 20
6.170120
  0
VERTEX
  8
0
  6
CONTINUOUS
 10
5.496480
 20
6.160000
  0
VERTEX
  8
0
  6
CONTINUOUS
 10
5.509240
 20
6.150320
  0
VERTEX
  8
0
  6
CONTINUOUS
 10
5.520240
 20
6.141520
  0
VERTEX
  8
0
  6
CONTINUOUS
 10
5.529920
 20
6.132720
  0
VERTEX
  8
0
  6
CONTINUOUS
 10
5.537840
 20
6.125240
  0
VERTEX
  8
0
  6
CONTINUOUS
 10
5.551040
 20
6.114240
  0
VERTEX
  8
0
  6
CONTINUOUS
 10
5.564680
 20
6.105000
  0
VERTEX
  8
0
  6
CONTINUOUS
 10
5.582280
 20
6.094000
  0
VERTEX
  8
0
  6
CONTINUOUS
 10
5.602520
 20
6.082120
  0
VERTEX
  8
0
  6
CONTINUOUS
 10
5.626280
 20
6.070680
  0
VERTEX
  8
0
  6
CONTINUOUS
 10
5.651800
 20
6.060120
  0
VERTEX
  8
0
  6
CONTINUOUS
 10
5.679960
 20
6.051760
  0
VERTEX
  8
0
  6
CONTINUOUS
 10
5.709880
 20
6.046040
  0
VERTEX
  8
0
  6
CONTINUOUS
 10
5.741120
 20
6.043840
  0
VERTEX
  8
0
  6
CONTINUOUS
 10
5.830000
 20
6.043840
  0
VERTEX
  8
0
  6
CONTINUOUS
 10
5.830000
 20
5.981360
  0
VERTEX
  8
0
  6
CONTINUOUS
 10
5.986640
 20
5.981360
  0
VERTEX
  8
0
  6
CONTINUOUS
 10
5.986640
 20
5.889840
  0
VERTEX
  8
0
  6
CONTINUOUS
 10
4.950880
 20
5.889840
  0
SEQEND
  8
0
  0
TEXT
  8
0
 10
5.128200
 20
5.654440
 40
0.138113
  1
BA  1129
 41
1.000000
  7
SN0
 71
     0
 72
     5
 11
5.809837
 21
5.654440
  0
TEXT
  8
0
 10
4.926240
 20
5.463040
 40
0.138113
  1
7/16" x 1-1/16"
 41
1.000000
  7
SN0
 71
     0
 72
     5
 11
6.010085
 21
5.463040
  0
POLYLINE
  8
0
  6
CONTINUOUS
 66
     1
 40
0.014080
 41
0.014080
  0
VERTEX
  8
0
  6
CONTINUOUS
 10
4.395160
 20
6.603080
  0
VERTEX
  8
0
  6
CONTINUOUS
 10
4.395160
 20
6.694600
  0
VERTEX
  8
0
  6
CONTINUOUS
 10
4.238080
 20
6.694600
  0
VERTEX
  8
0
  6
CONTINUOUS
 10
4.238080
 20
6.757080
  0
VERTEX
  8
0
  6
CONTINUOUS
 10
4.149640
 20
6.757080
  0
VERTEX
  8
0
  6
CONTINUOUS
 10
4.133800
 20
6.757520
  0
VERTEX
  8
0
  6
CONTINUOUS
 10
4.118400
 20
6.759280
  0
VERTEX
  8
0
  6
CONTINUOUS
 10
4.103440
 20
6.761480
  0
VERTEX
  8
0
  6
CONTINUOUS
 10
4.088480
 20
6.765000
  0
VERTEX
  8
0
  6
CONTINUOUS
 10
4.074400
 20
6.768960
  0
VERTEX
  8
0
  6
CONTINUOUS
 10
4.060320
 20
6.773360
  0
VERTEX
  8
0
  6
CONTINUOUS
 10
4.047120
 20
6.778640
  0
VERTEX
  8
0
  6
CONTINUOUS
 10
4.034360
 20
6.783920
  0
VERTEX
  8
0
  6
CONTINUOUS
 10
4.022480
 20
6.789640
  0
VERTEX
  8
0
  6
CONTINUOUS
 10
4.011040
 20
6.795360
  0
VERTEX
  8
0
  6
CONTINUOUS
 10
4.000480
 20
6.801080
  0
VERTEX
  8
0
  6
CONTINUOUS
 10
3.990360
 20
6.806800
  0
VERTEX
  8
0
  6
CONTINUOUS
 10
3.981560
 20
6.812520
  0
VERTEX
  8
0
  6
CONTINUOUS
 10
3.973200
 20
6.817800
  0
VERTEX
  8
0
  6
CONTINUOUS
 10
3.965720
 20
6.823080
  0
VERTEX
  8
0
  6
CONTINUOUS
 10
3.959560
 20
6.827480
  0
VERTEX
  8
0
  6
CONTINUOUS
 10
3.953400
 20
6.832320
  0
VERTEX
  8
0
  6
CONTINUOUS
 10
3.946360
 20
6.838920
  0
VERTEX
  8
0
  6
CONTINUOUS
 10
3.938000
 20
6.846400
  0
VERTEX
  8
0
  6
CONTINUOUS
 10
3.928760
 20
6.854760
  0
VERTEX
  8
0
  6
CONTINUOUS
 10
3.917760
 20
6.863560
  0
VERTEX
  8
0
  6
CONTINUOUS
 10
3.904560
 20
6.873240
  0
VERTEX
  8
0
  6
CONTINUOUS
 10
3.889600
 20
6.883360
  0
VERTEX
  8
0
  6
CONTINUOUS
 10
3.881240
 20
6.888200
  0
VERTEX
  8
0
  6
CONTINUOUS
 10
3.872000
 20
6.893040
  0
VERTEX
  8
0
  6
CONTINUOUS
 10
3.862320
 20
6.897880
  0
VERTEX
  8
0
  6
CONTINUOUS
 10
3.851760
 20
6.902280
  0
VERTEX
  8
0
  6
CONTINUOUS
 10
3.840320
 20
6.907120
  0
VERTEX
  8
0
  6
CONTINUOUS
 10
3.828440
 20
6.911520
  0
VERTEX
  8
0
  6
CONTINUOUS
 10
3.815680
 20
6.915920
  0
VERTEX
  8
0
  6
CONTINUOUS
 10
3.802040
 20
6.919880
  0
VERTEX
  8
0
  6
CONTINUOUS
 10
3.787080
 20
6.923400
  0
VERTEX
  8
0
  6
CONTINUOUS
 10
3.771680
 20
6.926920
  0
VERTEX
  8
0
  6
CONTINUOUS
 10
3.755400
 20
6.930440
  0
VERTEX
  8
0
  6
CONTINUOUS
 10
3.737800
 20
6.933080
  0
VERTEX
  8
0
  6
CONTINUOUS
 10
3.719320
 20
6.935720
  0
VERTEX
  8
0
  6
CONTINUOUS
 10
3.699520
 20
6.937920
  0
VERTEX
  8
0
  6
CONTINUOUS
 10
3.678840
 20
6.939680
  0
VERTEX
  8
0
  6
CONTINUOUS
 10
3.657280
 20
6.941000
  0
VERTEX
  8
0
  6
CONTINUOUS
 10
3.634400
 20
6.941440
  0
VERTEX
  8
0
  6
CONTINUOUS
 10
3.610200
 20
6.941880
  0
VERTEX
  8
0
  6
CONTINUOUS
 10
3.610200
 20
7.010080
  0
VERTEX
  8
0
  6
CONTINUOUS
 10
3.359400
 20
7.010080
  0
VERTEX
  8
0
  6
CONTINUOUS
 10
3.359400
 20
6.603080
  0
VERTEX
  8
0
  6
CONTINUOUS
 10
4.395160
 20
6.603080
  0
SEQEND
  8
0
  0
TEXT
  8
0
 10
3.522640
 20
6.394520
 40
0.138113
  1
BA  1129
 41
1.000000
  7
SN0
 71
     0
 72
     5
 11
4.204277
 21
6.394520
  0
TEXT
  8
0
 10
3.320680
 20
6.202680
 40
0.138113
  1
7/16" x 1-1/16"
 41
1.000000
  7
SN0
 71
     0
 72
     5
 11
4.404525
 21
6.202680
  0
ENDSEC
  0
EOF
