  0
SECTION
  2
HEADER
  9
$ACADVER
  1
AC1006
  9
$EXTMIN
 10
2.213200
 20
1.128600
  9
$EXTMAX
 10
7.593080
 20
7.674480
  9
$LTSCALE
 40
0.044000
  9
$PDMODE
 70
    35
  9
$PDSIZE
 40
0.035200
  0
ENDSEC
  0
SECTION
  2
TABLES
  0
TABLE
  2
LTYPE
 70
     9
  0
LTYPE
  2
CONTINUOUS
 70
    64
  3
Solid line
 72
    65
 73
     0
 40
0.000000
  0
LTYPE
  2
DASHED
 70
    64
  3
__ __ __ __ __ __ __ __ __ __ __ __ __ __ __
 72
    65
 73
     2
 40
0.000330
 49
0.000220
 49
-0.000110
  0
LTYPE
  2
HIDDEN
 70
    64
  3
 _ _ _ _ _ _ _ _ _ _ _ _ _ _ _ _ _ _ _ _ _ _
 72
    65
 73
     2
 40
0.000165
 49
0.000110
 49
-0.000055
  0
LTYPE
  2
CENTER
 70
    64
  3
____ _ ____ _ ____ _ ____ _ ____ _ ____ _ ____
 72
    65
 73
     4
 40
0.000880
 49
0.000550
 49
-0.000110
 49
0.000110
 49
-0.000110
  0
LTYPE
  2
PHANTOM
 70
    64
  3
_____ _ _ _____ _ _ _____ _ _ _____ _ _ ____
 72
    65
 73
     6
 40
0.001100
 49
0.000550
 49
-0.000110
 49
0.000110
 49
-0.000110
 49
0.000110
 49
-0.000110
  0
LTYPE
  2
DOT
 70
    64
  3
...............................................
 72
    65
 73
     2
 40
0.000110
 49
0.000000
 49
-0.000110
  0
LTYPE
  2
DASHDOT
 70
    64
  3
__ . __ . __ . __ . __ . __ . __ . __ . __ . __
 72
    65
 73
     4
 40
0.000440
 49
0.000220
 49
-0.000110
 49
0.000000
 49
-0.000110
  0
LTYPE
  2
BORDER
 70
    64
  3
__ __ . __ __ . __ __ . __ __ . __ __ . __ __
 72
    65
 73
     6
 40
0.000770
 49
0.000220
 49
-0.000110
 49
0.000220
 49
-0.000110
 49
0.000000
 49
-0.000110
  0
LTYPE
  2
DIVIDE
 70
    64
  3
__ . . __ . . __ . . __ . . __ . . __ . . __
 72
    65
 73
     6
 40
0.000550
 49
0.000220
 49
-0.000110
 49
0.000000
 49
-0.000110
 49
0.000000
 49
-0.000110
  0
LTYPE
  2
DOTDOT
 70
    64
  3
 . .  . .  . .  . .  . .  . . 
 72
    65
 73
     5
 40
0.000242
 49
-0.000110
 49
0.000000
 49
-0.000110
 49
0.000000
 49
-0.000110
  0
ENDTAB
  0
TABLE
  2
STYLE
 70
     2
  0
STYLE
 70
     0
  2
SN0
 40
0.000000
 41
0.000440
 50
0.000000
 71
     0
 42
0.000000
  3
ROMAND
  0
STYLE
 70
    68
  2
SV0
 40
0.000000
 41
0.000440
 50
0.000000
 71
     0
 42
0.000000
  3
ROMAND
  0
ENDTAB
  0
TABLE
  2
LAYER
 70
     3
  0
LAYER
  2
FOREGROUND
 70
    64
 62
     7
  6
CONTINUOUS
  0
LAYER
  2
BACKGROUND
 70
    65
 62
    -7
  6
CONTINUOUS
  0
LAYER
  2
0
 70
    64
 62
     7
  6
CONTINUOUS
  0
ENDTAB
  0
ENDSEC
  0
SECTION
  2
ENTITIES
  0
POLYLINE
  8
FOREGROUND
  6
CONTINUOUS
 66
     1
 40
0.000000
 41
0.000000
  0
VERTEX
  8
FOREGROUND
  6
CONTINUOUS
 10
0.000000
 20
8.803080
  0
VERTEX
  8
FOREGROUND
  6
CONTINUOUS
 10
8.499920
 20
8.803080
  0
VERTEX
  8
FOREGROUND
  6
CONTINUOUS
 10
8.499920
 20
-2.196920
  0
VERTEX
  8
FOREGROUND
  6
CONTINUOUS
 10
0.000000
 20
-2.196920
  0
VERTEX
  8
FOREGROUND
  6
CONTINUOUS
 10
0.000000
 20
8.803080
  0
SEQEND
  8
0
  0
POLYLINE
  8
FOREGROUND
  6
CONTINUOUS
 66
     1
 40
0.000000
 41
0.000000
  0
VERTEX
  8
FOREGROUND
  6
CONTINUOUS
 10
0.000000
 20
8.803080
  0
VERTEX
  8
FOREGROUND
  6
CONTINUOUS
 10
8.499920
 20
8.803080
  0
VERTEX
  8
FOREGROUND
  6
CONTINUOUS
 10
8.499920
 20
-2.196920
  0
VERTEX
  8
FOREGROUND
  6
CONTINUOUS
 10
0.000000
 20
-2.196920
  0
VERTEX
  8
FOREGROUND
  6
CONTINUOUS
 10
0.000000
 20
8.803080
  0
SEQEND
  8
0
  0
SOLID
  8
0
 62
    15
 10
4.950880
 20
3.677960
 11
5.598560
 21
4.047120
 12
6.944960
 22
3.677960
 13
7.593080
 23
4.047120
  0
POLYLINE
  8
0
  6
CONTINUOUS
 66
     1
 40
0.000000
 41
0.000000
  0
VERTEX
  8
0
  6
CONTINUOUS
 10
4.950880
 20
3.677960
  0
VERTEX
  8
0
  6
CONTINUOUS
 10
5.598560
 20
4.047120
  0
VERTEX
  8
0
  6
CONTINUOUS
 10
7.593080
 20
4.047120
  0
VERTEX
  8
0
  6
CONTINUOUS
 10
6.944960
 20
3.677960
  0
VERTEX
  8
0
  6
CONTINUOUS
 10
4.950880
 20
3.677960
  0
SEQEND
  8
0
  0
SOLID
  8
0
 62
    15
 10
6.944960
 20
3.677960
 11
7.593080
 21
4.047120
 12
6.944960
 22
1.680800
 13
7.593080
 23
2.049960
  0
POLYLINE
  8
0
  6
CONTINUOUS
 66
     1
 40
0.000000
 41
0.000000
  0
VERTEX
  8
0
  6
CONTINUOUS
 10
6.944960
 20
3.677960
  0
VERTEX
  8
0
  6
CONTINUOUS
 10
7.593080
 20
4.047120
  0
VERTEX
  8
0
  6
CONTINUOUS
 10
7.593080
 20
2.049960
  0
VERTEX
  8
0
  6
CONTINUOUS
 10
6.944960
 20
1.680800
  0
VERTEX
  8
0
  6
CONTINUOUS
 10
6.944960
 20
3.677960
  0
SEQEND
  8
0
  0
SOLID
  8
0
 62
    15
 10
4.950880
 20
2.431440
 11
5.598560
 21
2.800600
 12
5.497800
 22
2.431440
 13
6.145920
 23
2.800600
  0
POLYLINE
  8
0
  6
CONTINUOUS
 66
     1
 40
0.000000
 41
0.000000
  0
VERTEX
  8
0
  6
CONTINUOUS
 10
4.950880
 20
2.431440
  0
VERTEX
  8
0
  6
CONTINUOUS
 10
5.598560
 20
2.800600
  0
VERTEX
  8
0
  6
CONTINUOUS
 10
6.145920
 20
2.800600
  0
VERTEX
  8
0
  6
CONTINUOUS
 10
5.497800
 20
2.431440
  0
VERTEX
  8
0
  6
CONTINUOUS
 10
4.950880
 20
2.431440
  0
SEQEND
  8
0
  0
POLYLINE
  8
0
  6
CONTINUOUS
 66
     1
 40
0.000000
 41
0.000000
  0
VERTEX
  8
0
  6
CONTINUOUS
 10
4.950880
 20
1.680800
  0
VERTEX
  8
0
  6
CONTINUOUS
 10
4.950880
 20
2.431440
  0
VERTEX
  8
0
  6
CONTINUOUS
 10
5.497800
 20
2.431440
  0
VERTEX
  8
0
  6
CONTINUOUS
 10
5.497800
 20
2.933920
  0
VERTEX
  8
0
  6
CONTINUOUS
 10
4.950880
 20
2.933920
  0
VERTEX
  8
0
  6
CONTINUOUS
 10
4.950880
 20
3.677960
  0
VERTEX
  8
0
  6
CONTINUOUS
 10
6.944960
 20
3.677960
  0
VERTEX
  8
0
  6
CONTINUOUS
 10
6.944960
 20
1.680800
  0
VERTEX
  8
0
  6
CONTINUOUS
 10
4.950880
 20
1.680800
  0
SEQEND
  8
0
  0
LINE
  8
0
  6
CONTINUOUS
 10
6.941880
 20
3.673560
 11
7.589120
 21
4.047560
  0
TEXT
  8
0
 10
5.763120
 20
1.397440
 40
0.138314
  1
BA  1128
 41
1.000000
  7
SN0
 71
     0
 72
     5
 11
6.445528
 21
1.397440
  0
TEXT
  8
0
 10
6.028880
 20
1.205600
 40
0.138314
  1
2"
 41
1.000000
  7
SN0
 71
     0
 72
     5
 11
6.180417
 21
1.205600
  0
SOLID
  8
0
 62
    15
 10
3.714920
 20
2.426600
 11
4.362160
 21
2.800600
 12
3.714920
 22
1.675960
 13
4.362160
 23
2.049960
  0
POLYLINE
  8
0
  6
CONTINUOUS
 66
     1
 40
0.000000
 41
0.000000
  0
VERTEX
  8
0
  6
CONTINUOUS
 10
3.714920
 20
2.426600
  0
VERTEX
  8
0
  6
CONTINUOUS
 10
4.362160
 20
2.800600
  0
VERTEX
  8
0
  6
CONTINUOUS
 10
4.362160
 20
2.049960
  0
VERTEX
  8
0
  6
CONTINUOUS
 10
3.714920
 20
1.675960
  0
VERTEX
  8
0
  6
CONTINUOUS
 10
3.714920
 20
2.426600
  0
SEQEND
  8
0
  0
SOLID
  8
0
 62
    15
 10
4.214320
 20
2.929080
 11
4.861560
 21
3.303080
 12
4.214320
 22
2.426600
 13
4.861560
 23
2.800600
  0
POLYLINE
  8
0
  6
CONTINUOUS
 66
     1
 40
0.000000
 41
0.000000
  0
VERTEX
  8
0
  6
CONTINUOUS
 10
4.214320
 20
2.929080
  0
VERTEX
  8
0
  6
CONTINUOUS
 10
4.861560
 20
3.303080
  0
VERTEX
  8
0
  6
CONTINUOUS
 10
4.861560
 20
2.800600
  0
VERTEX
  8
0
  6
CONTINUOUS
 10
4.214320
 20
2.426600
  0
VERTEX
  8
0
  6
CONTINUOUS
 10
4.214320
 20
2.929080
  0
SEQEND
  8
0
  0
SOLID
  8
0
 62
    15
 10
2.213640
 20
3.673120
 11
2.860880
 21
4.047120
 12
3.714920
 22
3.673120
 13
4.362160
 23
4.047120
  0
POLYLINE
  8
0
  6
CONTINUOUS
 66
     1
 40
0.000000
 41
0.000000
  0
VERTEX
  8
0
  6
CONTINUOUS
 10
2.213640
 20
3.673120
  0
VERTEX
  8
0
  6
CONTINUOUS
 10
2.860880
 20
4.047120
  0
VERTEX
  8
0
  6
CONTINUOUS
 10
4.362160
 20
4.047120
  0
VERTEX
  8
0
  6
CONTINUOUS
 10
3.714920
 20
3.673120
  0
VERTEX
  8
0
  6
CONTINUOUS
 10
2.213640
 20
3.673120
  0
SEQEND
  8
0
  0
SOLID
  8
0
 62
    15
 10
3.714920
 20
3.673120
 11
4.362160
 21
4.047120
 12
3.714920
 22
2.922920
 13
4.362160
 23
3.296480
  0
POLYLINE
  8
0
  6
CONTINUOUS
 66
     1
 40
0.000000
 41
0.000000
  0
VERTEX
  8
0
  6
CONTINUOUS
 10
3.714920
 20
3.673120
  0
VERTEX
  8
0
  6
CONTINUOUS
 10
4.362160
 20
4.047120
  0
VERTEX
  8
0
  6
CONTINUOUS
 10
4.362160
 20
3.296480
  0
VERTEX
  8
0
  6
CONTINUOUS
 10
3.714920
 20
2.922920
  0
VERTEX
  8
0
  6
CONTINUOUS
 10
3.714920
 20
3.673120
  0
SEQEND
  8
0
  0
SOLID
  8
0
 62
    15
 10
3.714920
 20
2.929080
 11
4.362160
 21
3.303080
 12
4.214320
 22
2.929080
 13
4.861560
 23
3.303080
  0
POLYLINE
  8
0
  6
CONTINUOUS
 66
     1
 40
0.000000
 41
0.000000
  0
VERTEX
  8
0
  6
CONTINUOUS
 10
3.714920
 20
2.929080
  0
VERTEX
  8
0
  6
CONTINUOUS
 10
4.362160
 20
3.303080
  0
VERTEX
  8
0
  6
CONTINUOUS
 10
4.861560
 20
3.303080
  0
VERTEX
  8
0
  6
CONTINUOUS
 10
4.214320
 20
2.929080
  0
VERTEX
  8
0
  6
CONTINUOUS
 10
3.714920
 20
2.929080
  0
SEQEND
  8
0
  0
POLYLINE
  8
0
  6
CONTINUOUS
 66
     1
 40
0.000000
 41
0.000000
  0
VERTEX
  8
0
  6
CONTINUOUS
 10
3.714920
 20
2.929080
  0
VERTEX
  8
0
  6
CONTINUOUS
 10
4.214320
 20
2.929080
  0
VERTEX
  8
0
  6
CONTINUOUS
 10
4.214320
 20
2.426600
  0
VERTEX
  8
0
  6
CONTINUOUS
 10
3.714920
 20
2.426600
  0
VERTEX
  8
0
  6
CONTINUOUS
 10
3.714920
 20
1.675960
  0
VERTEX
  8
0
  6
CONTINUOUS
 10
2.213640
 20
1.675960
  0
VERTEX
  8
0
  6
CONTINUOUS
 10
2.213640
 20
3.673120
  0
VERTEX
  8
0
  6
CONTINUOUS
 10
3.714920
 20
3.673120
  0
VERTEX
  8
0
  6
CONTINUOUS
 10
3.714920
 20
2.922920
  0
VERTEX
  8
0
  6
CONTINUOUS
 10
3.714920
 20
2.929080
  0
SEQEND
  8
0
  0
TEXT
  8
0
 10
3.195720
 20
1.364000
 40
0.138314
  1
BA  1127
 41
1.000000
  7
SN0
 71
     0
 72
     5
 11
3.878128
 21
1.364000
  0
TEXT
  8
0
 10
3.461480
 20
1.172160
 40
0.138314
  1
2"
 41
1.000000
  7
SN0
 71
     0
 72
     5
 11
3.613017
 21
1.172160
  0
POLYLINE
  8
0
  6
CONTINUOUS
 66
     1
 40
0.014080
 41
0.014080
  0
VERTEX
  8
0
  6
CONTINUOUS
 10
3.991240
 20
6.922520
  0
VERTEX
  8
0
  6
CONTINUOUS
 10
4.490640
 20
6.922520
  0
VERTEX
  8
0
  6
CONTINUOUS
 10
4.490640
 20
6.420040
  0
VERTEX
  8
0
  6
CONTINUOUS
 10
3.991240
 20
6.420040
  0
VERTEX
  8
0
  6
CONTINUOUS
 10
3.991240
 20
5.669400
  0
VERTEX
  8
0
  6
CONTINUOUS
 10
2.489960
 20
5.669400
  0
VERTEX
  8
0
  6
CONTINUOUS
 10
2.489960
 20
7.666560
  0
VERTEX
  8
0
  6
CONTINUOUS
 10
3.991240
 20
7.666560
  0
VERTEX
  8
0
  6
CONTINUOUS
 10
3.991240
 20
6.915920
  0
SEQEND
  8
0
  0
POLYLINE
  8
0
  6
CONTINUOUS
 66
     1
 40
0.014080
 41
0.014080
  0
VERTEX
  8
0
  6
CONTINUOUS
 10
3.988160
 20
5.669400
  0
VERTEX
  8
0
  6
CONTINUOUS
 10
3.988160
 20
6.420040
  0
VERTEX
  8
0
  6
CONTINUOUS
 10
4.535080
 20
6.420040
  0
VERTEX
  8
0
  6
CONTINUOUS
 10
4.535080
 20
6.922520
  0
VERTEX
  8
0
  6
CONTINUOUS
 10
3.988160
 20
6.922520
  0
VERTEX
  8
0
  6
CONTINUOUS
 10
3.988160
 20
7.666560
  0
VERTEX
  8
0
  6
CONTINUOUS
 10
5.982240
 20
7.666560
  0
VERTEX
  8
0
  6
CONTINUOUS
 10
5.982240
 20
5.669400
  0
VERTEX
  8
0
  6
CONTINUOUS
 10
3.988160
 20
5.669400
  0
SEQEND
  8
0
  0
TEXT
  8
0
 10
4.884880
 20
6.038120
 40
0.138314
  1
BA  1128
 41
1.000000
  7
SN0
 71
     0
 72
     5
 11
5.567288
 21
6.038120
  0
TEXT
  8
0
 10
5.150640
 20
5.846280
 40
0.138314
  1
2"
 41
1.000000
  7
SN0
 71
     0
 72
     5
 11
5.302177
 21
5.846280
  0
TEXT
  8
0
 10
3.039520
 20
6.018760
 40
0.138314
  1
BA  1127
 41
1.000000
  7
SN0
 71
     0
 72
     5
 11
3.721928
 21
6.018760
  0
TEXT
  8
0
 10
3.305280
 20
5.826920
 40
0.138314
  1
2"
 41
1.000000
  7
SN0
 71
     0
 72
     5
 11
3.456817
 21
5.826920
  0
ENDSEC
  0
EOF
