  0
SECTION
  2
HEADER
  9
$ACADVER
  1
AC1006
  9
$EXTMIN
 10
4.471720
 20
1.423400
  9
$EXTMAX
 10
6.894360
 20
2.953720
  9
$LTSCALE
 40
0.044000
  9
$PDMODE
 70
    35
  9
$PDSIZE
 40
0.035200
  0
ENDSEC
  0
SECTION
  2
TABLES
  0
TABLE
  2
LTYPE
 70
     9
  0
LTYPE
  2
CONTINUOUS
 70
    64
  3
Solid line
 72
    65
 73
     0
 40
0.000000
  0
LTYPE
  2
DASHED
 70
    64
  3
__ __ __ __ __ __ __ __ __ __ __ __ __ __ __
 72
    65
 73
     2
 40
0.000330
 49
0.000220
 49
-0.000110
  0
LTYPE
  2
HIDDEN
 70
    64
  3
 _ _ _ _ _ _ _ _ _ _ _ _ _ _ _ _ _ _ _ _ _ _
 72
    65
 73
     2
 40
0.000165
 49
0.000110
 49
-0.000055
  0
LTYPE
  2
CENTER
 70
    64
  3
____ _ ____ _ ____ _ ____ _ ____ _ ____ _ ____
 72
    65
 73
     4
 40
0.000880
 49
0.000550
 49
-0.000110
 49
0.000110
 49
-0.000110
  0
LTYPE
  2
PHANTOM
 70
    64
  3
_____ _ _ _____ _ _ _____ _ _ _____ _ _ ____
 72
    65
 73
     6
 40
0.001100
 49
0.000550
 49
-0.000110
 49
0.000110
 49
-0.000110
 49
0.000110
 49
-0.000110
  0
LTYPE
  2
DOT
 70
    64
  3
...............................................
 72
    65
 73
     2
 40
0.000110
 49
0.000000
 49
-0.000110
  0
LTYPE
  2
DASHDOT
 70
    64
  3
__ . __ . __ . __ . __ . __ . __ . __ . __ . __
 72
    65
 73
     4
 40
0.000440
 49
0.000220
 49
-0.000110
 49
0.000000
 49
-0.000110
  0
LTYPE
  2
BORDER
 70
    64
  3
__ __ . __ __ . __ __ . __ __ . __ __ . __ __
 72
    65
 73
     6
 40
0.000770
 49
0.000220
 49
-0.000110
 49
0.000220
 49
-0.000110
 49
0.000000
 49
-0.000110
  0
LTYPE
  2
DIVIDE
 70
    64
  3
__ . . __ . . __ . . __ . . __ . . __ . . __
 72
    65
 73
     6
 40
0.000550
 49
0.000220
 49
-0.000110
 49
0.000000
 49
-0.000110
 49
0.000000
 49
-0.000110
  0
LTYPE
  2
DOTDOT
 70
    64
  3
 . .  . .  . .  . .  . .  . . 
 72
    65
 73
     5
 40
0.000242
 49
-0.000110
 49
0.000000
 49
-0.000110
 49
0.000000
 49
-0.000110
  0
ENDTAB
  0
TABLE
  2
STYLE
 70
     2
  0
STYLE
 70
     0
  2
SN0
 40
0.000000
 41
0.000440
 50
0.000000
 71
     0
 42
0.000000
  3
ROMAND
  0
STYLE
 70
    68
  2
SV0
 40
0.000000
 41
0.000440
 50
0.000000
 71
     0
 42
0.000000
  3
ROMAND
  0
ENDTAB
  0
TABLE
  2
LAYER
 70
     3
  0
LAYER
  2
FOREGROUND
 70
    64
 62
     7
  6
CONTINUOUS
  0
LAYER
  2
BACKGROUND
 70
    65
 62
    -7
  6
CONTINUOUS
  0
LAYER
  2
0
 70
    64
 62
     7
  6
CONTINUOUS
  0
ENDTAB
  0
ENDSEC
  0
SECTION
  2
ENTITIES
  0
POLYLINE
  8
FOREGROUND
  6
CONTINUOUS
 66
     1
 40
0.000000
 41
0.000000
  0
VERTEX
  8
FOREGROUND
  6
CONTINUOUS
 10
0.000000
 20
4.377120
  0
VERTEX
  8
FOREGROUND
  6
CONTINUOUS
 10
8.499920
 20
4.377120
  0
VERTEX
  8
FOREGROUND
  6
CONTINUOUS
 10
8.499920
 20
-6.622880
  0
VERTEX
  8
FOREGROUND
  6
CONTINUOUS
 10
0.000000
 20
-6.622880
  0
VERTEX
  8
FOREGROUND
  6
CONTINUOUS
 10
0.000000
 20
4.377120
  0
SEQEND
  8
0
  0
POLYLINE
  8
FOREGROUND
  6
CONTINUOUS
 66
     1
 40
0.000000
 41
0.000000
  0
VERTEX
  8
FOREGROUND
  6
CONTINUOUS
 10
0.000000
 20
4.377120
  0
VERTEX
  8
FOREGROUND
  6
CONTINUOUS
 10
8.499920
 20
4.377120
  0
VERTEX
  8
FOREGROUND
  6
CONTINUOUS
 10
8.499920
 20
-6.622880
  0
VERTEX
  8
FOREGROUND
  6
CONTINUOUS
 10
0.000000
 20
-6.622880
  0
VERTEX
  8
FOREGROUND
  6
CONTINUOUS
 10
0.000000
 20
4.377120
  0
SEQEND
  8
0
  0
SOLID
  8
0
 62
    15
 10
5.010280
 20
2.026640
 11
5.008520
 21
2.768920
 12
5.041520
 22
2.020920
 13
5.039760
 23
2.763200
  0
POLYLINE
  8
0
  6
CONTINUOUS
 66
     1
 40
0.000000
 41
0.000000
  0
VERTEX
  8
0
  6
CONTINUOUS
 10
5.010280
 20
2.026640
  0
VERTEX
  8
0
  6
CONTINUOUS
 10
5.008520
 20
2.768920
  0
VERTEX
  8
0
  6
CONTINUOUS
 10
5.039760
 20
2.763200
  0
VERTEX
  8
0
  6
CONTINUOUS
 10
5.041520
 20
2.020920
  0
VERTEX
  8
0
  6
CONTINUOUS
 10
5.010280
 20
2.026640
  0
SEQEND
  8
0
  0
SOLID
  8
0
 62
    15
 10
4.659600
 20
2.038520
 11
4.657840
 21
2.780800
 12
4.664440
 22
2.053920
 13
4.662240
 23
2.796200
  0
POLYLINE
  8
0
  6
CONTINUOUS
 66
     1
 40
0.000000
 41
0.000000
  0
VERTEX
  8
0
  6
CONTINUOUS
 10
4.659600
 20
2.038520
  0
VERTEX
  8
0
  6
CONTINUOUS
 10
4.657840
 20
2.780800
  0
VERTEX
  8
0
  6
CONTINUOUS
 10
4.662240
 20
2.796200
  0
VERTEX
  8
0
  6
CONTINUOUS
 10
4.664440
 20
2.053920
  0
VERTEX
  8
0
  6
CONTINUOUS
 10
4.659600
 20
2.038520
  0
SEQEND
  8
0
  0
SOLID
  8
0
 62
    15
 10
4.664440
 20
2.053920
 11
4.662240
 21
2.796200
 12
4.670160
 22
2.068000
 13
4.668400
 23
2.810280
  0
POLYLINE
  8
0
  6
CONTINUOUS
 66
     1
 40
0.000000
 41
0.000000
  0
VERTEX
  8
0
  6
CONTINUOUS
 10
4.664440
 20
2.053920
  0
VERTEX
  8
0
  6
CONTINUOUS
 10
4.662240
 20
2.796200
  0
VERTEX
  8
0
  6
CONTINUOUS
 10
4.668400
 20
2.810280
  0
VERTEX
  8
0
  6
CONTINUOUS
 10
4.670160
 20
2.068000
  0
VERTEX
  8
0
  6
CONTINUOUS
 10
4.664440
 20
2.053920
  0
SEQEND
  8
0
  0
SOLID
  8
0
 62
    15
 10
4.670160
 20
2.068000
 11
4.668400
 21
2.810280
 12
4.677640
 22
2.080320
 13
4.675440
 23
2.822600
  0
POLYLINE
  8
0
  6
CONTINUOUS
 66
     1
 40
0.000000
 41
0.000000
  0
VERTEX
  8
0
  6
CONTINUOUS
 10
4.670160
 20
2.068000
  0
VERTEX
  8
0
  6
CONTINUOUS
 10
4.668400
 20
2.810280
  0
VERTEX
  8
0
  6
CONTINUOUS
 10
4.675440
 20
2.822600
  0
VERTEX
  8
0
  6
CONTINUOUS
 10
4.677640
 20
2.080320
  0
VERTEX
  8
0
  6
CONTINUOUS
 10
4.670160
 20
2.068000
  0
SEQEND
  8
0
  0
SOLID
  8
0
 62
    15
 10
4.677640
 20
2.080320
 11
4.675440
 21
2.822600
 12
4.686000
 22
2.091760
 13
4.684240
 23
2.834040
  0
POLYLINE
  8
0
  6
CONTINUOUS
 66
     1
 40
0.000000
 41
0.000000
  0
VERTEX
  8
0
  6
CONTINUOUS
 10
4.677640
 20
2.080320
  0
VERTEX
  8
0
  6
CONTINUOUS
 10
4.675440
 20
2.822600
  0
VERTEX
  8
0
  6
CONTINUOUS
 10
4.684240
 20
2.834040
  0
VERTEX
  8
0
  6
CONTINUOUS
 10
4.686000
 20
2.091760
  0
VERTEX
  8
0
  6
CONTINUOUS
 10
4.677640
 20
2.080320
  0
SEQEND
  8
0
  0
SOLID
  8
0
 62
    15
 10
4.686000
 20
2.091760
 11
4.684240
 21
2.834040
 12
4.695680
 22
2.101440
 13
4.693920
 23
2.843720
  0
POLYLINE
  8
0
  6
CONTINUOUS
 66
     1
 40
0.000000
 41
0.000000
  0
VERTEX
  8
0
  6
CONTINUOUS
 10
4.686000
 20
2.091760
  0
VERTEX
  8
0
  6
CONTINUOUS
 10
4.684240
 20
2.834040
  0
VERTEX
  8
0
  6
CONTINUOUS
 10
4.693920
 20
2.843720
  0
VERTEX
  8
0
  6
CONTINUOUS
 10
4.695680
 20
2.101440
  0
VERTEX
  8
0
  6
CONTINUOUS
 10
4.686000
 20
2.091760
  0
SEQEND
  8
0
  0
SOLID
  8
0
 62
    15
 10
4.695680
 20
2.101440
 11
4.693920
 21
2.843720
 12
4.706680
 22
2.109360
 13
4.704920
 23
2.851640
  0
POLYLINE
  8
0
  6
CONTINUOUS
 66
     1
 40
0.000000
 41
0.000000
  0
VERTEX
  8
0
  6
CONTINUOUS
 10
4.695680
 20
2.101440
  0
VERTEX
  8
0
  6
CONTINUOUS
 10
4.693920
 20
2.843720
  0
VERTEX
  8
0
  6
CONTINUOUS
 10
4.704920
 20
2.851640
  0
VERTEX
  8
0
  6
CONTINUOUS
 10
4.706680
 20
2.109360
  0
VERTEX
  8
0
  6
CONTINUOUS
 10
4.695680
 20
2.101440
  0
SEQEND
  8
0
  0
SOLID
  8
0
 62
    15
 10
4.706680
 20
2.109360
 11
4.704920
 21
2.851640
 12
4.718560
 22
2.115960
 13
4.716800
 23
2.858240
  0
POLYLINE
  8
0
  6
CONTINUOUS
 66
     1
 40
0.000000
 41
0.000000
  0
VERTEX
  8
0
  6
CONTINUOUS
 10
4.706680
 20
2.109360
  0
VERTEX
  8
0
  6
CONTINUOUS
 10
4.704920
 20
2.851640
  0
VERTEX
  8
0
  6
CONTINUOUS
 10
4.716800
 20
2.858240
  0
VERTEX
  8
0
  6
CONTINUOUS
 10
4.718560
 20
2.115960
  0
VERTEX
  8
0
  6
CONTINUOUS
 10
4.706680
 20
2.109360
  0
SEQEND
  8
0
  0
SOLID
  8
0
 62
    15
 10
4.718560
 20
2.115960
 11
4.716800
 21
2.858240
 12
4.731320
 22
2.120800
 13
4.729560
 23
2.863080
  0
POLYLINE
  8
0
  6
CONTINUOUS
 66
     1
 40
0.000000
 41
0.000000
  0
VERTEX
  8
0
  6
CONTINUOUS
 10
4.718560
 20
2.115960
  0
VERTEX
  8
0
  6
CONTINUOUS
 10
4.716800
 20
2.858240
  0
VERTEX
  8
0
  6
CONTINUOUS
 10
4.729560
 20
2.863080
  0
VERTEX
  8
0
  6
CONTINUOUS
 10
4.731320
 20
2.120800
  0
VERTEX
  8
0
  6
CONTINUOUS
 10
4.718560
 20
2.115960
  0
SEQEND
  8
0
  0
SOLID
  8
0
 62
    15
 10
4.731320
 20
2.120800
 11
4.729560
 21
2.863080
 12
4.744960
 22
2.123880
 13
4.743200
 23
2.866160
  0
POLYLINE
  8
0
  6
CONTINUOUS
 66
     1
 40
0.000000
 41
0.000000
  0
VERTEX
  8
0
  6
CONTINUOUS
 10
4.731320
 20
2.120800
  0
VERTEX
  8
0
  6
CONTINUOUS
 10
4.729560
 20
2.863080
  0
VERTEX
  8
0
  6
CONTINUOUS
 10
4.743200
 20
2.866160
  0
VERTEX
  8
0
  6
CONTINUOUS
 10
4.744960
 20
2.123880
  0
VERTEX
  8
0
  6
CONTINUOUS
 10
4.731320
 20
2.120800
  0
SEQEND
  8
0
  0
SOLID
  8
0
 62
    15
 10
4.744960
 20
2.123880
 11
4.743200
 21
2.866160
 12
4.759480
 22
2.125640
 13
4.757720
 23
2.867920
  0
POLYLINE
  8
0
  6
CONTINUOUS
 66
     1
 40
0.000000
 41
0.000000
  0
VERTEX
  8
0
  6
CONTINUOUS
 10
4.744960
 20
2.123880
  0
VERTEX
  8
0
  6
CONTINUOUS
 10
4.743200
 20
2.866160
  0
VERTEX
  8
0
  6
CONTINUOUS
 10
4.757720
 20
2.867920
  0
VERTEX
  8
0
  6
CONTINUOUS
 10
4.759480
 20
2.125640
  0
VERTEX
  8
0
  6
CONTINUOUS
 10
4.744960
 20
2.123880
  0
SEQEND
  8
0
  0
SOLID
  8
0
 62
    15
 10
4.759480
 20
2.125640
 11
4.757720
 21
2.867920
 12
4.774880
 22
2.125200
 13
4.773120
 23
2.867480
  0
POLYLINE
  8
0
  6
CONTINUOUS
 66
     1
 40
0.000000
 41
0.000000
  0
VERTEX
  8
0
  6
CONTINUOUS
 10
4.759480
 20
2.125640
  0
VERTEX
  8
0
  6
CONTINUOUS
 10
4.757720
 20
2.867920
  0
VERTEX
  8
0
  6
CONTINUOUS
 10
4.773120
 20
2.867480
  0
VERTEX
  8
0
  6
CONTINUOUS
 10
4.774880
 20
2.125200
  0
VERTEX
  8
0
  6
CONTINUOUS
 10
4.759480
 20
2.125640
  0
SEQEND
  8
0
  0
SOLID
  8
0
 62
    15
 10
4.774880
 20
2.125200
 11
4.773120
 21
2.867480
 12
4.791160
 22
2.123000
 13
4.788960
 23
2.865280
  0
POLYLINE
  8
0
  6
CONTINUOUS
 66
     1
 40
0.000000
 41
0.000000
  0
VERTEX
  8
0
  6
CONTINUOUS
 10
4.774880
 20
2.125200
  0
VERTEX
  8
0
  6
CONTINUOUS
 10
4.773120
 20
2.867480
  0
VERTEX
  8
0
  6
CONTINUOUS
 10
4.788960
 20
2.865280
  0
VERTEX
  8
0
  6
CONTINUOUS
 10
4.791160
 20
2.123000
  0
VERTEX
  8
0
  6
CONTINUOUS
 10
4.774880
 20
2.125200
  0
SEQEND
  8
0
  0
SOLID
  8
0
 62
    15
 10
4.791160
 20
2.123000
 11
4.788960
 21
2.865280
 12
4.807880
 22
2.119040
 13
4.805680
 23
2.861320
  0
POLYLINE
  8
0
  6
CONTINUOUS
 66
     1
 40
0.000000
 41
0.000000
  0
VERTEX
  8
0
  6
CONTINUOUS
 10
4.791160
 20
2.123000
  0
VERTEX
  8
0
  6
CONTINUOUS
 10
4.788960
 20
2.865280
  0
VERTEX
  8
0
  6
CONTINUOUS
 10
4.805680
 20
2.861320
  0
VERTEX
  8
0
  6
CONTINUOUS
 10
4.807880
 20
2.119040
  0
VERTEX
  8
0
  6
CONTINUOUS
 10
4.791160
 20
2.123000
  0
SEQEND
  8
0
  0
SOLID
  8
0
 62
    15
 10
4.807880
 20
2.119040
 11
4.805680
 21
2.861320
 12
4.825040
 22
2.113320
 13
4.822840
 23
2.855600
  0
POLYLINE
  8
0
  6
CONTINUOUS
 66
     1
 40
0.000000
 41
0.000000
  0
VERTEX
  8
0
  6
CONTINUOUS
 10
4.807880
 20
2.119040
  0
VERTEX
  8
0
  6
CONTINUOUS
 10
4.805680
 20
2.861320
  0
VERTEX
  8
0
  6
CONTINUOUS
 10
4.822840
 20
2.855600
  0
VERTEX
  8
0
  6
CONTINUOUS
 10
4.825040
 20
2.113320
  0
VERTEX
  8
0
  6
CONTINUOUS
 10
4.807880
 20
2.119040
  0
SEQEND
  8
0
  0
SOLID
  8
0
 62
    15
 10
4.825040
 20
2.113320
 11
4.822840
 21
2.855600
 12
4.842640
 22
2.105840
 13
4.840880
 23
2.848120
  0
POLYLINE
  8
0
  6
CONTINUOUS
 66
     1
 40
0.000000
 41
0.000000
  0
VERTEX
  8
0
  6
CONTINUOUS
 10
4.825040
 20
2.113320
  0
VERTEX
  8
0
  6
CONTINUOUS
 10
4.822840
 20
2.855600
  0
VERTEX
  8
0
  6
CONTINUOUS
 10
4.840880
 20
2.848120
  0
VERTEX
  8
0
  6
CONTINUOUS
 10
4.842640
 20
2.105840
  0
VERTEX
  8
0
  6
CONTINUOUS
 10
4.825040
 20
2.113320
  0
SEQEND
  8
0
  0
SOLID
  8
0
 62
    15
 10
4.842640
 20
2.105840
 11
4.840880
 21
2.848120
 12
4.861120
 22
2.096160
 13
4.858920
 23
2.838440
  0
POLYLINE
  8
0
  6
CONTINUOUS
 66
     1
 40
0.000000
 41
0.000000
  0
VERTEX
  8
0
  6
CONTINUOUS
 10
4.842640
 20
2.105840
  0
VERTEX
  8
0
  6
CONTINUOUS
 10
4.840880
 20
2.848120
  0
VERTEX
  8
0
  6
CONTINUOUS
 10
4.858920
 20
2.838440
  0
VERTEX
  8
0
  6
CONTINUOUS
 10
4.861120
 20
2.096160
  0
VERTEX
  8
0
  6
CONTINUOUS
 10
4.842640
 20
2.105840
  0
SEQEND
  8
0
  0
SOLID
  8
0
 62
    15
 10
4.861120
 20
2.096160
 11
4.858920
 21
2.838440
 12
4.878720
 22
2.086040
 13
4.876520
 23
2.828320
  0
POLYLINE
  8
0
  6
CONTINUOUS
 66
     1
 40
0.000000
 41
0.000000
  0
VERTEX
  8
0
  6
CONTINUOUS
 10
4.861120
 20
2.096160
  0
VERTEX
  8
0
  6
CONTINUOUS
 10
4.858920
 20
2.838440
  0
VERTEX
  8
0
  6
CONTINUOUS
 10
4.876520
 20
2.828320
  0
VERTEX
  8
0
  6
CONTINUOUS
 10
4.878720
 20
2.086040
  0
VERTEX
  8
0
  6
CONTINUOUS
 10
4.861120
 20
2.096160
  0
SEQEND
  8
0
  0
SOLID
  8
0
 62
    15
 10
4.878720
 20
2.086040
 11
4.876520
 21
2.828320
 12
4.895440
 22
2.076360
 13
4.893240
 23
2.818640
  0
POLYLINE
  8
0
  6
CONTINUOUS
 66
     1
 40
0.000000
 41
0.000000
  0
VERTEX
  8
0
  6
CONTINUOUS
 10
4.878720
 20
2.086040
  0
VERTEX
  8
0
  6
CONTINUOUS
 10
4.876520
 20
2.828320
  0
VERTEX
  8
0
  6
CONTINUOUS
 10
4.893240
 20
2.818640
  0
VERTEX
  8
0
  6
CONTINUOUS
 10
4.895440
 20
2.076360
  0
VERTEX
  8
0
  6
CONTINUOUS
 10
4.878720
 20
2.086040
  0
SEQEND
  8
0
  0
SOLID
  8
0
 62
    15
 10
4.895440
 20
2.076360
 11
4.893240
 21
2.818640
 12
4.925800
 22
2.060080
 13
4.923600
 23
2.802360
  0
POLYLINE
  8
0
  6
CONTINUOUS
 66
     1
 40
0.000000
 41
0.000000
  0
VERTEX
  8
0
  6
CONTINUOUS
 10
4.895440
 20
2.076360
  0
VERTEX
  8
0
  6
CONTINUOUS
 10
4.893240
 20
2.818640
  0
VERTEX
  8
0
  6
CONTINUOUS
 10
4.923600
 20
2.802360
  0
VERTEX
  8
0
  6
CONTINUOUS
 10
4.925800
 20
2.060080
  0
VERTEX
  8
0
  6
CONTINUOUS
 10
4.895440
 20
2.076360
  0
SEQEND
  8
0
  0
SOLID
  8
0
 62
    15
 10
4.925800
 20
2.060080
 11
4.923600
 21
2.802360
 12
4.953960
 22
2.046000
 13
4.952200
 23
2.788280
  0
POLYLINE
  8
0
  6
CONTINUOUS
 66
     1
 40
0.000000
 41
0.000000
  0
VERTEX
  8
0
  6
CONTINUOUS
 10
4.925800
 20
2.060080
  0
VERTEX
  8
0
  6
CONTINUOUS
 10
4.923600
 20
2.802360
  0
VERTEX
  8
0
  6
CONTINUOUS
 10
4.952200
 20
2.788280
  0
VERTEX
  8
0
  6
CONTINUOUS
 10
4.953960
 20
2.046000
  0
VERTEX
  8
0
  6
CONTINUOUS
 10
4.925800
 20
2.060080
  0
SEQEND
  8
0
  0
SOLID
  8
0
 62
    15
 10
4.953960
 20
2.046000
 11
4.952200
 21
2.788280
 12
4.981680
 22
2.035440
 13
4.979920
 23
2.777720
  0
POLYLINE
  8
0
  6
CONTINUOUS
 66
     1
 40
0.000000
 41
0.000000
  0
VERTEX
  8
0
  6
CONTINUOUS
 10
4.953960
 20
2.046000
  0
VERTEX
  8
0
  6
CONTINUOUS
 10
4.952200
 20
2.788280
  0
VERTEX
  8
0
  6
CONTINUOUS
 10
4.979920
 20
2.777720
  0
VERTEX
  8
0
  6
CONTINUOUS
 10
4.981680
 20
2.035440
  0
VERTEX
  8
0
  6
CONTINUOUS
 10
4.953960
 20
2.046000
  0
SEQEND
  8
0
  0
SOLID
  8
0
 62
    15
 10
4.981680
 20
2.035440
 11
4.979920
 21
2.777720
 12
5.010280
 22
2.026640
 13
5.008520
 23
2.768920
  0
POLYLINE
  8
0
  6
CONTINUOUS
 66
     1
 40
0.000000
 41
0.000000
  0
VERTEX
  8
0
  6
CONTINUOUS
 10
4.981680
 20
2.035440
  0
VERTEX
  8
0
  6
CONTINUOUS
 10
4.979920
 20
2.777720
  0
VERTEX
  8
0
  6
CONTINUOUS
 10
5.008520
 20
2.768920
  0
VERTEX
  8
0
  6
CONTINUOUS
 10
5.010280
 20
2.026640
  0
VERTEX
  8
0
  6
CONTINUOUS
 10
4.981680
 20
2.035440
  0
SEQEND
  8
0
  0
SOLID
  8
0
 62
    15
 10
4.591400
 20
1.896840
 11
4.589200
 21
2.639120
 12
4.591400
 22
2.038520
 13
4.589200
 23
2.780800
  0
POLYLINE
  8
0
  6
CONTINUOUS
 66
     1
 40
0.000000
 41
0.000000
  0
VERTEX
  8
0
  6
CONTINUOUS
 10
4.591400
 20
1.896840
  0
VERTEX
  8
0
  6
CONTINUOUS
 10
4.589200
 20
2.639120
  0
VERTEX
  8
0
  6
CONTINUOUS
 10
4.589200
 20
2.780800
  0
VERTEX
  8
0
  6
CONTINUOUS
 10
4.591400
 20
2.038520
  0
VERTEX
  8
0
  6
CONTINUOUS
 10
4.591400
 20
1.896840
  0
SEQEND
  8
0
  0
SOLID
  8
0
 62
    15
 10
5.041520
 20
2.020920
 11
5.039760
 21
2.763200
 12
5.058680
 22
2.018720
 13
5.056920
 23
2.761000
  0
POLYLINE
  8
0
  6
CONTINUOUS
 66
     1
 40
0.000000
 41
0.000000
  0
VERTEX
  8
0
  6
CONTINUOUS
 10
5.041520
 20
2.020920
  0
VERTEX
  8
0
  6
CONTINUOUS
 10
5.039760
 20
2.763200
  0
VERTEX
  8
0
  6
CONTINUOUS
 10
5.056920
 20
2.761000
  0
VERTEX
  8
0
  6
CONTINUOUS
 10
5.058680
 20
2.018720
  0
VERTEX
  8
0
  6
CONTINUOUS
 10
5.041520
 20
2.020920
  0
SEQEND
  8
0
  0
SOLID
  8
0
 62
    15
 10
5.058680
 20
2.018720
 11
5.056920
 21
2.761000
 12
5.077160
 22
2.017400
 13
5.074960
 23
2.759680
  0
POLYLINE
  8
0
  6
CONTINUOUS
 66
     1
 40
0.000000
 41
0.000000
  0
VERTEX
  8
0
  6
CONTINUOUS
 10
5.058680
 20
2.018720
  0
VERTEX
  8
0
  6
CONTINUOUS
 10
5.056920
 20
2.761000
  0
VERTEX
  8
0
  6
CONTINUOUS
 10
5.074960
 20
2.759680
  0
VERTEX
  8
0
  6
CONTINUOUS
 10
5.077160
 20
2.017400
  0
VERTEX
  8
0
  6
CONTINUOUS
 10
5.058680
 20
2.018720
  0
SEQEND
  8
0
  0
SOLID
  8
0
 62
    15
 10
5.077160
 20
2.017400
 11
5.074960
 21
2.759680
 12
5.096960
 22
2.016080
 13
5.094760
 23
2.758360
  0
POLYLINE
  8
0
  6
CONTINUOUS
 66
     1
 40
0.000000
 41
0.000000
  0
VERTEX
  8
0
  6
CONTINUOUS
 10
5.077160
 20
2.017400
  0
VERTEX
  8
0
  6
CONTINUOUS
 10
5.074960
 20
2.759680
  0
VERTEX
  8
0
  6
CONTINUOUS
 10
5.094760
 20
2.758360
  0
VERTEX
  8
0
  6
CONTINUOUS
 10
5.096960
 20
2.016080
  0
VERTEX
  8
0
  6
CONTINUOUS
 10
5.077160
 20
2.017400
  0
SEQEND
  8
0
  0
SOLID
  8
0
 62
    15
 10
5.096960
 20
2.016080
 11
5.094760
 21
2.758360
 12
5.118520
 22
2.015640
 13
5.116320
 23
2.757920
  0
POLYLINE
  8
0
  6
CONTINUOUS
 66
     1
 40
0.000000
 41
0.000000
  0
VERTEX
  8
0
  6
CONTINUOUS
 10
5.096960
 20
2.016080
  0
VERTEX
  8
0
  6
CONTINUOUS
 10
5.094760
 20
2.758360
  0
VERTEX
  8
0
  6
CONTINUOUS
 10
5.116320
 20
2.757920
  0
VERTEX
  8
0
  6
CONTINUOUS
 10
5.118520
 20
2.015640
  0
VERTEX
  8
0
  6
CONTINUOUS
 10
5.096960
 20
2.016080
  0
SEQEND
  8
0
  0
SOLID
  8
0
 62
    15
 10
5.118520
 20
2.015640
 11
5.116320
 21
2.757920
 12
5.123360
 22
2.028840
 13
5.121160
 23
2.771120
  0
POLYLINE
  8
0
  6
CONTINUOUS
 66
     1
 40
0.000000
 41
0.000000
  0
VERTEX
  8
0
  6
CONTINUOUS
 10
5.118520
 20
2.015640
  0
VERTEX
  8
0
  6
CONTINUOUS
 10
5.116320
 20
2.757920
  0
VERTEX
  8
0
  6
CONTINUOUS
 10
5.121160
 20
2.771120
  0
VERTEX
  8
0
  6
CONTINUOUS
 10
5.123360
 20
2.028840
  0
VERTEX
  8
0
  6
CONTINUOUS
 10
5.118520
 20
2.015640
  0
SEQEND
  8
0
  0
SOLID
  8
0
 62
    15
 10
5.123360
 20
2.028840
 11
5.121160
 21
2.771120
 12
5.129520
 22
2.039840
 13
5.127320
 23
2.782120
  0
POLYLINE
  8
0
  6
CONTINUOUS
 66
     1
 40
0.000000
 41
0.000000
  0
VERTEX
  8
0
  6
CONTINUOUS
 10
5.123360
 20
2.028840
  0
VERTEX
  8
0
  6
CONTINUOUS
 10
5.121160
 20
2.771120
  0
VERTEX
  8
0
  6
CONTINUOUS
 10
5.127320
 20
2.782120
  0
VERTEX
  8
0
  6
CONTINUOUS
 10
5.129520
 20
2.039840
  0
VERTEX
  8
0
  6
CONTINUOUS
 10
5.123360
 20
2.028840
  0
SEQEND
  8
0
  0
SOLID
  8
0
 62
    15
 10
5.129520
 20
2.039840
 11
5.127320
 21
2.782120
 12
5.136560
 22
2.049080
 13
5.134360
 23
2.791360
  0
POLYLINE
  8
0
  6
CONTINUOUS
 66
     1
 40
0.000000
 41
0.000000
  0
VERTEX
  8
0
  6
CONTINUOUS
 10
5.129520
 20
2.039840
  0
VERTEX
  8
0
  6
CONTINUOUS
 10
5.127320
 20
2.782120
  0
VERTEX
  8
0
  6
CONTINUOUS
 10
5.134360
 20
2.791360
  0
VERTEX
  8
0
  6
CONTINUOUS
 10
5.136560
 20
2.049080
  0
VERTEX
  8
0
  6
CONTINUOUS
 10
5.129520
 20
2.039840
  0
SEQEND
  8
0
  0
SOLID
  8
0
 62
    15
 10
5.136560
 20
2.049080
 11
5.134360
 21
2.791360
 12
5.144480
 22
2.055680
 13
5.142280
 23
2.797960
  0
POLYLINE
  8
0
  6
CONTINUOUS
 66
     1
 40
0.000000
 41
0.000000
  0
VERTEX
  8
0
  6
CONTINUOUS
 10
5.136560
 20
2.049080
  0
VERTEX
  8
0
  6
CONTINUOUS
 10
5.134360
 20
2.791360
  0
VERTEX
  8
0
  6
CONTINUOUS
 10
5.142280
 20
2.797960
  0
VERTEX
  8
0
  6
CONTINUOUS
 10
5.144480
 20
2.055680
  0
VERTEX
  8
0
  6
CONTINUOUS
 10
5.136560
 20
2.049080
  0
SEQEND
  8
0
  0
SOLID
  8
0
 62
    15
 10
5.144480
 20
2.055680
 11
5.142280
 21
2.797960
 12
5.152840
 22
2.060520
 13
5.150640
 23
2.802800
  0
POLYLINE
  8
0
  6
CONTINUOUS
 66
     1
 40
0.000000
 41
0.000000
  0
VERTEX
  8
0
  6
CONTINUOUS
 10
5.144480
 20
2.055680
  0
VERTEX
  8
0
  6
CONTINUOUS
 10
5.142280
 20
2.797960
  0
VERTEX
  8
0
  6
CONTINUOUS
 10
5.150640
 20
2.802800
  0
VERTEX
  8
0
  6
CONTINUOUS
 10
5.152840
 20
2.060520
  0
VERTEX
  8
0
  6
CONTINUOUS
 10
5.144480
 20
2.055680
  0
SEQEND
  8
0
  0
SOLID
  8
0
 62
    15
 10
5.152840
 20
2.060520
 11
5.150640
 21
2.802800
 12
5.161640
 22
2.063600
 13
5.159440
 23
2.805880
  0
POLYLINE
  8
0
  6
CONTINUOUS
 66
     1
 40
0.000000
 41
0.000000
  0
VERTEX
  8
0
  6
CONTINUOUS
 10
5.152840
 20
2.060520
  0
VERTEX
  8
0
  6
CONTINUOUS
 10
5.150640
 20
2.802800
  0
VERTEX
  8
0
  6
CONTINUOUS
 10
5.159440
 20
2.805880
  0
VERTEX
  8
0
  6
CONTINUOUS
 10
5.161640
 20
2.063600
  0
VERTEX
  8
0
  6
CONTINUOUS
 10
5.152840
 20
2.060520
  0
SEQEND
  8
0
  0
SOLID
  8
0
 62
    15
 10
5.161640
 20
2.063600
 11
5.159440
 21
2.805880
 12
5.170440
 22
2.064480
 13
5.168680
 23
2.806760
  0
POLYLINE
  8
0
  6
CONTINUOUS
 66
     1
 40
0.000000
 41
0.000000
  0
VERTEX
  8
0
  6
CONTINUOUS
 10
5.161640
 20
2.063600
  0
VERTEX
  8
0
  6
CONTINUOUS
 10
5.159440
 20
2.805880
  0
VERTEX
  8
0
  6
CONTINUOUS
 10
5.168680
 20
2.806760
  0
VERTEX
  8
0
  6
CONTINUOUS
 10
5.170440
 20
2.064480
  0
VERTEX
  8
0
  6
CONTINUOUS
 10
5.161640
 20
2.063600
  0
SEQEND
  8
0
  0
SOLID
  8
0
 62
    15
 10
5.170440
 20
2.064480
 11
5.168680
 21
2.806760
 12
5.179240
 22
2.064040
 13
5.177480
 23
2.806320
  0
POLYLINE
  8
0
  6
CONTINUOUS
 66
     1
 40
0.000000
 41
0.000000
  0
VERTEX
  8
0
  6
CONTINUOUS
 10
5.170440
 20
2.064480
  0
VERTEX
  8
0
  6
CONTINUOUS
 10
5.168680
 20
2.806760
  0
VERTEX
  8
0
  6
CONTINUOUS
 10
5.177480
 20
2.806320
  0
VERTEX
  8
0
  6
CONTINUOUS
 10
5.179240
 20
2.064040
  0
VERTEX
  8
0
  6
CONTINUOUS
 10
5.170440
 20
2.064480
  0
SEQEND
  8
0
  0
SOLID
  8
0
 62
    15
 10
5.179240
 20
2.064040
 11
5.177480
 21
2.806320
 12
5.188040
 22
2.061840
 13
5.185840
 23
2.804120
  0
POLYLINE
  8
0
  6
CONTINUOUS
 66
     1
 40
0.000000
 41
0.000000
  0
VERTEX
  8
0
  6
CONTINUOUS
 10
5.179240
 20
2.064040
  0
VERTEX
  8
0
  6
CONTINUOUS
 10
5.177480
 20
2.806320
  0
VERTEX
  8
0
  6
CONTINUOUS
 10
5.185840
 20
2.804120
  0
VERTEX
  8
0
  6
CONTINUOUS
 10
5.188040
 20
2.061840
  0
VERTEX
  8
0
  6
CONTINUOUS
 10
5.179240
 20
2.064040
  0
SEQEND
  8
0
  0
SOLID
  8
0
 62
    15
 10
5.188040
 20
2.061840
 11
5.185840
 21
2.804120
 12
5.195960
 22
2.058320
 13
5.194200
 23
2.800600
  0
POLYLINE
  8
0
  6
CONTINUOUS
 66
     1
 40
0.000000
 41
0.000000
  0
VERTEX
  8
0
  6
CONTINUOUS
 10
5.188040
 20
2.061840
  0
VERTEX
  8
0
  6
CONTINUOUS
 10
5.185840
 20
2.804120
  0
VERTEX
  8
0
  6
CONTINUOUS
 10
5.194200
 20
2.800600
  0
VERTEX
  8
0
  6
CONTINUOUS
 10
5.195960
 20
2.058320
  0
VERTEX
  8
0
  6
CONTINUOUS
 10
5.188040
 20
2.061840
  0
SEQEND
  8
0
  0
SOLID
  8
0
 62
    15
 10
5.195960
 20
2.058320
 11
5.194200
 21
2.800600
 12
5.203440
 22
2.053040
 13
5.201680
 23
2.795320
  0
POLYLINE
  8
0
  6
CONTINUOUS
 66
     1
 40
0.000000
 41
0.000000
  0
VERTEX
  8
0
  6
CONTINUOUS
 10
5.195960
 20
2.058320
  0
VERTEX
  8
0
  6
CONTINUOUS
 10
5.194200
 20
2.800600
  0
VERTEX
  8
0
  6
CONTINUOUS
 10
5.201680
 20
2.795320
  0
VERTEX
  8
0
  6
CONTINUOUS
 10
5.203440
 20
2.053040
  0
VERTEX
  8
0
  6
CONTINUOUS
 10
5.195960
 20
2.058320
  0
SEQEND
  8
0
  0
SOLID
  8
0
 62
    15
 10
5.203440
 20
2.053040
 11
5.201680
 21
2.795320
 12
5.210040
 22
2.046440
 13
5.208280
 23
2.788720
  0
POLYLINE
  8
0
  6
CONTINUOUS
 66
     1
 40
0.000000
 41
0.000000
  0
VERTEX
  8
0
  6
CONTINUOUS
 10
5.203440
 20
2.053040
  0
VERTEX
  8
0
  6
CONTINUOUS
 10
5.201680
 20
2.795320
  0
VERTEX
  8
0
  6
CONTINUOUS
 10
5.208280
 20
2.788720
  0
VERTEX
  8
0
  6
CONTINUOUS
 10
5.210040
 20
2.046440
  0
VERTEX
  8
0
  6
CONTINUOUS
 10
5.203440
 20
2.053040
  0
SEQEND
  8
0
  0
SOLID
  8
0
 62
    15
 10
5.210040
 20
2.046440
 11
5.208280
 21
2.788720
 12
5.215760
 22
2.038520
 13
5.213560
 23
2.780800
  0
POLYLINE
  8
0
  6
CONTINUOUS
 66
     1
 40
0.000000
 41
0.000000
  0
VERTEX
  8
0
  6
CONTINUOUS
 10
5.210040
 20
2.046440
  0
VERTEX
  8
0
  6
CONTINUOUS
 10
5.208280
 20
2.788720
  0
VERTEX
  8
0
  6
CONTINUOUS
 10
5.213560
 20
2.780800
  0
VERTEX
  8
0
  6
CONTINUOUS
 10
5.215760
 20
2.038520
  0
VERTEX
  8
0
  6
CONTINUOUS
 10
5.210040
 20
2.046440
  0
SEQEND
  8
0
  0
SOLID
  8
0
 62
    15
 10
5.215760
 20
2.038520
 11
5.213560
 21
2.780800
 12
5.219720
 22
2.029720
 13
5.217960
 23
2.772000
  0
POLYLINE
  8
0
  6
CONTINUOUS
 66
     1
 40
0.000000
 41
0.000000
  0
VERTEX
  8
0
  6
CONTINUOUS
 10
5.215760
 20
2.038520
  0
VERTEX
  8
0
  6
CONTINUOUS
 10
5.213560
 20
2.780800
  0
VERTEX
  8
0
  6
CONTINUOUS
 10
5.217960
 20
2.772000
  0
VERTEX
  8
0
  6
CONTINUOUS
 10
5.219720
 20
2.029720
  0
VERTEX
  8
0
  6
CONTINUOUS
 10
5.215760
 20
2.038520
  0
SEQEND
  8
0
  0
SOLID
  8
0
 62
    15
 10
5.219720
 20
2.029720
 11
5.217960
 21
2.772000
 12
5.222360
 22
2.019600
 13
5.220600
 23
2.761880
  0
POLYLINE
  8
0
  6
CONTINUOUS
 66
     1
 40
0.000000
 41
0.000000
  0
VERTEX
  8
0
  6
CONTINUOUS
 10
5.219720
 20
2.029720
  0
VERTEX
  8
0
  6
CONTINUOUS
 10
5.217960
 20
2.772000
  0
VERTEX
  8
0
  6
CONTINUOUS
 10
5.220600
 20
2.761880
  0
VERTEX
  8
0
  6
CONTINUOUS
 10
5.222360
 20
2.019600
  0
VERTEX
  8
0
  6
CONTINUOUS
 10
5.219720
 20
2.029720
  0
SEQEND
  8
0
  0
SOLID
  8
0
 62
    15
 10
5.222360
 20
2.019600
 11
5.220600
 21
2.761880
 12
5.223240
 22
2.008600
 13
5.221480
 23
2.750880
  0
POLYLINE
  8
0
  6
CONTINUOUS
 66
     1
 40
0.000000
 41
0.000000
  0
VERTEX
  8
0
  6
CONTINUOUS
 10
5.222360
 20
2.019600
  0
VERTEX
  8
0
  6
CONTINUOUS
 10
5.220600
 20
2.761880
  0
VERTEX
  8
0
  6
CONTINUOUS
 10
5.221480
 20
2.750880
  0
VERTEX
  8
0
  6
CONTINUOUS
 10
5.223240
 20
2.008600
  0
VERTEX
  8
0
  6
CONTINUOUS
 10
5.222360
 20
2.019600
  0
SEQEND
  8
0
  0
SOLID
  8
0
 62
    15
 10
5.223240
 20
2.008600
 11
5.221480
 21
2.750880
 12
5.293200
 22
2.008600
 13
5.291440
 23
2.750880
  0
POLYLINE
  8
0
  6
CONTINUOUS
 66
     1
 40
0.000000
 41
0.000000
  0
VERTEX
  8
0
  6
CONTINUOUS
 10
5.223240
 20
2.008600
  0
VERTEX
  8
0
  6
CONTINUOUS
 10
5.221480
 20
2.750880
  0
VERTEX
  8
0
  6
CONTINUOUS
 10
5.291440
 20
2.750880
  0
VERTEX
  8
0
  6
CONTINUOUS
 10
5.293200
 20
2.008600
  0
VERTEX
  8
0
  6
CONTINUOUS
 10
5.223240
 20
2.008600
  0
SEQEND
  8
0
  0
SOLID
  8
0
 62
    15
 10
4.591400
 20
2.038520
 11
4.589200
 21
2.780800
 12
4.659600
 22
2.038520
 13
4.657840
 23
2.780800
  0
POLYLINE
  8
0
  6
CONTINUOUS
 66
     1
 40
0.000000
 41
0.000000
  0
VERTEX
  8
0
  6
CONTINUOUS
 10
4.591400
 20
2.038520
  0
VERTEX
  8
0
  6
CONTINUOUS
 10
4.589200
 20
2.780800
  0
VERTEX
  8
0
  6
CONTINUOUS
 10
4.657840
 20
2.780800
  0
VERTEX
  8
0
  6
CONTINUOUS
 10
4.659600
 20
2.038520
  0
VERTEX
  8
0
  6
CONTINUOUS
 10
4.591400
 20
2.038520
  0
SEQEND
  8
0
  0
POLYLINE
  8
0
  6
CONTINUOUS
 66
     1
 40
0.000000
 41
0.000000
  0
VERTEX
  8
0
  6
CONTINUOUS
 10
4.591400
 20
2.038520
  0
VERTEX
  8
0
  6
CONTINUOUS
 10
4.659600
 20
2.038520
  0
VERTEX
  8
0
  6
CONTINUOUS
 10
4.664440
 20
2.053920
  0
VERTEX
  8
0
  6
CONTINUOUS
 10
4.670160
 20
2.068000
  0
VERTEX
  8
0
  6
CONTINUOUS
 10
4.677640
 20
2.080320
  0
VERTEX
  8
0
  6
CONTINUOUS
 10
4.686000
 20
2.091760
  0
VERTEX
  8
0
  6
CONTINUOUS
 10
4.695680
 20
2.101440
  0
VERTEX
  8
0
  6
CONTINUOUS
 10
4.706680
 20
2.109360
  0
VERTEX
  8
0
  6
CONTINUOUS
 10
4.718560
 20
2.115960
  0
VERTEX
  8
0
  6
CONTINUOUS
 10
4.731320
 20
2.120800
  0
VERTEX
  8
0
  6
CONTINUOUS
 10
4.744960
 20
2.123880
  0
VERTEX
  8
0
  6
CONTINUOUS
 10
4.759480
 20
2.125640
  0
VERTEX
  8
0
  6
CONTINUOUS
 10
4.774880
 20
2.125200
  0
VERTEX
  8
0
  6
CONTINUOUS
 10
4.791160
 20
2.123000
  0
VERTEX
  8
0
  6
CONTINUOUS
 10
4.807880
 20
2.119040
  0
VERTEX
  8
0
  6
CONTINUOUS
 10
4.825040
 20
2.113320
  0
VERTEX
  8
0
  6
CONTINUOUS
 10
4.842640
 20
2.105840
  0
VERTEX
  8
0
  6
CONTINUOUS
 10
4.861120
 20
2.096160
  0
VERTEX
  8
0
  6
CONTINUOUS
 10
4.878720
 20
2.086040
  0
VERTEX
  8
0
  6
CONTINUOUS
 10
4.895440
 20
2.076360
  0
VERTEX
  8
0
  6
CONTINUOUS
 10
4.925800
 20
2.060080
  0
VERTEX
  8
0
  6
CONTINUOUS
 10
4.953960
 20
2.046000
  0
VERTEX
  8
0
  6
CONTINUOUS
 10
4.981680
 20
2.035440
  0
VERTEX
  8
0
  6
CONTINUOUS
 10
5.010280
 20
2.026640
  0
VERTEX
  8
0
  6
CONTINUOUS
 10
5.041520
 20
2.020920
  0
VERTEX
  8
0
  6
CONTINUOUS
 10
5.058680
 20
2.018720
  0
VERTEX
  8
0
  6
CONTINUOUS
 10
5.077160
 20
2.017400
  0
VERTEX
  8
0
  6
CONTINUOUS
 10
5.096960
 20
2.016080
  0
VERTEX
  8
0
  6
CONTINUOUS
 10
5.118520
 20
2.015640
  0
VERTEX
  8
0
  6
CONTINUOUS
 10
5.123360
 20
2.028840
  0
VERTEX
  8
0
  6
CONTINUOUS
 10
5.129520
 20
2.039840
  0
VERTEX
  8
0
  6
CONTINUOUS
 10
5.136560
 20
2.049080
  0
VERTEX
  8
0
  6
CONTINUOUS
 10
5.144480
 20
2.055680
  0
VERTEX
  8
0
  6
CONTINUOUS
 10
5.152840
 20
2.060520
  0
VERTEX
  8
0
  6
CONTINUOUS
 10
5.161640
 20
2.063600
  0
VERTEX
  8
0
  6
CONTINUOUS
 10
5.170440
 20
2.064480
  0
VERTEX
  8
0
  6
CONTINUOUS
 10
5.179240
 20
2.064040
  0
VERTEX
  8
0
  6
CONTINUOUS
 10
5.188040
 20
2.061840
  0
VERTEX
  8
0
  6
CONTINUOUS
 10
5.195960
 20
2.058320
  0
VERTEX
  8
0
  6
CONTINUOUS
 10
5.203440
 20
2.053040
  0
VERTEX
  8
0
  6
CONTINUOUS
 10
5.210040
 20
2.046440
  0
VERTEX
  8
0
  6
CONTINUOUS
 10
5.215760
 20
2.038520
  0
VERTEX
  8
0
  6
CONTINUOUS
 10
5.219720
 20
2.029720
  0
VERTEX
  8
0
  6
CONTINUOUS
 10
5.222360
 20
2.019600
  0
VERTEX
  8
0
  6
CONTINUOUS
 10
5.223240
 20
2.008600
  0
VERTEX
  8
0
  6
CONTINUOUS
 10
5.293200
 20
2.008600
  0
VERTEX
  8
0
  6
CONTINUOUS
 10
5.293200
 20
1.896840
  0
VERTEX
  8
0
  6
CONTINUOUS
 10
4.591400
 20
1.896840
  0
VERTEX
  8
0
  6
CONTINUOUS
 10
4.591400
 20
2.038520
  0
SEQEND
  8
0
  0
TEXT
  8
0
 10
4.599760
 20
1.658360
 40
0.138136
  1
BA  1126
 41
1.000000
  7
SN0
 71
     0
 72
     5
 11
5.281854
 21
1.658360
  0
TEXT
  8
0
 10
4.563680
 20
1.466520
 40
0.138136
  1
1/4" x 3/4"
 41
1.000000
  7
SN0
 71
     0
 72
     5
 11
5.316758
 21
1.466520
  0
POLYLINE
  8
0
  6
CONTINUOUS
 66
     1
 40
0.014080
 41
0.014080
  0
VERTEX
  8
0
  6
CONTINUOUS
 10
6.068040
 20
2.859120
  0
VERTEX
  8
0
  6
CONTINUOUS
 10
6.136240
 20
2.859120
  0
VERTEX
  8
0
  6
CONTINUOUS
 10
6.146800
 20
2.888600
  0
VERTEX
  8
0
  6
CONTINUOUS
 10
6.162640
 20
2.912360
  0
VERTEX
  8
0
  6
CONTINUOUS
 10
6.183320
 20
2.929960
  0
VERTEX
  8
0
  6
CONTINUOUS
 10
6.195200
 20
2.936560
  0
VERTEX
  8
0
  6
CONTINUOUS
 10
6.207960
 20
2.941400
  0
VERTEX
  8
0
  6
CONTINUOUS
 10
6.236560
 20
2.946240
  0
VERTEX
  8
0
  6
CONTINUOUS
 10
6.251960
 20
2.945800
  0
VERTEX
  8
0
  6
CONTINUOUS
 10
6.284520
 20
2.940080
  0
VERTEX
  8
0
  6
CONTINUOUS
 10
6.319720
 20
2.926440
  0
VERTEX
  8
0
  6
CONTINUOUS
 10
6.416520
 20
2.873200
  0
VERTEX
  8
0
  6
CONTINUOUS
 10
6.458320
 20
2.855600
  0
VERTEX
  8
0
  6
CONTINUOUS
 10
6.486920
 20
2.847240
  0
VERTEX
  8
0
  6
CONTINUOUS
 10
6.535320
 20
2.839320
  0
VERTEX
  8
0
  6
CONTINUOUS
 10
6.573160
 20
2.836680
  0
VERTEX
  8
0
  6
CONTINUOUS
 10
6.594720
 20
2.836240
  0
VERTEX
  8
0
  6
CONTINUOUS
 10
6.602640
 20
2.855160
  0
VERTEX
  8
0
  6
CONTINUOUS
 10
6.612760
 20
2.869240
  0
VERTEX
  8
0
  6
CONTINUOUS
 10
6.620680
 20
2.876280
  0
VERTEX
  8
0
  6
CONTINUOUS
 10
6.629040
 20
2.881120
  0
VERTEX
  8
0
  6
CONTINUOUS
 10
6.647080
 20
2.885080
  0
VERTEX
  8
0
  6
CONTINUOUS
 10
6.655880
 20
2.884640
  0
VERTEX
  8
0
  6
CONTINUOUS
 10
6.664680
 20
2.882440
  0
VERTEX
  8
0
  6
CONTINUOUS
 10
6.680080
 20
2.873640
  0
VERTEX
  8
0
  6
CONTINUOUS
 10
6.686680
 20
2.867040
  0
VERTEX
  8
0
  6
CONTINUOUS
 10
6.696360
 20
2.850320
  0
VERTEX
  8
0
  6
CONTINUOUS
 10
6.699000
 20
2.840200
  0
VERTEX
  8
0
  6
CONTINUOUS
 10
6.699880
 20
2.829200
  0
VERTEX
  8
0
  6
CONTINUOUS
 10
6.769840
 20
2.829200
  0
VERTEX
  8
0
  6
CONTINUOUS
 10
6.769840
 20
2.717000
  0
VERTEX
  8
0
  6
CONTINUOUS
 10
6.068040
 20
2.717000
  0
VERTEX
  8
0
  6
CONTINUOUS
 10
6.068040
 20
2.859120
  0
SEQEND
  8
0
  0
TEXT
  8
0
 10
6.083000
 20
2.522080
 40
0.138136
  1
BA  1126
 41
1.000000
  7
SN0
 71
     0
 72
     5
 11
6.765094
 21
2.522080
  0
TEXT
  8
0
 10
6.047360
 20
2.330680
 40
0.138136
  1
1/4" x 3/4"
 41
1.000000
  7
SN0
 71
     0
 72
     5
 11
6.800438
 21
2.330680
  0
ENDSEC
  0
EOF
