  0
SECTION
  2
HEADER
  9
$ACADVER
  1
AC1006
  9
$EXTMIN
 10
2.256760
 20
1.260600
  9
$EXTMAX
 10
6.724960
 20
5.437080
  9
$LTSCALE
 40
0.044000
  9
$PDMODE
 70
    35
  9
$PDSIZE
 40
0.035200
  0
ENDSEC
  0
SECTION
  2
TABLES
  0
TABLE
  2
LTYPE
 70
     9
  0
LTYPE
  2
CONTINUOUS
 70
    64
  3
Solid line
 72
    65
 73
     0
 40
0.000000
  0
LTYPE
  2
DASHED
 70
    64
  3
__ __ __ __ __ __ __ __ __ __ __ __ __ __ __
 72
    65
 73
     2
 40
0.000330
 49
0.000220
 49
-0.000110
  0
LTYPE
  2
HIDDEN
 70
    64
  3
 _ _ _ _ _ _ _ _ _ _ _ _ _ _ _ _ _ _ _ _ _ _
 72
    65
 73
     2
 40
0.000165
 49
0.000110
 49
-0.000055
  0
LTYPE
  2
CENTER
 70
    64
  3
____ _ ____ _ ____ _ ____ _ ____ _ ____ _ ____
 72
    65
 73
     4
 40
0.000880
 49
0.000550
 49
-0.000110
 49
0.000110
 49
-0.000110
  0
LTYPE
  2
PHANTOM
 70
    64
  3
_____ _ _ _____ _ _ _____ _ _ _____ _ _ ____
 72
    65
 73
     6
 40
0.001100
 49
0.000550
 49
-0.000110
 49
0.000110
 49
-0.000110
 49
0.000110
 49
-0.000110
  0
LTYPE
  2
DOT
 70
    64
  3
...............................................
 72
    65
 73
     2
 40
0.000110
 49
0.000000
 49
-0.000110
  0
LTYPE
  2
DASHDOT
 70
    64
  3
__ . __ . __ . __ . __ . __ . __ . __ . __ . __
 72
    65
 73
     4
 40
0.000440
 49
0.000220
 49
-0.000110
 49
0.000000
 49
-0.000110
  0
LTYPE
  2
BORDER
 70
    64
  3
__ __ . __ __ . __ __ . __ __ . __ __ . __ __
 72
    65
 73
     6
 40
0.000770
 49
0.000220
 49
-0.000110
 49
0.000220
 49
-0.000110
 49
0.000000
 49
-0.000110
  0
LTYPE
  2
DIVIDE
 70
    64
  3
__ . . __ . . __ . . __ . . __ . . __ . . __
 72
    65
 73
     6
 40
0.000550
 49
0.000220
 49
-0.000110
 49
0.000000
 49
-0.000110
 49
0.000000
 49
-0.000110
  0
LTYPE
  2
DOTDOT
 70
    64
  3
 . .  . .  . .  . .  . .  . . 
 72
    65
 73
     5
 40
0.000242
 49
-0.000110
 49
0.000000
 49
-0.000110
 49
0.000000
 49
-0.000110
  0
ENDTAB
  0
TABLE
  2
STYLE
 70
     2
  0
STYLE
 70
     0
  2
SN0
 40
0.000000
 41
0.000440
 50
0.000000
 71
     0
 42
0.000000
  3
ROMAND
  0
STYLE
 70
    68
  2
SV0
 40
0.000000
 41
0.000440
 50
0.000000
 71
     0
 42
0.000000
  3
ROMAND
  0
ENDTAB
  0
TABLE
  2
LAYER
 70
     3
  0
LAYER
  2
FOREGROUND
 70
    64
 62
     7
  6
CONTINUOUS
  0
LAYER
  2
BACKGROUND
 70
    65
 62
    -7
  6
CONTINUOUS
  0
LAYER
  2
0
 70
    64
 62
     7
  6
CONTINUOUS
  0
ENDTAB
  0
ENDSEC
  0
SECTION
  2
ENTITIES
  0
POLYLINE
  8
FOREGROUND
  6
CONTINUOUS
 66
     1
 40
0.000000
 41
0.000000
  0
VERTEX
  8
FOREGROUND
  6
CONTINUOUS
 10
0.000000
 20
6.697680
  0
VERTEX
  8
FOREGROUND
  6
CONTINUOUS
 10
8.499920
 20
6.697680
  0
VERTEX
  8
FOREGROUND
  6
CONTINUOUS
 10
8.499920
 20
-4.302320
  0
VERTEX
  8
FOREGROUND
  6
CONTINUOUS
 10
0.000000
 20
-4.302320
  0
VERTEX
  8
FOREGROUND
  6
CONTINUOUS
 10
0.000000
 20
6.697680
  0
SEQEND
  8
0
  0
POLYLINE
  8
FOREGROUND
  6
CONTINUOUS
 66
     1
 40
0.000000
 41
0.000000
  0
VERTEX
  8
FOREGROUND
  6
CONTINUOUS
 10
0.000000
 20
6.697680
  0
VERTEX
  8
FOREGROUND
  6
CONTINUOUS
 10
8.499920
 20
6.697680
  0
VERTEX
  8
FOREGROUND
  6
CONTINUOUS
 10
8.499920
 20
-4.302320
  0
VERTEX
  8
FOREGROUND
  6
CONTINUOUS
 10
0.000000
 20
-4.302320
  0
VERTEX
  8
FOREGROUND
  6
CONTINUOUS
 10
0.000000
 20
6.697680
  0
SEQEND
  8
0
  0
SOLID
  8
0
 62
    15
 10
3.787960
 20
2.460040
 11
3.787080
 21
3.199680
 12
3.803800
 22
2.438480
 13
3.802480
 23
3.178560
  0
POLYLINE
  8
0
  6
CONTINUOUS
 66
     1
 40
0.000000
 41
0.000000
  0
VERTEX
  8
0
  6
CONTINUOUS
 10
3.787960
 20
2.460040
  0
VERTEX
  8
0
  6
CONTINUOUS
 10
3.787080
 20
3.199680
  0
VERTEX
  8
0
  6
CONTINUOUS
 10
3.802480
 20
3.178560
  0
VERTEX
  8
0
  6
CONTINUOUS
 10
3.803800
 20
2.438480
  0
VERTEX
  8
0
  6
CONTINUOUS
 10
3.787960
 20
2.460040
  0
SEQEND
  8
0
  0
SOLID
  8
0
 62
    15
 10
2.961200
 20
2.549800
 11
2.960320
 21
3.289880
 12
3.009600
 22
2.549800
 13
3.008280
 23
3.289880
  0
POLYLINE
  8
0
  6
CONTINUOUS
 66
     1
 40
0.000000
 41
0.000000
  0
VERTEX
  8
0
  6
CONTINUOUS
 10
2.961200
 20
2.549800
  0
VERTEX
  8
0
  6
CONTINUOUS
 10
2.960320
 20
3.289880
  0
VERTEX
  8
0
  6
CONTINUOUS
 10
3.008280
 20
3.289880
  0
VERTEX
  8
0
  6
CONTINUOUS
 10
3.009600
 20
2.549800
  0
VERTEX
  8
0
  6
CONTINUOUS
 10
2.961200
 20
2.549800
  0
SEQEND
  8
0
  0
SOLID
  8
0
 62
    15
 10
2.258520
 20
1.794760
 11
2.257200
 21
2.534400
 12
2.258520
 22
2.670360
 13
2.257200
 23
3.410000
  0
POLYLINE
  8
0
  6
CONTINUOUS
 66
     1
 40
0.000000
 41
0.000000
  0
VERTEX
  8
0
  6
CONTINUOUS
 10
2.258520
 20
1.794760
  0
VERTEX
  8
0
  6
CONTINUOUS
 10
2.257200
 20
2.534400
  0
VERTEX
  8
0
  6
CONTINUOUS
 10
2.257200
 20
3.410000
  0
VERTEX
  8
0
  6
CONTINUOUS
 10
2.258520
 20
2.670360
  0
VERTEX
  8
0
  6
CONTINUOUS
 10
2.258520
 20
1.794760
  0
SEQEND
  8
0
  0
SOLID
  8
0
 62
    15
 10
3.009600
 20
2.549800
 11
3.008280
 21
3.289880
 12
3.034240
 22
2.577080
 13
3.033360
 23
3.317160
  0
POLYLINE
  8
0
  6
CONTINUOUS
 66
     1
 40
0.000000
 41
0.000000
  0
VERTEX
  8
0
  6
CONTINUOUS
 10
3.009600
 20
2.549800
  0
VERTEX
  8
0
  6
CONTINUOUS
 10
3.008280
 20
3.289880
  0
VERTEX
  8
0
  6
CONTINUOUS
 10
3.033360
 20
3.317160
  0
VERTEX
  8
0
  6
CONTINUOUS
 10
3.034240
 20
2.577080
  0
VERTEX
  8
0
  6
CONTINUOUS
 10
3.009600
 20
2.549800
  0
SEQEND
  8
0
  0
SOLID
  8
0
 62
    15
 10
3.034240
 20
2.577080
 11
3.033360
 21
3.317160
 12
3.063720
 22
2.601720
 13
3.062400
 23
3.341360
  0
POLYLINE
  8
0
  6
CONTINUOUS
 66
     1
 40
0.000000
 41
0.000000
  0
VERTEX
  8
0
  6
CONTINUOUS
 10
3.034240
 20
2.577080
  0
VERTEX
  8
0
  6
CONTINUOUS
 10
3.033360
 20
3.317160
  0
VERTEX
  8
0
  6
CONTINUOUS
 10
3.062400
 20
3.341360
  0
VERTEX
  8
0
  6
CONTINUOUS
 10
3.063720
 20
2.601720
  0
VERTEX
  8
0
  6
CONTINUOUS
 10
3.034240
 20
2.577080
  0
SEQEND
  8
0
  0
SOLID
  8
0
 62
    15
 10
3.063720
 20
2.601720
 11
3.062400
 21
3.341360
 12
3.096280
 22
2.622840
 13
3.095400
 23
3.362920
  0
POLYLINE
  8
0
  6
CONTINUOUS
 66
     1
 40
0.000000
 41
0.000000
  0
VERTEX
  8
0
  6
CONTINUOUS
 10
3.063720
 20
2.601720
  0
VERTEX
  8
0
  6
CONTINUOUS
 10
3.062400
 20
3.341360
  0
VERTEX
  8
0
  6
CONTINUOUS
 10
3.095400
 20
3.362920
  0
VERTEX
  8
0
  6
CONTINUOUS
 10
3.096280
 20
2.622840
  0
VERTEX
  8
0
  6
CONTINUOUS
 10
3.063720
 20
2.601720
  0
SEQEND
  8
0
  0
SOLID
  8
0
 62
    15
 10
3.096280
 20
2.622840
 11
3.095400
 21
3.362920
 12
3.132800
 22
2.640440
 13
3.131480
 23
3.380520
  0
POLYLINE
  8
0
  6
CONTINUOUS
 66
     1
 40
0.000000
 41
0.000000
  0
VERTEX
  8
0
  6
CONTINUOUS
 10
3.096280
 20
2.622840
  0
VERTEX
  8
0
  6
CONTINUOUS
 10
3.095400
 20
3.362920
  0
VERTEX
  8
0
  6
CONTINUOUS
 10
3.131480
 20
3.380520
  0
VERTEX
  8
0
  6
CONTINUOUS
 10
3.132800
 20
2.640440
  0
VERTEX
  8
0
  6
CONTINUOUS
 10
3.096280
 20
2.622840
  0
SEQEND
  8
0
  0
SOLID
  8
0
 62
    15
 10
3.132800
 20
2.640440
 11
3.131480
 21
3.380520
 12
3.171520
 22
2.654080
 13
3.170640
 23
3.393720
  0
POLYLINE
  8
0
  6
CONTINUOUS
 66
     1
 40
0.000000
 41
0.000000
  0
VERTEX
  8
0
  6
CONTINUOUS
 10
3.132800
 20
2.640440
  0
VERTEX
  8
0
  6
CONTINUOUS
 10
3.131480
 20
3.380520
  0
VERTEX
  8
0
  6
CONTINUOUS
 10
3.170640
 20
3.393720
  0
VERTEX
  8
0
  6
CONTINUOUS
 10
3.171520
 20
2.654080
  0
VERTEX
  8
0
  6
CONTINUOUS
 10
3.132800
 20
2.640440
  0
SEQEND
  8
0
  0
SOLID
  8
0
 62
    15
 10
3.171520
 20
2.654080
 11
3.170640
 21
3.393720
 12
3.212880
 22
2.662880
 13
3.212000
 23
3.402960
  0
POLYLINE
  8
0
  6
CONTINUOUS
 66
     1
 40
0.000000
 41
0.000000
  0
VERTEX
  8
0
  6
CONTINUOUS
 10
3.171520
 20
2.654080
  0
VERTEX
  8
0
  6
CONTINUOUS
 10
3.170640
 20
3.393720
  0
VERTEX
  8
0
  6
CONTINUOUS
 10
3.212000
 20
3.402960
  0
VERTEX
  8
0
  6
CONTINUOUS
 10
3.212880
 20
2.662880
  0
VERTEX
  8
0
  6
CONTINUOUS
 10
3.171520
 20
2.654080
  0
SEQEND
  8
0
  0
SOLID
  8
0
 62
    15
 10
3.212880
 20
2.662880
 11
3.212000
 21
3.402960
 12
3.256000
 22
2.666840
 13
3.254680
 23
3.406920
  0
POLYLINE
  8
0
  6
CONTINUOUS
 66
     1
 40
0.000000
 41
0.000000
  0
VERTEX
  8
0
  6
CONTINUOUS
 10
3.212880
 20
2.662880
  0
VERTEX
  8
0
  6
CONTINUOUS
 10
3.212000
 20
3.402960
  0
VERTEX
  8
0
  6
CONTINUOUS
 10
3.254680
 20
3.406920
  0
VERTEX
  8
0
  6
CONTINUOUS
 10
3.256000
 20
2.666840
  0
VERTEX
  8
0
  6
CONTINUOUS
 10
3.212880
 20
2.662880
  0
SEQEND
  8
0
  0
SOLID
  8
0
 62
    15
 10
3.256000
 20
2.666840
 11
3.254680
 21
3.406920
 12
3.300000
 22
2.665520
 13
3.298680
 23
3.405160
  0
POLYLINE
  8
0
  6
CONTINUOUS
 66
     1
 40
0.000000
 41
0.000000
  0
VERTEX
  8
0
  6
CONTINUOUS
 10
3.256000
 20
2.666840
  0
VERTEX
  8
0
  6
CONTINUOUS
 10
3.254680
 20
3.406920
  0
VERTEX
  8
0
  6
CONTINUOUS
 10
3.298680
 20
3.405160
  0
VERTEX
  8
0
  6
CONTINUOUS
 10
3.300000
 20
2.665520
  0
VERTEX
  8
0
  6
CONTINUOUS
 10
3.256000
 20
2.666840
  0
SEQEND
  8
0
  0
SOLID
  8
0
 62
    15
 10
3.300000
 20
2.665520
 11
3.298680
 21
3.405160
 12
3.344440
 22
2.658040
 13
3.343560
 23
3.397680
  0
POLYLINE
  8
0
  6
CONTINUOUS
 66
     1
 40
0.000000
 41
0.000000
  0
VERTEX
  8
0
  6
CONTINUOUS
 10
3.300000
 20
2.665520
  0
VERTEX
  8
0
  6
CONTINUOUS
 10
3.298680
 20
3.405160
  0
VERTEX
  8
0
  6
CONTINUOUS
 10
3.343560
 20
3.397680
  0
VERTEX
  8
0
  6
CONTINUOUS
 10
3.344440
 20
2.658040
  0
VERTEX
  8
0
  6
CONTINUOUS
 10
3.300000
 20
2.665520
  0
SEQEND
  8
0
  0
SOLID
  8
0
 62
    15
 10
3.344440
 20
2.658040
 11
3.343560
 21
3.397680
 12
3.389320
 22
2.643960
 13
3.388000
 23
3.384040
  0
POLYLINE
  8
0
  6
CONTINUOUS
 66
     1
 40
0.000000
 41
0.000000
  0
VERTEX
  8
0
  6
CONTINUOUS
 10
3.344440
 20
2.658040
  0
VERTEX
  8
0
  6
CONTINUOUS
 10
3.343560
 20
3.397680
  0
VERTEX
  8
0
  6
CONTINUOUS
 10
3.388000
 20
3.384040
  0
VERTEX
  8
0
  6
CONTINUOUS
 10
3.389320
 20
2.643960
  0
VERTEX
  8
0
  6
CONTINUOUS
 10
3.344440
 20
2.658040
  0
SEQEND
  8
0
  0
SOLID
  8
0
 62
    15
 10
3.389320
 20
2.643960
 11
3.388000
 21
3.384040
 12
3.433320
 22
2.623280
 13
3.432440
 23
3.362920
  0
POLYLINE
  8
0
  6
CONTINUOUS
 66
     1
 40
0.000000
 41
0.000000
  0
VERTEX
  8
0
  6
CONTINUOUS
 10
3.389320
 20
2.643960
  0
VERTEX
  8
0
  6
CONTINUOUS
 10
3.388000
 20
3.384040
  0
VERTEX
  8
0
  6
CONTINUOUS
 10
3.432440
 20
3.362920
  0
VERTEX
  8
0
  6
CONTINUOUS
 10
3.433320
 20
2.623280
  0
VERTEX
  8
0
  6
CONTINUOUS
 10
3.389320
 20
2.643960
  0
SEQEND
  8
0
  0
SOLID
  8
0
 62
    15
 10
3.433320
 20
2.623280
 11
3.432440
 21
3.362920
 12
3.476880
 22
2.595120
 13
3.475560
 23
3.335200
  0
POLYLINE
  8
0
  6
CONTINUOUS
 66
     1
 40
0.000000
 41
0.000000
  0
VERTEX
  8
0
  6
CONTINUOUS
 10
3.433320
 20
2.623280
  0
VERTEX
  8
0
  6
CONTINUOUS
 10
3.432440
 20
3.362920
  0
VERTEX
  8
0
  6
CONTINUOUS
 10
3.475560
 20
3.335200
  0
VERTEX
  8
0
  6
CONTINUOUS
 10
3.476880
 20
2.595120
  0
VERTEX
  8
0
  6
CONTINUOUS
 10
3.433320
 20
2.623280
  0
SEQEND
  8
0
  0
SOLID
  8
0
 62
    15
 10
3.476880
 20
2.595120
 11
3.475560
 21
3.335200
 12
3.518680
 22
2.559480
 13
3.517360
 23
3.299120
  0
POLYLINE
  8
0
  6
CONTINUOUS
 66
     1
 40
0.000000
 41
0.000000
  0
VERTEX
  8
0
  6
CONTINUOUS
 10
3.476880
 20
2.595120
  0
VERTEX
  8
0
  6
CONTINUOUS
 10
3.475560
 20
3.335200
  0
VERTEX
  8
0
  6
CONTINUOUS
 10
3.517360
 20
3.299120
  0
VERTEX
  8
0
  6
CONTINUOUS
 10
3.518680
 20
2.559480
  0
VERTEX
  8
0
  6
CONTINUOUS
 10
3.476880
 20
2.595120
  0
SEQEND
  8
0
  0
SOLID
  8
0
 62
    15
 10
3.518680
 20
2.559480
 11
3.517360
 21
3.299120
 12
3.558720
 22
2.515040
 13
3.557400
 23
3.255120
  0
POLYLINE
  8
0
  6
CONTINUOUS
 66
     1
 40
0.000000
 41
0.000000
  0
VERTEX
  8
0
  6
CONTINUOUS
 10
3.518680
 20
2.559480
  0
VERTEX
  8
0
  6
CONTINUOUS
 10
3.517360
 20
3.299120
  0
VERTEX
  8
0
  6
CONTINUOUS
 10
3.557400
 20
3.255120
  0
VERTEX
  8
0
  6
CONTINUOUS
 10
3.558720
 20
2.515040
  0
VERTEX
  8
0
  6
CONTINUOUS
 10
3.518680
 20
2.559480
  0
SEQEND
  8
0
  0
SOLID
  8
0
 62
    15
 10
3.558720
 20
2.515040
 11
3.557400
 21
3.255120
 12
3.595680
 22
2.462240
 13
3.594800
 23
3.202320
  0
POLYLINE
  8
0
  6
CONTINUOUS
 66
     1
 40
0.000000
 41
0.000000
  0
VERTEX
  8
0
  6
CONTINUOUS
 10
3.558720
 20
2.515040
  0
VERTEX
  8
0
  6
CONTINUOUS
 10
3.557400
 20
3.255120
  0
VERTEX
  8
0
  6
CONTINUOUS
 10
3.594800
 20
3.202320
  0
VERTEX
  8
0
  6
CONTINUOUS
 10
3.595680
 20
2.462240
  0
VERTEX
  8
0
  6
CONTINUOUS
 10
3.558720
 20
2.515040
  0
SEQEND
  8
0
  0
SOLID
  8
0
 62
    15
 10
3.595680
 20
2.462240
 11
3.594800
 21
3.202320
 12
3.630000
 22
2.400200
 13
3.629120
 23
3.140280
  0
POLYLINE
  8
0
  6
CONTINUOUS
 66
     1
 40
0.000000
 41
0.000000
  0
VERTEX
  8
0
  6
CONTINUOUS
 10
3.595680
 20
2.462240
  0
VERTEX
  8
0
  6
CONTINUOUS
 10
3.594800
 20
3.202320
  0
VERTEX
  8
0
  6
CONTINUOUS
 10
3.629120
 20
3.140280
  0
VERTEX
  8
0
  6
CONTINUOUS
 10
3.630000
 20
2.400200
  0
VERTEX
  8
0
  6
CONTINUOUS
 10
3.595680
 20
2.462240
  0
SEQEND
  8
0
  0
SOLID
  8
0
 62
    15
 10
3.630000
 20
2.400200
 11
3.629120
 21
3.140280
 12
3.641000
 22
2.400200
 13
3.640120
 23
3.140280
  0
POLYLINE
  8
0
  6
CONTINUOUS
 66
     1
 40
0.000000
 41
0.000000
  0
VERTEX
  8
0
  6
CONTINUOUS
 10
3.630000
 20
2.400200
  0
VERTEX
  8
0
  6
CONTINUOUS
 10
3.629120
 20
3.140280
  0
VERTEX
  8
0
  6
CONTINUOUS
 10
3.640120
 20
3.140280
  0
VERTEX
  8
0
  6
CONTINUOUS
 10
3.641000
 20
2.400200
  0
VERTEX
  8
0
  6
CONTINUOUS
 10
3.630000
 20
2.400200
  0
SEQEND
  8
0
  0
SOLID
  8
0
 62
    15
 10
3.641000
 20
2.400200
 11
3.640120
 21
3.140280
 12
3.658160
 22
2.434520
 13
3.657280
 23
3.174160
  0
POLYLINE
  8
0
  6
CONTINUOUS
 66
     1
 40
0.000000
 41
0.000000
  0
VERTEX
  8
0
  6
CONTINUOUS
 10
3.641000
 20
2.400200
  0
VERTEX
  8
0
  6
CONTINUOUS
 10
3.640120
 20
3.140280
  0
VERTEX
  8
0
  6
CONTINUOUS
 10
3.657280
 20
3.174160
  0
VERTEX
  8
0
  6
CONTINUOUS
 10
3.658160
 20
2.434520
  0
VERTEX
  8
0
  6
CONTINUOUS
 10
3.641000
 20
2.400200
  0
SEQEND
  8
0
  0
SOLID
  8
0
 62
    15
 10
3.658160
 20
2.434520
 11
3.657280
 21
3.174160
 12
3.681920
 22
2.458720
 13
3.681040
 23
3.198360
  0
POLYLINE
  8
0
  6
CONTINUOUS
 66
     1
 40
0.000000
 41
0.000000
  0
VERTEX
  8
0
  6
CONTINUOUS
 10
3.658160
 20
2.434520
  0
VERTEX
  8
0
  6
CONTINUOUS
 10
3.657280
 20
3.174160
  0
VERTEX
  8
0
  6
CONTINUOUS
 10
3.681040
 20
3.198360
  0
VERTEX
  8
0
  6
CONTINUOUS
 10
3.681920
 20
2.458720
  0
VERTEX
  8
0
  6
CONTINUOUS
 10
3.658160
 20
2.434520
  0
SEQEND
  8
0
  0
SOLID
  8
0
 62
    15
 10
3.681920
 20
2.458720
 11
3.681040
 21
3.198360
 12
3.709640
 22
2.472800
 13
3.708320
 23
3.212440
  0
POLYLINE
  8
0
  6
CONTINUOUS
 66
     1
 40
0.000000
 41
0.000000
  0
VERTEX
  8
0
  6
CONTINUOUS
 10
3.681920
 20
2.458720
  0
VERTEX
  8
0
  6
CONTINUOUS
 10
3.681040
 20
3.198360
  0
VERTEX
  8
0
  6
CONTINUOUS
 10
3.708320
 20
3.212440
  0
VERTEX
  8
0
  6
CONTINUOUS
 10
3.709640
 20
2.472800
  0
VERTEX
  8
0
  6
CONTINUOUS
 10
3.681920
 20
2.458720
  0
SEQEND
  8
0
  0
SOLID
  8
0
 62
    15
 10
3.709640
 20
2.472800
 11
3.708320
 21
3.212440
 12
3.738240
 22
2.477640
 13
3.736920
 23
3.217280
  0
POLYLINE
  8
0
  6
CONTINUOUS
 66
     1
 40
0.000000
 41
0.000000
  0
VERTEX
  8
0
  6
CONTINUOUS
 10
3.709640
 20
2.472800
  0
VERTEX
  8
0
  6
CONTINUOUS
 10
3.708320
 20
3.212440
  0
VERTEX
  8
0
  6
CONTINUOUS
 10
3.736920
 20
3.217280
  0
VERTEX
  8
0
  6
CONTINUOUS
 10
3.738240
 20
2.477640
  0
VERTEX
  8
0
  6
CONTINUOUS
 10
3.709640
 20
2.472800
  0
SEQEND
  8
0
  0
SOLID
  8
0
 62
    15
 10
3.738240
 20
2.477640
 11
3.736920
 21
3.217280
 12
3.765520
 22
2.473240
 13
3.764200
 23
3.212880
  0
POLYLINE
  8
0
  6
CONTINUOUS
 66
     1
 40
0.000000
 41
0.000000
  0
VERTEX
  8
0
  6
CONTINUOUS
 10
3.738240
 20
2.477640
  0
VERTEX
  8
0
  6
CONTINUOUS
 10
3.736920
 20
3.217280
  0
VERTEX
  8
0
  6
CONTINUOUS
 10
3.764200
 20
3.212880
  0
VERTEX
  8
0
  6
CONTINUOUS
 10
3.765520
 20
2.473240
  0
VERTEX
  8
0
  6
CONTINUOUS
 10
3.738240
 20
2.477640
  0
SEQEND
  8
0
  0
SOLID
  8
0
 62
    15
 10
3.765520
 20
2.473240
 11
3.764200
 21
3.212880
 12
3.787960
 22
2.460040
 13
3.787080
 23
3.199680
  0
POLYLINE
  8
0
  6
CONTINUOUS
 66
     1
 40
0.000000
 41
0.000000
  0
VERTEX
  8
0
  6
CONTINUOUS
 10
3.765520
 20
2.473240
  0
VERTEX
  8
0
  6
CONTINUOUS
 10
3.764200
 20
3.212880
  0
VERTEX
  8
0
  6
CONTINUOUS
 10
3.787080
 20
3.199680
  0
VERTEX
  8
0
  6
CONTINUOUS
 10
3.787960
 20
2.460040
  0
VERTEX
  8
0
  6
CONTINUOUS
 10
3.765520
 20
2.473240
  0
SEQEND
  8
0
  0
SOLID
  8
0
 62
    15
 10
2.258520
 20
2.670360
 11
2.257200
 21
3.410000
 12
2.961200
 22
2.670360
 13
2.960320
 23
3.410000
  0
POLYLINE
  8
0
  6
CONTINUOUS
 66
     1
 40
0.000000
 41
0.000000
  0
VERTEX
  8
0
  6
CONTINUOUS
 10
2.258520
 20
2.670360
  0
VERTEX
  8
0
  6
CONTINUOUS
 10
2.257200
 20
3.410000
  0
VERTEX
  8
0
  6
CONTINUOUS
 10
2.960320
 20
3.410000
  0
VERTEX
  8
0
  6
CONTINUOUS
 10
2.961200
 20
2.670360
  0
VERTEX
  8
0
  6
CONTINUOUS
 10
2.258520
 20
2.670360
  0
SEQEND
  8
0
  0
SOLID
  8
0
 62
    15
 10
3.809520
 20
2.352240
 11
3.808640
 21
3.091880
 12
5.831760
 22
2.352240
 13
5.830440
 23
3.091880
  0
POLYLINE
  8
0
  6
CONTINUOUS
 66
     1
 40
0.000000
 41
0.000000
  0
VERTEX
  8
0
  6
CONTINUOUS
 10
3.809520
 20
2.352240
  0
VERTEX
  8
0
  6
CONTINUOUS
 10
3.808640
 20
3.091880
  0
VERTEX
  8
0
  6
CONTINUOUS
 10
5.830440
 20
3.091880
  0
VERTEX
  8
0
  6
CONTINUOUS
 10
5.831760
 20
2.352240
  0
VERTEX
  8
0
  6
CONTINUOUS
 10
3.809520
 20
2.352240
  0
SEQEND
  8
0
  0
SOLID
  8
0
 62
    15
 10
3.803800
 20
2.438480
 11
3.802480
 21
3.178560
 12
3.809520
 22
2.409000
 13
3.808640
 23
3.148640
  0
POLYLINE
  8
0
  6
CONTINUOUS
 66
     1
 40
0.000000
 41
0.000000
  0
VERTEX
  8
0
  6
CONTINUOUS
 10
3.803800
 20
2.438480
  0
VERTEX
  8
0
  6
CONTINUOUS
 10
3.802480
 20
3.178560
  0
VERTEX
  8
0
  6
CONTINUOUS
 10
3.808640
 20
3.148640
  0
VERTEX
  8
0
  6
CONTINUOUS
 10
3.809520
 20
2.409000
  0
VERTEX
  8
0
  6
CONTINUOUS
 10
3.803800
 20
2.438480
  0
SEQEND
  8
0
  0
SOLID
  8
0
 62
    15
 10
5.831760
 20
2.352240
 11
5.830440
 21
3.091880
 12
5.831760
 22
2.389200
 13
5.830440
 23
3.128840
  0
POLYLINE
  8
0
  6
CONTINUOUS
 66
     1
 40
0.000000
 41
0.000000
  0
VERTEX
  8
0
  6
CONTINUOUS
 10
5.831760
 20
2.352240
  0
VERTEX
  8
0
  6
CONTINUOUS
 10
5.830440
 20
3.091880
  0
VERTEX
  8
0
  6
CONTINUOUS
 10
5.830440
 20
3.128840
  0
VERTEX
  8
0
  6
CONTINUOUS
 10
5.831760
 20
2.389200
  0
VERTEX
  8
0
  6
CONTINUOUS
 10
5.831760
 20
2.352240
  0
SEQEND
  8
0
  0
SOLID
  8
0
 62
    15
 10
5.831760
 20
2.389200
 11
5.830440
 21
3.128840
 12
5.840120
 22
2.407680
 13
5.839240
 23
3.147320
  0
POLYLINE
  8
0
  6
CONTINUOUS
 66
     1
 40
0.000000
 41
0.000000
  0
VERTEX
  8
0
  6
CONTINUOUS
 10
5.831760
 20
2.389200
  0
VERTEX
  8
0
  6
CONTINUOUS
 10
5.830440
 20
3.128840
  0
VERTEX
  8
0
  6
CONTINUOUS
 10
5.839240
 20
3.147320
  0
VERTEX
  8
0
  6
CONTINUOUS
 10
5.840120
 20
2.407680
  0
VERTEX
  8
0
  6
CONTINUOUS
 10
5.831760
 20
2.389200
  0
SEQEND
  8
0
  0
SOLID
  8
0
 62
    15
 10
5.840120
 20
2.407680
 11
5.839240
 21
3.147320
 12
5.850680
 22
2.415160
 13
5.849800
 23
3.155240
  0
POLYLINE
  8
0
  6
CONTINUOUS
 66
     1
 40
0.000000
 41
0.000000
  0
VERTEX
  8
0
  6
CONTINUOUS
 10
5.840120
 20
2.407680
  0
VERTEX
  8
0
  6
CONTINUOUS
 10
5.839240
 20
3.147320
  0
VERTEX
  8
0
  6
CONTINUOUS
 10
5.849800
 20
3.155240
  0
VERTEX
  8
0
  6
CONTINUOUS
 10
5.850680
 20
2.415160
  0
VERTEX
  8
0
  6
CONTINUOUS
 10
5.840120
 20
2.407680
  0
SEQEND
  8
0
  0
SOLID
  8
0
 62
    15
 10
5.850680
 20
2.415160
 11
5.849800
 21
3.155240
 12
5.868280
 22
2.416040
 13
5.867400
 23
3.156120
  0
POLYLINE
  8
0
  6
CONTINUOUS
 66
     1
 40
0.000000
 41
0.000000
  0
VERTEX
  8
0
  6
CONTINUOUS
 10
5.850680
 20
2.415160
  0
VERTEX
  8
0
  6
CONTINUOUS
 10
5.849800
 20
3.155240
  0
VERTEX
  8
0
  6
CONTINUOUS
 10
5.867400
 20
3.156120
  0
VERTEX
  8
0
  6
CONTINUOUS
 10
5.868280
 20
2.416040
  0
VERTEX
  8
0
  6
CONTINUOUS
 10
5.850680
 20
2.415160
  0
SEQEND
  8
0
  0
SOLID
  8
0
 62
    15
 10
5.868280
 20
2.416040
 11
5.867400
 21
3.156120
 12
6.290240
 22
2.416040
 13
6.288920
 23
3.156120
  0
POLYLINE
  8
0
  6
CONTINUOUS
 66
     1
 40
0.000000
 41
0.000000
  0
VERTEX
  8
0
  6
CONTINUOUS
 10
5.868280
 20
2.416040
  0
VERTEX
  8
0
  6
CONTINUOUS
 10
5.867400
 20
3.156120
  0
VERTEX
  8
0
  6
CONTINUOUS
 10
6.288920
 20
3.156120
  0
VERTEX
  8
0
  6
CONTINUOUS
 10
6.290240
 20
2.416040
  0
VERTEX
  8
0
  6
CONTINUOUS
 10
5.868280
 20
2.416040
  0
SEQEND
  8
0
  0
SOLID
  8
0
 62
    15
 10
6.290240
 20
2.416040
 11
6.288920
 21
3.156120
 12
6.311800
 22
2.412080
 13
6.310480
 23
3.151720
  0
POLYLINE
  8
0
  6
CONTINUOUS
 66
     1
 40
0.000000
 41
0.000000
  0
VERTEX
  8
0
  6
CONTINUOUS
 10
6.290240
 20
2.416040
  0
VERTEX
  8
0
  6
CONTINUOUS
 10
6.288920
 20
3.156120
  0
VERTEX
  8
0
  6
CONTINUOUS
 10
6.310480
 20
3.151720
  0
VERTEX
  8
0
  6
CONTINUOUS
 10
6.311800
 20
2.412080
  0
VERTEX
  8
0
  6
CONTINUOUS
 10
6.290240
 20
2.416040
  0
SEQEND
  8
0
  0
SOLID
  8
0
 62
    15
 10
6.320600
 20
2.230800
 11
6.319280
 21
2.970440
 12
6.389680
 22
2.230800
 13
6.388360
 23
2.970440
  0
POLYLINE
  8
0
  6
CONTINUOUS
 66
     1
 40
0.000000
 41
0.000000
  0
VERTEX
  8
0
  6
CONTINUOUS
 10
6.320600
 20
2.230800
  0
VERTEX
  8
0
  6
CONTINUOUS
 10
6.319280
 20
2.970440
  0
VERTEX
  8
0
  6
CONTINUOUS
 10
6.388360
 20
2.970440
  0
VERTEX
  8
0
  6
CONTINUOUS
 10
6.389680
 20
2.230800
  0
VERTEX
  8
0
  6
CONTINUOUS
 10
6.320600
 20
2.230800
  0
SEQEND
  8
0
  0
SOLID
  8
0
 62
    15
 10
6.317960
 20
2.404160
 11
6.317080
 21
3.143800
 12
6.320600
 22
2.389200
 13
6.319280
 23
3.128840
  0
POLYLINE
  8
0
  6
CONTINUOUS
 66
     1
 40
0.000000
 41
0.000000
  0
VERTEX
  8
0
  6
CONTINUOUS
 10
6.317960
 20
2.404160
  0
VERTEX
  8
0
  6
CONTINUOUS
 10
6.317080
 20
3.143800
  0
VERTEX
  8
0
  6
CONTINUOUS
 10
6.319280
 20
3.128840
  0
VERTEX
  8
0
  6
CONTINUOUS
 10
6.320600
 20
2.389200
  0
VERTEX
  8
0
  6
CONTINUOUS
 10
6.317960
 20
2.404160
  0
SEQEND
  8
0
  0
SOLID
  8
0
 62
    15
 10
6.311800
 20
2.412080
 11
6.310480
 21
3.151720
 12
6.317960
 22
2.404160
 13
6.317080
 23
3.143800
  0
POLYLINE
  8
0
  6
CONTINUOUS
 66
     1
 40
0.000000
 41
0.000000
  0
VERTEX
  8
0
  6
CONTINUOUS
 10
6.311800
 20
2.412080
  0
VERTEX
  8
0
  6
CONTINUOUS
 10
6.310480
 20
3.151720
  0
VERTEX
  8
0
  6
CONTINUOUS
 10
6.317080
 20
3.143800
  0
VERTEX
  8
0
  6
CONTINUOUS
 10
6.317960
 20
2.404160
  0
VERTEX
  8
0
  6
CONTINUOUS
 10
6.311800
 20
2.412080
  0
SEQEND
  8
0
  0
SOLID
  8
0
 62
    15
 10
6.389680
 20
2.230800
 11
6.388360
 21
2.970440
 12
6.389680
 22
2.345200
 13
6.388360
 23
3.085280
  0
POLYLINE
  8
0
  6
CONTINUOUS
 66
     1
 40
0.000000
 41
0.000000
  0
VERTEX
  8
0
  6
CONTINUOUS
 10
6.389680
 20
2.230800
  0
VERTEX
  8
0
  6
CONTINUOUS
 10
6.388360
 20
2.970440
  0
VERTEX
  8
0
  6
CONTINUOUS
 10
6.388360
 20
3.085280
  0
VERTEX
  8
0
  6
CONTINUOUS
 10
6.389680
 20
2.345200
  0
VERTEX
  8
0
  6
CONTINUOUS
 10
6.389680
 20
2.230800
  0
SEQEND
  8
0
  0
SOLID
  8
0
 62
    15
 10
6.389680
 20
2.345200
 11
6.388360
 21
3.085280
 12
6.392320
 22
2.365440
 13
6.391440
 23
3.105520
  0
POLYLINE
  8
0
  6
CONTINUOUS
 66
     1
 40
0.000000
 41
0.000000
  0
VERTEX
  8
0
  6
CONTINUOUS
 10
6.389680
 20
2.345200
  0
VERTEX
  8
0
  6
CONTINUOUS
 10
6.388360
 20
3.085280
  0
VERTEX
  8
0
  6
CONTINUOUS
 10
6.391440
 20
3.105520
  0
VERTEX
  8
0
  6
CONTINUOUS
 10
6.392320
 20
2.365440
  0
VERTEX
  8
0
  6
CONTINUOUS
 10
6.389680
 20
2.345200
  0
SEQEND
  8
0
  0
SOLID
  8
0
 62
    15
 10
6.392320
 20
2.365440
 11
6.391440
 21
3.105520
 12
6.400240
 22
2.383040
 13
6.399360
 23
3.122680
  0
POLYLINE
  8
0
  6
CONTINUOUS
 66
     1
 40
0.000000
 41
0.000000
  0
VERTEX
  8
0
  6
CONTINUOUS
 10
6.392320
 20
2.365440
  0
VERTEX
  8
0
  6
CONTINUOUS
 10
6.391440
 20
3.105520
  0
VERTEX
  8
0
  6
CONTINUOUS
 10
6.399360
 20
3.122680
  0
VERTEX
  8
0
  6
CONTINUOUS
 10
6.400240
 20
2.383040
  0
VERTEX
  8
0
  6
CONTINUOUS
 10
6.392320
 20
2.365440
  0
SEQEND
  8
0
  0
SOLID
  8
0
 62
    15
 10
6.400240
 20
2.383040
 11
6.399360
 21
3.122680
 12
6.412560
 22
2.398000
 13
6.411680
 23
3.137640
  0
POLYLINE
  8
0
  6
CONTINUOUS
 66
     1
 40
0.000000
 41
0.000000
  0
VERTEX
  8
0
  6
CONTINUOUS
 10
6.400240
 20
2.383040
  0
VERTEX
  8
0
  6
CONTINUOUS
 10
6.399360
 20
3.122680
  0
VERTEX
  8
0
  6
CONTINUOUS
 10
6.411680
 20
3.137640
  0
VERTEX
  8
0
  6
CONTINUOUS
 10
6.412560
 20
2.398000
  0
VERTEX
  8
0
  6
CONTINUOUS
 10
6.400240
 20
2.383040
  0
SEQEND
  8
0
  0
SOLID
  8
0
 62
    15
 10
6.412560
 20
2.398000
 11
6.411680
 21
3.137640
 12
6.428840
 22
2.409880
 13
6.427520
 23
3.149520
  0
POLYLINE
  8
0
  6
CONTINUOUS
 66
     1
 40
0.000000
 41
0.000000
  0
VERTEX
  8
0
  6
CONTINUOUS
 10
6.412560
 20
2.398000
  0
VERTEX
  8
0
  6
CONTINUOUS
 10
6.411680
 20
3.137640
  0
VERTEX
  8
0
  6
CONTINUOUS
 10
6.427520
 20
3.149520
  0
VERTEX
  8
0
  6
CONTINUOUS
 10
6.428840
 20
2.409880
  0
VERTEX
  8
0
  6
CONTINUOUS
 10
6.412560
 20
2.398000
  0
SEQEND
  8
0
  0
SOLID
  8
0
 62
    15
 10
6.428840
 20
2.409880
 11
6.427520
 21
3.149520
 12
6.468440
 22
2.426160
 13
6.467560
 23
3.165800
  0
POLYLINE
  8
0
  6
CONTINUOUS
 66
     1
 40
0.000000
 41
0.000000
  0
VERTEX
  8
0
  6
CONTINUOUS
 10
6.428840
 20
2.409880
  0
VERTEX
  8
0
  6
CONTINUOUS
 10
6.427520
 20
3.149520
  0
VERTEX
  8
0
  6
CONTINUOUS
 10
6.467560
 20
3.165800
  0
VERTEX
  8
0
  6
CONTINUOUS
 10
6.468440
 20
2.426160
  0
VERTEX
  8
0
  6
CONTINUOUS
 10
6.428840
 20
2.409880
  0
SEQEND
  8
0
  0
SOLID
  8
0
 62
    15
 10
6.468440
 20
2.426160
 11
6.467560
 21
3.165800
 12
6.514640
 22
2.431440
 13
6.513320
 23
3.171080
  0
POLYLINE
  8
0
  6
CONTINUOUS
 66
     1
 40
0.000000
 41
0.000000
  0
VERTEX
  8
0
  6
CONTINUOUS
 10
6.468440
 20
2.426160
  0
VERTEX
  8
0
  6
CONTINUOUS
 10
6.467560
 20
3.165800
  0
VERTEX
  8
0
  6
CONTINUOUS
 10
6.513320
 20
3.171080
  0
VERTEX
  8
0
  6
CONTINUOUS
 10
6.514640
 20
2.431440
  0
VERTEX
  8
0
  6
CONTINUOUS
 10
6.468440
 20
2.426160
  0
SEQEND
  8
0
  0
SOLID
  8
0
 62
    15
 10
6.514640
 20
2.431440
 11
6.513320
 21
3.171080
 12
6.560400
 22
2.426160
 13
6.559080
 23
3.165800
  0
POLYLINE
  8
0
  6
CONTINUOUS
 66
     1
 40
0.000000
 41
0.000000
  0
VERTEX
  8
0
  6
CONTINUOUS
 10
6.514640
 20
2.431440
  0
VERTEX
  8
0
  6
CONTINUOUS
 10
6.513320
 20
3.171080
  0
VERTEX
  8
0
  6
CONTINUOUS
 10
6.559080
 20
3.165800
  0
VERTEX
  8
0
  6
CONTINUOUS
 10
6.560400
 20
2.426160
  0
VERTEX
  8
0
  6
CONTINUOUS
 10
6.514640
 20
2.431440
  0
SEQEND
  8
0
  0
SOLID
  8
0
 62
    15
 10
6.560400
 20
2.426160
 11
6.559080
 21
3.165800
 12
6.600000
 22
2.409880
 13
6.599120
 23
3.149520
  0
POLYLINE
  8
0
  6
CONTINUOUS
 66
     1
 40
0.000000
 41
0.000000
  0
VERTEX
  8
0
  6
CONTINUOUS
 10
6.560400
 20
2.426160
  0
VERTEX
  8
0
  6
CONTINUOUS
 10
6.559080
 20
3.165800
  0
VERTEX
  8
0
  6
CONTINUOUS
 10
6.599120
 20
3.149520
  0
VERTEX
  8
0
  6
CONTINUOUS
 10
6.600000
 20
2.409880
  0
VERTEX
  8
0
  6
CONTINUOUS
 10
6.560400
 20
2.426160
  0
SEQEND
  8
0
  0
SOLID
  8
0
 62
    15
 10
6.600000
 20
2.409880
 11
6.599120
 21
3.149520
 12
6.616280
 22
2.398000
 13
6.614960
 23
3.137640
  0
POLYLINE
  8
0
  6
CONTINUOUS
 66
     1
 40
0.000000
 41
0.000000
  0
VERTEX
  8
0
  6
CONTINUOUS
 10
6.600000
 20
2.409880
  0
VERTEX
  8
0
  6
CONTINUOUS
 10
6.599120
 20
3.149520
  0
VERTEX
  8
0
  6
CONTINUOUS
 10
6.614960
 20
3.137640
  0
VERTEX
  8
0
  6
CONTINUOUS
 10
6.616280
 20
2.398000
  0
VERTEX
  8
0
  6
CONTINUOUS
 10
6.600000
 20
2.409880
  0
SEQEND
  8
0
  0
SOLID
  8
0
 62
    15
 10
6.616280
 20
2.398000
 11
6.614960
 21
3.137640
 12
6.628600
 22
2.383040
 13
6.627280
 23
3.122680
  0
POLYLINE
  8
0
  6
CONTINUOUS
 66
     1
 40
0.000000
 41
0.000000
  0
VERTEX
  8
0
  6
CONTINUOUS
 10
6.616280
 20
2.398000
  0
VERTEX
  8
0
  6
CONTINUOUS
 10
6.614960
 20
3.137640
  0
VERTEX
  8
0
  6
CONTINUOUS
 10
6.627280
 20
3.122680
  0
VERTEX
  8
0
  6
CONTINUOUS
 10
6.628600
 20
2.383040
  0
VERTEX
  8
0
  6
CONTINUOUS
 10
6.616280
 20
2.398000
  0
SEQEND
  8
0
  0
SOLID
  8
0
 62
    15
 10
6.636520
 20
2.365440
 11
6.635200
 21
3.105520
 12
6.639160
 22
2.345200
 13
6.638280
 23
3.085280
  0
POLYLINE
  8
0
  6
CONTINUOUS
 66
     1
 40
0.000000
 41
0.000000
  0
VERTEX
  8
0
  6
CONTINUOUS
 10
6.636520
 20
2.365440
  0
VERTEX
  8
0
  6
CONTINUOUS
 10
6.635200
 20
3.105520
  0
VERTEX
  8
0
  6
CONTINUOUS
 10
6.638280
 20
3.085280
  0
VERTEX
  8
0
  6
CONTINUOUS
 10
6.639160
 20
2.345200
  0
VERTEX
  8
0
  6
CONTINUOUS
 10
6.636520
 20
2.365440
  0
SEQEND
  8
0
  0
SOLID
  8
0
 62
    15
 10
6.628600
 20
2.383040
 11
6.627280
 21
3.122680
 12
6.636520
 22
2.365440
 13
6.635200
 23
3.105520
  0
POLYLINE
  8
0
  6
CONTINUOUS
 66
     1
 40
0.000000
 41
0.000000
  0
VERTEX
  8
0
  6
CONTINUOUS
 10
6.628600
 20
2.383040
  0
VERTEX
  8
0
  6
CONTINUOUS
 10
6.627280
 20
3.122680
  0
VERTEX
  8
0
  6
CONTINUOUS
 10
6.635200
 20
3.105520
  0
VERTEX
  8
0
  6
CONTINUOUS
 10
6.636520
 20
2.365440
  0
VERTEX
  8
0
  6
CONTINUOUS
 10
6.628600
 20
2.383040
  0
SEQEND
  8
0
  0
SOLID
  8
0
 62
    15
 10
6.639160
 20
1.790800
 11
6.638280
 21
2.530880
 12
6.639160
 22
1.794760
 13
6.638280
 23
2.534400
  0
POLYLINE
  8
0
  6
CONTINUOUS
 66
     1
 40
0.000000
 41
0.000000
  0
VERTEX
  8
0
  6
CONTINUOUS
 10
6.639160
 20
1.790800
  0
VERTEX
  8
0
  6
CONTINUOUS
 10
6.638280
 20
2.530880
  0
VERTEX
  8
0
  6
CONTINUOUS
 10
6.638280
 20
2.534400
  0
VERTEX
  8
0
  6
CONTINUOUS
 10
6.639160
 20
1.794760
  0
VERTEX
  8
0
  6
CONTINUOUS
 10
6.639160
 20
1.790800
  0
SEQEND
  8
0
  0
POLYLINE
  8
0
  6
CONTINUOUS
 66
     1
 40
0.000000
 41
0.000000
  0
VERTEX
  8
0
  6
CONTINUOUS
 10
6.639160
 20
1.794760
  0
VERTEX
  8
0
  6
CONTINUOUS
 10
2.258520
 20
1.794760
  0
VERTEX
  8
0
  6
CONTINUOUS
 10
2.258520
 20
2.670360
  0
VERTEX
  8
0
  6
CONTINUOUS
 10
2.961200
 20
2.670360
  0
VERTEX
  8
0
  6
CONTINUOUS
 10
2.961200
 20
2.549800
  0
VERTEX
  8
0
  6
CONTINUOUS
 10
3.009600
 20
2.549800
  0
VERTEX
  8
0
  6
CONTINUOUS
 10
3.034240
 20
2.577080
  0
VERTEX
  8
0
  6
CONTINUOUS
 10
3.063720
 20
2.601720
  0
VERTEX
  8
0
  6
CONTINUOUS
 10
3.096280
 20
2.622840
  0
VERTEX
  8
0
  6
CONTINUOUS
 10
3.132800
 20
2.640440
  0
VERTEX
  8
0
  6
CONTINUOUS
 10
3.171520
 20
2.654080
  0
VERTEX
  8
0
  6
CONTINUOUS
 10
3.212880
 20
2.662880
  0
VERTEX
  8
0
  6
CONTINUOUS
 10
3.256000
 20
2.666840
  0
VERTEX
  8
0
  6
CONTINUOUS
 10
3.300000
 20
2.665520
  0
VERTEX
  8
0
  6
CONTINUOUS
 10
3.344440
 20
2.658040
  0
VERTEX
  8
0
  6
CONTINUOUS
 10
3.389320
 20
2.643960
  0
VERTEX
  8
0
  6
CONTINUOUS
 10
3.433320
 20
2.623280
  0
VERTEX
  8
0
  6
CONTINUOUS
 10
3.476880
 20
2.595120
  0
VERTEX
  8
0
  6
CONTINUOUS
 10
3.518680
 20
2.559480
  0
VERTEX
  8
0
  6
CONTINUOUS
 10
3.558720
 20
2.515040
  0
VERTEX
  8
0
  6
CONTINUOUS
 10
3.595680
 20
2.462240
  0
VERTEX
  8
0
  6
CONTINUOUS
 10
3.630000
 20
2.400200
  0
VERTEX
  8
0
  6
CONTINUOUS
 10
3.641000
 20
2.400200
  0
VERTEX
  8
0
  6
CONTINUOUS
 10
3.658160
 20
2.434520
  0
VERTEX
  8
0
  6
CONTINUOUS
 10
3.681920
 20
2.458720
  0
VERTEX
  8
0
  6
CONTINUOUS
 10
3.709640
 20
2.472800
  0
VERTEX
  8
0
  6
CONTINUOUS
 10
3.738240
 20
2.477640
  0
VERTEX
  8
0
  6
CONTINUOUS
 10
3.765520
 20
2.473240
  0
VERTEX
  8
0
  6
CONTINUOUS
 10
3.787960
 20
2.460040
  0
VERTEX
  8
0
  6
CONTINUOUS
 10
3.803800
 20
2.438480
  0
VERTEX
  8
0
  6
CONTINUOUS
 10
3.809520
 20
2.409000
  0
VERTEX
  8
0
  6
CONTINUOUS
 10
3.809520
 20
2.352240
  0
VERTEX
  8
0
  6
CONTINUOUS
 10
5.831760
 20
2.352240
  0
VERTEX
  8
0
  6
CONTINUOUS
 10
5.831760
 20
2.389200
  0
VERTEX
  8
0
  6
CONTINUOUS
 10
5.840120
 20
2.407680
  0
VERTEX
  8
0
  6
CONTINUOUS
 10
5.850680
 20
2.415160
  0
VERTEX
  8
0
  6
CONTINUOUS
 10
5.868280
 20
2.416040
  0
VERTEX
  8
0
  6
CONTINUOUS
 10
6.290240
 20
2.416040
  0
VERTEX
  8
0
  6
CONTINUOUS
 10
6.311800
 20
2.412080
  0
VERTEX
  8
0
  6
CONTINUOUS
 10
6.317960
 20
2.404160
  0
VERTEX
  8
0
  6
CONTINUOUS
 10
6.320600
 20
2.389200
  0
VERTEX
  8
0
  6
CONTINUOUS
 10
6.320600
 20
2.230800
  0
VERTEX
  8
0
  6
CONTINUOUS
 10
6.389680
 20
2.230800
  0
VERTEX
  8
0
  6
CONTINUOUS
 10
6.389680
 20
2.345200
  0
VERTEX
  8
0
  6
CONTINUOUS
 10
6.392320
 20
2.365440
  0
VERTEX
  8
0
  6
CONTINUOUS
 10
6.400240
 20
2.383040
  0
VERTEX
  8
0
  6
CONTINUOUS
 10
6.412560
 20
2.398000
  0
VERTEX
  8
0
  6
CONTINUOUS
 10
6.428840
 20
2.409880
  0
VERTEX
  8
0
  6
CONTINUOUS
 10
6.468440
 20
2.426160
  0
VERTEX
  8
0
  6
CONTINUOUS
 10
6.514640
 20
2.431440
  0
VERTEX
  8
0
  6
CONTINUOUS
 10
6.560400
 20
2.426160
  0
VERTEX
  8
0
  6
CONTINUOUS
 10
6.600000
 20
2.409880
  0
VERTEX
  8
0
  6
CONTINUOUS
 10
6.616280
 20
2.398000
  0
VERTEX
  8
0
  6
CONTINUOUS
 10
6.628600
 20
2.383040
  0
VERTEX
  8
0
  6
CONTINUOUS
 10
6.636520
 20
2.365440
  0
VERTEX
  8
0
  6
CONTINUOUS
 10
6.639160
 20
2.345200
  0
VERTEX
  8
0
  6
CONTINUOUS
 10
6.639160
 20
1.790800
  0
VERTEX
  8
0
  6
CONTINUOUS
 10
6.639160
 20
1.794760
  0
SEQEND
  8
0
  0
TEXT
  8
0
 10
4.105640
 20
1.495560
 40
0.138035
  1
BA  1125
 41
1.000000
  7
SN0
 71
     0
 72
     5
 11
4.788604
 21
1.495560
  0
TEXT
  8
0
 10
3.996080
 20
1.304160
 40
0.138035
  1
7/8" x 4-3/8"
 41
1.000000
  7
SN0
 71
     0
 72
     5
 11
4.897539
 21
1.304160
  0
POLYLINE
  8
0
  6
CONTINUOUS
 66
     1
 40
0.014080
 41
0.014080
  0
VERTEX
  8
0
  6
CONTINUOUS
 10
6.717480
 20
4.554000
  0
VERTEX
  8
0
  6
CONTINUOUS
 10
2.336840
 20
4.554000
  0
VERTEX
  8
0
  6
CONTINUOUS
 10
2.336840
 20
5.429600
  0
VERTEX
  8
0
  6
CONTINUOUS
 10
3.039520
 20
5.429600
  0
VERTEX
  8
0
  6
CONTINUOUS
 10
3.039520
 20
5.309040
  0
VERTEX
  8
0
  6
CONTINUOUS
 10
3.087920
 20
5.309040
  0
VERTEX
  8
0
  6
CONTINUOUS
 10
3.112560
 20
5.336320
  0
VERTEX
  8
0
  6
CONTINUOUS
 10
3.142040
 20
5.360520
  0
VERTEX
  8
0
  6
CONTINUOUS
 10
3.175040
 20
5.382080
  0
VERTEX
  8
0
  6
CONTINUOUS
 10
3.211120
 20
5.399680
  0
VERTEX
  8
0
  6
CONTINUOUS
 10
3.250280
 20
5.413320
  0
VERTEX
  8
0
  6
CONTINUOUS
 10
3.291200
 20
5.422120
  0
VERTEX
  8
0
  6
CONTINUOUS
 10
3.334320
 20
5.426080
  0
VERTEX
  8
0
  6
CONTINUOUS
 10
3.355880
 20
5.426080
  0
VERTEX
  8
0
  6
CONTINUOUS
 10
3.400320
 20
5.421680
  0
VERTEX
  8
0
  6
CONTINUOUS
 10
3.445200
 20
5.410680
  0
VERTEX
  8
0
  6
CONTINUOUS
 10
3.467640
 20
5.403200
  0
VERTEX
  8
0
  6
CONTINUOUS
 10
3.512080
 20
5.382520
  0
VERTEX
  8
0
  6
CONTINUOUS
 10
3.555200
 20
5.354360
  0
VERTEX
  8
0
  6
CONTINUOUS
 10
3.597440
 20
5.318280
  0
VERTEX
  8
0
  6
CONTINUOUS
 10
3.637040
 20
5.274280
  0
VERTEX
  8
0
  6
CONTINUOUS
 10
3.674440
 20
5.221480
  0
VERTEX
  8
0
  6
CONTINUOUS
 10
3.700400
 20
5.175720
  0
VERTEX
  8
0
  6
CONTINUOUS
 10
3.708760
 20
5.159440
  0
VERTEX
  8
0
  6
CONTINUOUS
 10
3.719320
 20
5.159440
  0
VERTEX
  8
0
  6
CONTINUOUS
 10
3.731200
 20
5.186280
  0
VERTEX
  8
0
  6
CONTINUOUS
 10
3.747480
 20
5.206960
  0
VERTEX
  8
0
  6
CONTINUOUS
 10
3.766840
 20
5.222360
  0
VERTEX
  8
0
  6
CONTINUOUS
 10
3.787520
 20
5.232040
  0
VERTEX
  8
0
  6
CONTINUOUS
 10
3.802040
 20
5.235560
  0
VERTEX
  8
0
  6
CONTINUOUS
 10
3.816560
 20
5.236880
  0
VERTEX
  8
0
  6
CONTINUOUS
 10
3.830200
 20
5.235560
  0
VERTEX
  8
0
  6
CONTINUOUS
 10
3.849560
 20
5.229840
  0
VERTEX
  8
0
  6
CONTINUOUS
 10
3.866280
 20
5.219280
  0
VERTEX
  8
0
  6
CONTINUOUS
 10
3.879040
 20
5.203880
  0
VERTEX
  8
0
  6
CONTINUOUS
 10
3.886520
 20
5.184080
  0
VERTEX
  8
0
  6
CONTINUOUS
 10
3.887840
 20
5.168240
  0
VERTEX
  8
0
  6
CONTINUOUS
 10
3.887840
 20
5.111480
  0
VERTEX
  8
0
  6
CONTINUOUS
 10
5.910080
 20
5.111480
  0
VERTEX
  8
0
  6
CONTINUOUS
 10
5.910080
 20
5.148440
  0
VERTEX
  8
0
  6
CONTINUOUS
 10
5.916240
 20
5.163400
  0
VERTEX
  8
0
  6
CONTINUOUS
 10
5.923720
 20
5.171760
  0
VERTEX
  8
0
  6
CONTINUOUS
 10
5.934720
 20
5.175720
  0
VERTEX
  8
0
  6
CONTINUOUS
 10
6.368560
 20
5.175280
  0
VERTEX
  8
0
  6
CONTINUOUS
 10
6.385720
 20
5.173520
  0
VERTEX
  8
0
  6
CONTINUOUS
 10
6.393640
 20
5.167800
  0
VERTEX
  8
0
  6
CONTINUOUS
 10
6.396720
 20
5.163400
  0
VERTEX
  8
0
  6
CONTINUOUS
 10
6.398480
 20
5.156800
  0
VERTEX
  8
0
  6
CONTINUOUS
 10
6.398920
 20
4.990040
  0
VERTEX
  8
0
  6
CONTINUOUS
 10
6.468000
 20
4.990040
  0
VERTEX
  8
0
  6
CONTINUOUS
 10
6.468000
 20
5.104440
  0
VERTEX
  8
0
  6
CONTINUOUS
 10
6.470640
 20
5.124680
  0
VERTEX
  8
0
  6
CONTINUOUS
 10
6.478560
 20
5.142280
  0
VERTEX
  8
0
  6
CONTINUOUS
 10
6.490880
 20
5.156800
  0
VERTEX
  8
0
  6
CONTINUOUS
 10
6.507160
 20
5.169120
  0
VERTEX
  8
0
  6
CONTINUOUS
 10
6.536200
 20
5.182320
  0
VERTEX
  8
0
  6
CONTINUOUS
 10
6.558200
 20
5.187600
  0
VERTEX
  8
0
  6
CONTINUOUS
 10
6.581080
 20
5.190240
  0
VERTEX
  8
0
  6
CONTINUOUS
 10
6.604400
 20
5.190240
  0
VERTEX
  8
0
  6
CONTINUOUS
 10
6.638720
 20
5.185400
  0
VERTEX
  8
0
  6
CONTINUOUS
 10
6.669520
 20
5.173960
  0
VERTEX
  8
0
  6
CONTINUOUS
 10
6.686680
 20
5.163400
  0
VERTEX
  8
0
  6
CONTINUOUS
 10
6.701200
 20
5.149760
  0
VERTEX
  8
0
  6
CONTINUOUS
 10
6.711320
 20
5.133920
  0
VERTEX
  8
0
  6
CONTINUOUS
 10
6.714840
 20
5.124680
  0
VERTEX
  8
0
  6
CONTINUOUS
 10
6.717480
 20
5.104440
  0
VERTEX
  8
0
  6
CONTINUOUS
 10
6.717480
 20
4.550040
  0
VERTEX
  8
0
  6
CONTINUOUS
 10
6.717480
 20
4.554000
  0
SEQEND
  8
0
  0
TEXT
  8
0
 10
3.187360
 20
4.857600
 40
0.138035
  1
BA  1125
 41
1.000000
  7
SN0
 71
     0
 72
     5
 11
3.870324
 21
4.857600
  0
TEXT
  8
0
 10
3.077800
 20
4.666200
 40
0.138035
  1
7/8" x 4-3/8"
 41
1.000000
  7
SN0
 71
     0
 72
     5
 11
3.979259
 21
4.666200
  0
ENDSEC
  0
EOF
