  0
SECTION
  2
HEADER
  9
$ACADVER
  1
AC1006
  9
$EXTMIN
 10
0.462880
 20
0.519200
  9
$EXTMAX
 10
8.198080
 20
7.459320
  9
$LTSCALE
 40
0.044000
  9
$PDMODE
 70
    35
  9
$PDSIZE
 40
0.035200
  0
ENDSEC
  0
SECTION
  2
TABLES
  0
TABLE
  2
LTYPE
 70
     9
  0
LTYPE
  2
CONTINUOUS
 70
    64
  3
Solid line
 72
    65
 73
     0
 40
0.000000
  0
LTYPE
  2
DASHED
 70
    64
  3
__ __ __ __ __ __ __ __ __ __ __ __ __ __ __
 72
    65
 73
     2
 40
0.000330
 49
0.000220
 49
-0.000110
  0
LTYPE
  2
HIDDEN
 70
    64
  3
 _ _ _ _ _ _ _ _ _ _ _ _ _ _ _ _ _ _ _ _ _ _
 72
    65
 73
     2
 40
0.000165
 49
0.000110
 49
-0.000055
  0
LTYPE
  2
CENTER
 70
    64
  3
____ _ ____ _ ____ _ ____ _ ____ _ ____ _ ____
 72
    65
 73
     4
 40
0.000880
 49
0.000550
 49
-0.000110
 49
0.000110
 49
-0.000110
  0
LTYPE
  2
PHANTOM
 70
    64
  3
_____ _ _ _____ _ _ _____ _ _ _____ _ _ ____
 72
    65
 73
     6
 40
0.001100
 49
0.000550
 49
-0.000110
 49
0.000110
 49
-0.000110
 49
0.000110
 49
-0.000110
  0
LTYPE
  2
DOT
 70
    64
  3
...............................................
 72
    65
 73
     2
 40
0.000110
 49
0.000000
 49
-0.000110
  0
LTYPE
  2
DASHDOT
 70
    64
  3
__ . __ . __ . __ . __ . __ . __ . __ . __ . __
 72
    65
 73
     4
 40
0.000440
 49
0.000220
 49
-0.000110
 49
0.000000
 49
-0.000110
  0
LTYPE
  2
BORDER
 70
    64
  3
__ __ . __ __ . __ __ . __ __ . __ __ . __ __
 72
    65
 73
     6
 40
0.000770
 49
0.000220
 49
-0.000110
 49
0.000220
 49
-0.000110
 49
0.000000
 49
-0.000110
  0
LTYPE
  2
DIVIDE
 70
    64
  3
__ . . __ . . __ . . __ . . __ . . __ . . __
 72
    65
 73
     6
 40
0.000550
 49
0.000220
 49
-0.000110
 49
0.000000
 49
-0.000110
 49
0.000000
 49
-0.000110
  0
LTYPE
  2
DOTDOT
 70
    64
  3
 . .  . .  . .  . .  . .  . . 
 72
    65
 73
     5
 40
0.000242
 49
-0.000110
 49
0.000000
 49
-0.000110
 49
0.000000
 49
-0.000110
  0
ENDTAB
  0
TABLE
  2
STYLE
 70
     2
  0
STYLE
 70
     0
  2
SN0
 40
0.000000
 41
0.000440
 50
0.000000
 71
     0
 42
0.000000
  3
ROMAND
  0
STYLE
 70
    68
  2
SV0
 40
0.000000
 41
0.000440
 50
0.000000
 71
     0
 42
0.000000
  3
ROMAND
  0
ENDTAB
  0
TABLE
  2
LAYER
 70
     3
  0
LAYER
  2
FOREGROUND
 70
    64
 62
     7
  6
CONTINUOUS
  0
LAYER
  2
BACKGROUND
 70
    65
 62
    -7
  6
CONTINUOUS
  0
LAYER
  2
0
 70
    64
 62
     7
  6
CONTINUOUS
  0
ENDTAB
  0
ENDSEC
  0
SECTION
  2
ENTITIES
  0
POLYLINE
  8
FOREGROUND
  6
CONTINUOUS
 66
     1
 40
0.000000
 41
0.000000
  0
VERTEX
  8
FOREGROUND
  6
CONTINUOUS
 10
0.000000
 20
7.978520
  0
VERTEX
  8
FOREGROUND
  6
CONTINUOUS
 10
8.499920
 20
7.978520
  0
VERTEX
  8
FOREGROUND
  6
CONTINUOUS
 10
8.499920
 20
-3.021480
  0
VERTEX
  8
FOREGROUND
  6
CONTINUOUS
 10
0.000000
 20
-3.021480
  0
VERTEX
  8
FOREGROUND
  6
CONTINUOUS
 10
0.000000
 20
7.978520
  0
SEQEND
  8
0
  0
POLYLINE
  8
FOREGROUND
  6
CONTINUOUS
 66
     1
 40
0.000000
 41
0.000000
  0
VERTEX
  8
FOREGROUND
  6
CONTINUOUS
 10
0.000000
 20
7.978520
  0
VERTEX
  8
FOREGROUND
  6
CONTINUOUS
 10
8.499920
 20
7.978520
  0
VERTEX
  8
FOREGROUND
  6
CONTINUOUS
 10
8.499920
 20
-3.021480
  0
VERTEX
  8
FOREGROUND
  6
CONTINUOUS
 10
0.000000
 20
-3.021480
  0
VERTEX
  8
FOREGROUND
  6
CONTINUOUS
 10
0.000000
 20
7.978520
  0
SEQEND
  8
0
  0
POLYLINE
  8
0
  6
CONTINUOUS
 66
     1
 40
0.000000
 41
0.000000
  0
VERTEX
  8
0
  6
CONTINUOUS
 10
8.170360
 20
3.363360
  0
VERTEX
  8
0
  6
CONTINUOUS
 10
8.170360
 20
4.158880
  0
VERTEX
  8
0
  6
CONTINUOUS
 10
2.921600
 20
4.158880
  0
VERTEX
  8
0
  6
CONTINUOUS
 10
2.921600
 20
4.020720
  0
VERTEX
  8
0
  6
CONTINUOUS
 10
2.894760
 20
4.020280
  0
VERTEX
  8
0
  6
CONTINUOUS
 10
2.844160
 20
4.015000
  0
VERTEX
  8
0
  6
CONTINUOUS
 10
2.797080
 20
4.005760
  0
VERTEX
  8
0
  6
CONTINUOUS
 10
2.753960
 20
3.992560
  0
VERTEX
  8
0
  6
CONTINUOUS
 10
2.714360
 20
3.976720
  0
VERTEX
  8
0
  6
CONTINUOUS
 10
2.678280
 20
3.958240
  0
VERTEX
  8
0
  6
CONTINUOUS
 10
2.630760
 20
3.927440
  0
VERTEX
  8
0
  6
CONTINUOUS
 10
2.591160
 20
3.895760
  0
VERTEX
  8
0
  6
CONTINUOUS
 10
2.550240
 20
3.854400
  0
VERTEX
  8
0
  6
CONTINUOUS
 10
2.517240
 20
3.813040
  0
VERTEX
  8
0
  6
CONTINUOUS
 10
2.487320
 20
3.768600
  0
VERTEX
  8
0
  6
CONTINUOUS
 10
2.447280
 20
3.723720
  0
VERTEX
  8
0
  6
CONTINUOUS
 10
2.418680
 20
3.697320
  0
VERTEX
  8
0
  6
CONTINUOUS
 10
2.396680
 20
3.679720
  0
VERTEX
  8
0
  6
CONTINUOUS
 10
2.344760
 20
3.646720
  0
VERTEX
  8
0
  6
CONTINUOUS
 10
2.299440
 20
3.626480
  0
VERTEX
  8
0
  6
CONTINUOUS
 10
2.266440
 20
3.615480
  0
VERTEX
  8
0
  6
CONTINUOUS
 10
2.230800
 20
3.608000
  0
VERTEX
  8
0
  6
CONTINUOUS
 10
2.192960
 20
3.603600
  0
VERTEX
  8
0
  6
CONTINUOUS
 10
2.173160
 20
3.603160
  0
VERTEX
  8
0
  6
CONTINUOUS
 10
2.173160
 20
3.363360
  0
VERTEX
  8
0
  6
CONTINUOUS
 10
8.170360
 20
3.363360
  0
SEQEND
  8
0
  0
POLYLINE
  8
0
  6
CONTINUOUS
 66
     1
 40
0.000000
 41
0.000000
  0
VERTEX
  8
0
  6
CONTINUOUS
 10
2.200440
 20
1.050720
  0
VERTEX
  8
0
  6
CONTINUOUS
 10
2.200440
 20
1.846240
  0
VERTEX
  8
0
  6
CONTINUOUS
 10
7.449200
 20
1.846240
  0
VERTEX
  8
0
  6
CONTINUOUS
 10
7.449200
 20
1.708080
  0
VERTEX
  8
0
  6
CONTINUOUS
 10
7.476040
 20
1.707640
  0
VERTEX
  8
0
  6
CONTINUOUS
 10
7.526640
 20
1.702360
  0
VERTEX
  8
0
  6
CONTINUOUS
 10
7.550840
 20
1.698400
  0
VERTEX
  8
0
  6
CONTINUOUS
 10
7.595720
 20
1.686960
  0
VERTEX
  8
0
  6
CONTINUOUS
 10
7.637080
 20
1.672440
  0
VERTEX
  8
0
  6
CONTINUOUS
 10
7.674920
 20
1.654840
  0
VERTEX
  8
0
  6
CONTINUOUS
 10
7.709240
 20
1.635480
  0
VERTEX
  8
0
  6
CONTINUOUS
 10
7.754120
 20
1.604240
  0
VERTEX
  8
0
  6
CONTINUOUS
 10
7.791080
 20
1.572560
  0
VERTEX
  8
0
  6
CONTINUOUS
 10
7.828920
 20
1.532520
  0
VERTEX
  8
0
  6
CONTINUOUS
 10
7.857960
 20
1.494240
  0
VERTEX
  8
0
  6
CONTINUOUS
 10
7.883480
 20
1.455960
  0
VERTEX
  8
0
  6
CONTINUOUS
 10
7.923520
 20
1.411080
  0
VERTEX
  8
0
  6
CONTINUOUS
 10
7.952120
 20
1.384680
  0
VERTEX
  8
0
  6
CONTINUOUS
 10
7.974120
 20
1.367080
  0
VERTEX
  8
0
  6
CONTINUOUS
 10
8.026040
 20
1.334080
  0
VERTEX
  8
0
  6
CONTINUOUS
 10
8.071360
 20
1.313840
  0
VERTEX
  8
0
  6
CONTINUOUS
 10
8.104360
 20
1.302840
  0
VERTEX
  8
0
  6
CONTINUOUS
 10
8.140000
 20
1.295360
  0
VERTEX
  8
0
  6
CONTINUOUS
 10
8.177840
 20
1.290960
  0
VERTEX
  8
0
  6
CONTINUOUS
 10
8.197640
 20
1.290520
  0
VERTEX
  8
0
  6
CONTINUOUS
 10
8.197640
 20
1.050720
  0
VERTEX
  8
0
  6
CONTINUOUS
 10
2.200440
 20
1.050720
  0
SEQEND
  8
0
  0
SOLID
  8
0
 62
    15
 10
0.913440
 20
6.741680
 11
1.566400
 21
7.114800
 12
0.927960
 22
6.730680
 13
1.580920
 23
7.103800
  0
POLYLINE
  8
0
  6
CONTINUOUS
 66
     1
 40
0.000000
 41
0.000000
  0
VERTEX
  8
0
  6
CONTINUOUS
 10
0.913440
 20
6.741680
  0
VERTEX
  8
0
  6
CONTINUOUS
 10
1.566400
 20
7.114800
  0
VERTEX
  8
0
  6
CONTINUOUS
 10
1.580920
 20
7.103800
  0
VERTEX
  8
0
  6
CONTINUOUS
 10
0.927960
 20
6.730680
  0
VERTEX
  8
0
  6
CONTINUOUS
 10
0.913440
 20
6.741680
  0
SEQEND
  8
0
  0
SOLID
  8
0
 62
    15
 10
0.463760
 20
7.085760
 11
1.116280
 21
7.458880
 12
0.703560
 22
7.085760
 13
1.356080
 23
7.458880
  0
POLYLINE
  8
0
  6
CONTINUOUS
 66
     1
 40
0.000000
 41
0.000000
  0
VERTEX
  8
0
  6
CONTINUOUS
 10
0.463760
 20
7.085760
  0
VERTEX
  8
0
  6
CONTINUOUS
 10
1.116280
 20
7.458880
  0
VERTEX
  8
0
  6
CONTINUOUS
 10
1.356080
 20
7.458880
  0
VERTEX
  8
0
  6
CONTINUOUS
 10
0.703560
 20
7.085760
  0
VERTEX
  8
0
  6
CONTINUOUS
 10
0.463760
 20
7.085760
  0
SEQEND
  8
0
  0
SOLID
  8
0
 62
    15
 10
0.705320
 20
7.046600
 11
1.358280
 21
7.419720
 12
0.711480
 22
7.010080
 13
1.364440
 23
7.383200
  0
POLYLINE
  8
0
  6
CONTINUOUS
 66
     1
 40
0.000000
 41
0.000000
  0
VERTEX
  8
0
  6
CONTINUOUS
 10
0.705320
 20
7.046600
  0
VERTEX
  8
0
  6
CONTINUOUS
 10
1.358280
 20
7.419720
  0
VERTEX
  8
0
  6
CONTINUOUS
 10
1.364440
 20
7.383200
  0
VERTEX
  8
0
  6
CONTINUOUS
 10
0.711480
 20
7.010080
  0
VERTEX
  8
0
  6
CONTINUOUS
 10
0.705320
 20
7.046600
  0
SEQEND
  8
0
  0
SOLID
  8
0
 62
    15
 10
0.711480
 20
7.010080
 11
1.364440
 21
7.383200
 12
0.733040
 22
6.943640
 13
1.385560
 23
7.316760
  0
POLYLINE
  8
0
  6
CONTINUOUS
 66
     1
 40
0.000000
 41
0.000000
  0
VERTEX
  8
0
  6
CONTINUOUS
 10
0.711480
 20
7.010080
  0
VERTEX
  8
0
  6
CONTINUOUS
 10
1.364440
 20
7.383200
  0
VERTEX
  8
0
  6
CONTINUOUS
 10
1.385560
 20
7.316760
  0
VERTEX
  8
0
  6
CONTINUOUS
 10
0.733040
 20
6.943640
  0
VERTEX
  8
0
  6
CONTINUOUS
 10
0.711480
 20
7.010080
  0
SEQEND
  8
0
  0
SOLID
  8
0
 62
    15
 10
0.733040
 20
6.943640
 11
1.385560
 21
7.316760
 12
0.762960
 22
6.886880
 13
1.415920
 23
7.260000
  0
POLYLINE
  8
0
  6
CONTINUOUS
 66
     1
 40
0.000000
 41
0.000000
  0
VERTEX
  8
0
  6
CONTINUOUS
 10
0.733040
 20
6.943640
  0
VERTEX
  8
0
  6
CONTINUOUS
 10
1.385560
 20
7.316760
  0
VERTEX
  8
0
  6
CONTINUOUS
 10
1.415920
 20
7.260000
  0
VERTEX
  8
0
  6
CONTINUOUS
 10
0.762960
 20
6.886880
  0
VERTEX
  8
0
  6
CONTINUOUS
 10
0.733040
 20
6.943640
  0
SEQEND
  8
0
  0
SOLID
  8
0
 62
    15
 10
0.762960
 20
6.886880
 11
1.415920
 21
7.260000
 12
0.797720
 22
6.839800
 13
1.450680
 23
7.213360
  0
POLYLINE
  8
0
  6
CONTINUOUS
 66
     1
 40
0.000000
 41
0.000000
  0
VERTEX
  8
0
  6
CONTINUOUS
 10
0.762960
 20
6.886880
  0
VERTEX
  8
0
  6
CONTINUOUS
 10
1.415920
 20
7.260000
  0
VERTEX
  8
0
  6
CONTINUOUS
 10
1.450680
 20
7.213360
  0
VERTEX
  8
0
  6
CONTINUOUS
 10
0.797720
 20
6.839800
  0
VERTEX
  8
0
  6
CONTINUOUS
 10
0.762960
 20
6.886880
  0
SEQEND
  8
0
  0
SOLID
  8
0
 62
    15
 10
0.797720
 20
6.839800
 11
1.450680
 21
7.213360
 12
0.832480
 22
6.803280
 13
1.485440
 23
7.176400
  0
POLYLINE
  8
0
  6
CONTINUOUS
 66
     1
 40
0.000000
 41
0.000000
  0
VERTEX
  8
0
  6
CONTINUOUS
 10
0.797720
 20
6.839800
  0
VERTEX
  8
0
  6
CONTINUOUS
 10
1.450680
 20
7.213360
  0
VERTEX
  8
0
  6
CONTINUOUS
 10
1.485440
 20
7.176400
  0
VERTEX
  8
0
  6
CONTINUOUS
 10
0.832480
 20
6.803280
  0
VERTEX
  8
0
  6
CONTINUOUS
 10
0.797720
 20
6.839800
  0
SEQEND
  8
0
  0
SOLID
  8
0
 62
    15
 10
0.832480
 20
6.803280
 11
1.485440
 21
7.176400
 12
0.862840
 22
6.776440
 13
1.515800
 23
7.150000
  0
POLYLINE
  8
0
  6
CONTINUOUS
 66
     1
 40
0.000000
 41
0.000000
  0
VERTEX
  8
0
  6
CONTINUOUS
 10
0.832480
 20
6.803280
  0
VERTEX
  8
0
  6
CONTINUOUS
 10
1.485440
 20
7.176400
  0
VERTEX
  8
0
  6
CONTINUOUS
 10
1.515800
 20
7.150000
  0
VERTEX
  8
0
  6
CONTINUOUS
 10
0.862840
 20
6.776440
  0
VERTEX
  8
0
  6
CONTINUOUS
 10
0.832480
 20
6.803280
  0
SEQEND
  8
0
  0
SOLID
  8
0
 62
    15
 10
0.862840
 20
6.776440
 11
1.515800
 21
7.150000
 12
0.883960
 22
6.760600
 13
1.536920
 23
7.133720
  0
POLYLINE
  8
0
  6
CONTINUOUS
 66
     1
 40
0.000000
 41
0.000000
  0
VERTEX
  8
0
  6
CONTINUOUS
 10
0.862840
 20
6.776440
  0
VERTEX
  8
0
  6
CONTINUOUS
 10
1.515800
 20
7.150000
  0
VERTEX
  8
0
  6
CONTINUOUS
 10
1.536920
 20
7.133720
  0
VERTEX
  8
0
  6
CONTINUOUS
 10
0.883960
 20
6.760600
  0
VERTEX
  8
0
  6
CONTINUOUS
 10
0.862840
 20
6.776440
  0
SEQEND
  8
0
  0
SOLID
  8
0
 62
    15
 10
0.883960
 20
6.760600
 11
1.536920
 21
7.133720
 12
0.892320
 22
6.754880
 13
1.545280
 23
7.128440
  0
POLYLINE
  8
0
  6
CONTINUOUS
 66
     1
 40
0.000000
 41
0.000000
  0
VERTEX
  8
0
  6
CONTINUOUS
 10
0.883960
 20
6.760600
  0
VERTEX
  8
0
  6
CONTINUOUS
 10
1.536920
 20
7.133720
  0
VERTEX
  8
0
  6
CONTINUOUS
 10
1.545280
 20
7.128440
  0
VERTEX
  8
0
  6
CONTINUOUS
 10
0.892320
 20
6.754880
  0
VERTEX
  8
0
  6
CONTINUOUS
 10
0.883960
 20
6.760600
  0
SEQEND
  8
0
  0
SOLID
  8
0
 62
    15
 10
0.892320
 20
6.754880
 11
1.545280
 21
7.128440
 12
0.894960
 22
6.753560
 13
1.547480
 23
7.126680
  0
POLYLINE
  8
0
  6
CONTINUOUS
 66
     1
 40
0.000000
 41
0.000000
  0
VERTEX
  8
0
  6
CONTINUOUS
 10
0.892320
 20
6.754880
  0
VERTEX
  8
0
  6
CONTINUOUS
 10
1.545280
 20
7.128440
  0
VERTEX
  8
0
  6
CONTINUOUS
 10
1.547480
 20
7.126680
  0
VERTEX
  8
0
  6
CONTINUOUS
 10
0.894960
 20
6.753560
  0
VERTEX
  8
0
  6
CONTINUOUS
 10
0.892320
 20
6.754880
  0
SEQEND
  8
0
  0
SOLID
  8
0
 62
    15
 10
0.894960
 20
6.753560
 11
1.547480
 21
7.126680
 12
0.902000
 22
6.749160
 13
1.554960
 23
7.122280
  0
POLYLINE
  8
0
  6
CONTINUOUS
 66
     1
 40
0.000000
 41
0.000000
  0
VERTEX
  8
0
  6
CONTINUOUS
 10
0.894960
 20
6.753560
  0
VERTEX
  8
0
  6
CONTINUOUS
 10
1.547480
 20
7.126680
  0
VERTEX
  8
0
  6
CONTINUOUS
 10
1.554960
 20
7.122280
  0
VERTEX
  8
0
  6
CONTINUOUS
 10
0.902000
 20
6.749160
  0
VERTEX
  8
0
  6
CONTINUOUS
 10
0.894960
 20
6.753560
  0
SEQEND
  8
0
  0
SOLID
  8
0
 62
    15
 10
0.902000
 20
6.749160
 11
1.554960
 21
7.122280
 12
0.913440
 22
6.741680
 13
1.566400
 23
7.114800
  0
POLYLINE
  8
0
  6
CONTINUOUS
 66
     1
 40
0.000000
 41
0.000000
  0
VERTEX
  8
0
  6
CONTINUOUS
 10
0.902000
 20
6.749160
  0
VERTEX
  8
0
  6
CONTINUOUS
 10
1.554960
 20
7.122280
  0
VERTEX
  8
0
  6
CONTINUOUS
 10
1.566400
 20
7.114800
  0
VERTEX
  8
0
  6
CONTINUOUS
 10
0.913440
 20
6.741680
  0
VERTEX
  8
0
  6
CONTINUOUS
 10
0.902000
 20
6.749160
  0
SEQEND
  8
0
  0
SOLID
  8
0
 62
    15
 10
0.703560
 20
7.085760
 11
1.356080
 21
7.458880
 12
0.705320
 22
7.046600
 13
1.358280
 23
7.419720
  0
POLYLINE
  8
0
  6
CONTINUOUS
 66
     1
 40
0.000000
 41
0.000000
  0
VERTEX
  8
0
  6
CONTINUOUS
 10
0.703560
 20
7.085760
  0
VERTEX
  8
0
  6
CONTINUOUS
 10
1.356080
 20
7.458880
  0
VERTEX
  8
0
  6
CONTINUOUS
 10
1.358280
 20
7.419720
  0
VERTEX
  8
0
  6
CONTINUOUS
 10
0.705320
 20
7.046600
  0
VERTEX
  8
0
  6
CONTINUOUS
 10
0.703560
 20
7.085760
  0
SEQEND
  8
0
  0
SOLID
  8
0
 62
    15
 10
0.927960
 20
6.730680
 11
1.580920
 21
7.103800
 12
0.945120
 22
6.716600
 13
1.598080
 23
7.090160
  0
POLYLINE
  8
0
  6
CONTINUOUS
 66
     1
 40
0.000000
 41
0.000000
  0
VERTEX
  8
0
  6
CONTINUOUS
 10
0.927960
 20
6.730680
  0
VERTEX
  8
0
  6
CONTINUOUS
 10
1.580920
 20
7.103800
  0
VERTEX
  8
0
  6
CONTINUOUS
 10
1.598080
 20
7.090160
  0
VERTEX
  8
0
  6
CONTINUOUS
 10
0.945120
 20
6.716600
  0
VERTEX
  8
0
  6
CONTINUOUS
 10
0.927960
 20
6.730680
  0
SEQEND
  8
0
  0
SOLID
  8
0
 62
    15
 10
0.945120
 20
6.716600
 11
1.598080
 21
7.090160
 12
0.964480
 22
6.699440
 13
1.617440
 23
7.073000
  0
POLYLINE
  8
0
  6
CONTINUOUS
 66
     1
 40
0.000000
 41
0.000000
  0
VERTEX
  8
0
  6
CONTINUOUS
 10
0.945120
 20
6.716600
  0
VERTEX
  8
0
  6
CONTINUOUS
 10
1.598080
 20
7.090160
  0
VERTEX
  8
0
  6
CONTINUOUS
 10
1.617440
 20
7.073000
  0
VERTEX
  8
0
  6
CONTINUOUS
 10
0.964480
 20
6.699440
  0
VERTEX
  8
0
  6
CONTINUOUS
 10
0.945120
 20
6.716600
  0
SEQEND
  8
0
  0
SOLID
  8
0
 62
    15
 10
0.964480
 20
6.699440
 11
1.617440
 21
7.073000
 12
1.006720
 22
6.655000
 13
1.659680
 23
7.028560
  0
POLYLINE
  8
0
  6
CONTINUOUS
 66
     1
 40
0.000000
 41
0.000000
  0
VERTEX
  8
0
  6
CONTINUOUS
 10
0.964480
 20
6.699440
  0
VERTEX
  8
0
  6
CONTINUOUS
 10
1.617440
 20
7.073000
  0
VERTEX
  8
0
  6
CONTINUOUS
 10
1.659680
 20
7.028560
  0
VERTEX
  8
0
  6
CONTINUOUS
 10
1.006720
 20
6.655000
  0
VERTEX
  8
0
  6
CONTINUOUS
 10
0.964480
 20
6.699440
  0
SEQEND
  8
0
  0
SOLID
  8
0
 62
    15
 10
1.006720
 20
6.655000
 11
1.659680
 21
7.028560
 12
1.048520
 22
6.597360
 13
1.701480
 23
6.970480
  0
POLYLINE
  8
0
  6
CONTINUOUS
 66
     1
 40
0.000000
 41
0.000000
  0
VERTEX
  8
0
  6
CONTINUOUS
 10
1.006720
 20
6.655000
  0
VERTEX
  8
0
  6
CONTINUOUS
 10
1.659680
 20
7.028560
  0
VERTEX
  8
0
  6
CONTINUOUS
 10
1.701480
 20
6.970480
  0
VERTEX
  8
0
  6
CONTINUOUS
 10
1.048520
 20
6.597360
  0
VERTEX
  8
0
  6
CONTINUOUS
 10
1.006720
 20
6.655000
  0
SEQEND
  8
0
  0
SOLID
  8
0
 62
    15
 10
1.048520
 20
6.597360
 11
1.701480
 21
6.970480
 12
1.067880
 22
6.563040
 13
1.720840
 23
6.936160
  0
POLYLINE
  8
0
  6
CONTINUOUS
 66
     1
 40
0.000000
 41
0.000000
  0
VERTEX
  8
0
  6
CONTINUOUS
 10
1.048520
 20
6.597360
  0
VERTEX
  8
0
  6
CONTINUOUS
 10
1.701480
 20
6.970480
  0
VERTEX
  8
0
  6
CONTINUOUS
 10
1.720840
 20
6.936160
  0
VERTEX
  8
0
  6
CONTINUOUS
 10
1.067880
 20
6.563040
  0
VERTEX
  8
0
  6
CONTINUOUS
 10
1.048520
 20
6.597360
  0
SEQEND
  8
0
  0
SOLID
  8
0
 62
    15
 10
1.067880
 20
6.563040
 11
1.720840
 21
6.936160
 12
1.085480
 22
6.525200
 13
1.738000
 23
6.898320
  0
POLYLINE
  8
0
  6
CONTINUOUS
 66
     1
 40
0.000000
 41
0.000000
  0
VERTEX
  8
0
  6
CONTINUOUS
 10
1.067880
 20
6.563040
  0
VERTEX
  8
0
  6
CONTINUOUS
 10
1.720840
 20
6.936160
  0
VERTEX
  8
0
  6
CONTINUOUS
 10
1.738000
 20
6.898320
  0
VERTEX
  8
0
  6
CONTINUOUS
 10
1.085480
 20
6.525200
  0
VERTEX
  8
0
  6
CONTINUOUS
 10
1.067880
 20
6.563040
  0
SEQEND
  8
0
  0
SOLID
  8
0
 62
    15
 10
1.085480
 20
6.525200
 11
1.738000
 21
6.898320
 12
1.100000
 22
6.483840
 13
1.752960
 23
6.856960
  0
POLYLINE
  8
0
  6
CONTINUOUS
 66
     1
 40
0.000000
 41
0.000000
  0
VERTEX
  8
0
  6
CONTINUOUS
 10
1.085480
 20
6.525200
  0
VERTEX
  8
0
  6
CONTINUOUS
 10
1.738000
 20
6.898320
  0
VERTEX
  8
0
  6
CONTINUOUS
 10
1.752960
 20
6.856960
  0
VERTEX
  8
0
  6
CONTINUOUS
 10
1.100000
 20
6.483840
  0
VERTEX
  8
0
  6
CONTINUOUS
 10
1.085480
 20
6.525200
  0
SEQEND
  8
0
  0
SOLID
  8
0
 62
    15
 10
1.100000
 20
6.483840
 11
1.752960
 21
6.856960
 12
1.111440
 22
6.438960
 13
1.763960
 23
6.812080
  0
POLYLINE
  8
0
  6
CONTINUOUS
 66
     1
 40
0.000000
 41
0.000000
  0
VERTEX
  8
0
  6
CONTINUOUS
 10
1.100000
 20
6.483840
  0
VERTEX
  8
0
  6
CONTINUOUS
 10
1.752960
 20
6.856960
  0
VERTEX
  8
0
  6
CONTINUOUS
 10
1.763960
 20
6.812080
  0
VERTEX
  8
0
  6
CONTINUOUS
 10
1.111440
 20
6.438960
  0
VERTEX
  8
0
  6
CONTINUOUS
 10
1.100000
 20
6.483840
  0
SEQEND
  8
0
  0
SOLID
  8
0
 62
    15
 10
1.111440
 20
6.438960
 11
1.763960
 21
6.812080
 12
1.118480
 22
6.390120
 13
1.771440
 23
6.763240
  0
POLYLINE
  8
0
  6
CONTINUOUS
 66
     1
 40
0.000000
 41
0.000000
  0
VERTEX
  8
0
  6
CONTINUOUS
 10
1.111440
 20
6.438960
  0
VERTEX
  8
0
  6
CONTINUOUS
 10
1.763960
 20
6.812080
  0
VERTEX
  8
0
  6
CONTINUOUS
 10
1.771440
 20
6.763240
  0
VERTEX
  8
0
  6
CONTINUOUS
 10
1.118480
 20
6.390120
  0
VERTEX
  8
0
  6
CONTINUOUS
 10
1.111440
 20
6.438960
  0
SEQEND
  8
0
  0
SOLID
  8
0
 62
    15
 10
1.118480
 20
6.390120
 11
1.771440
 21
6.763240
 12
1.121120
 22
6.337320
 13
1.774080
 23
6.710440
  0
POLYLINE
  8
0
  6
CONTINUOUS
 66
     1
 40
0.000000
 41
0.000000
  0
VERTEX
  8
0
  6
CONTINUOUS
 10
1.118480
 20
6.390120
  0
VERTEX
  8
0
  6
CONTINUOUS
 10
1.771440
 20
6.763240
  0
VERTEX
  8
0
  6
CONTINUOUS
 10
1.774080
 20
6.710440
  0
VERTEX
  8
0
  6
CONTINUOUS
 10
1.121120
 20
6.337320
  0
VERTEX
  8
0
  6
CONTINUOUS
 10
1.118480
 20
6.390120
  0
SEQEND
  8
0
  0
SOLID
  8
0
 62
    15
 10
1.121120
 20
6.337320
 11
1.774080
 21
6.710440
 12
1.259280
 22
6.337320
 13
1.911800
 23
6.710440
  0
POLYLINE
  8
0
  6
CONTINUOUS
 66
     1
 40
0.000000
 41
0.000000
  0
VERTEX
  8
0
  6
CONTINUOUS
 10
1.121120
 20
6.337320
  0
VERTEX
  8
0
  6
CONTINUOUS
 10
1.774080
 20
6.710440
  0
VERTEX
  8
0
  6
CONTINUOUS
 10
1.911800
 20
6.710440
  0
VERTEX
  8
0
  6
CONTINUOUS
 10
1.259280
 20
6.337320
  0
VERTEX
  8
0
  6
CONTINUOUS
 10
1.121120
 20
6.337320
  0
SEQEND
  8
0
  0
SOLID
  8
0
 62
    15
 10
1.259280
 20
6.337320
 11
1.911800
 21
6.710440
 12
1.259280
 22
1.088560
 13
1.911800
 23
1.461680
  0
POLYLINE
  8
0
  6
CONTINUOUS
 66
     1
 40
0.000000
 41
0.000000
  0
VERTEX
  8
0
  6
CONTINUOUS
 10
1.259280
 20
6.337320
  0
VERTEX
  8
0
  6
CONTINUOUS
 10
1.911800
 20
6.710440
  0
VERTEX
  8
0
  6
CONTINUOUS
 10
1.911800
 20
1.461680
  0
VERTEX
  8
0
  6
CONTINUOUS
 10
1.259280
 20
1.088560
  0
VERTEX
  8
0
  6
CONTINUOUS
 10
1.259280
 20
6.337320
  0
SEQEND
  8
0
  0
SOLID
  8
0
 62
    15
 10
0.463760
 20
1.088560
 11
1.116280
 21
1.461680
 12
0.463760
 22
1.088560
 13
0.463760
 23
1.088120
  0
POLYLINE
  8
0
  6
CONTINUOUS
 66
     1
 40
0.000000
 41
0.000000
  0
VERTEX
  8
0
  6
CONTINUOUS
 10
0.463760
 20
1.088560
  0
VERTEX
  8
0
  6
CONTINUOUS
 10
1.116280
 20
1.461680
  0
VERTEX
  8
0
  6
CONTINUOUS
 10
0.463760
 20
1.088120
  0
VERTEX
  8
0
  6
CONTINUOUS
 10
0.463760
 20
1.088560
  0
SEQEND
  8
0
  0
POLYLINE
  8
0
  6
CONTINUOUS
 66
     1
 40
0.000000
 41
0.000000
  0
VERTEX
  8
0
  6
CONTINUOUS
 10
0.463760
 20
1.088120
  0
VERTEX
  8
0
  6
CONTINUOUS
 10
0.463760
 20
7.085760
  0
VERTEX
  8
0
  6
CONTINUOUS
 10
0.703560
 20
7.085760
  0
VERTEX
  8
0
  6
CONTINUOUS
 10
0.705320
 20
7.046600
  0
VERTEX
  8
0
  6
CONTINUOUS
 10
0.711480
 20
7.010080
  0
VERTEX
  8
0
  6
CONTINUOUS
 10
0.733040
 20
6.943640
  0
VERTEX
  8
0
  6
CONTINUOUS
 10
0.762960
 20
6.886880
  0
VERTEX
  8
0
  6
CONTINUOUS
 10
0.797720
 20
6.839800
  0
VERTEX
  8
0
  6
CONTINUOUS
 10
0.832480
 20
6.803280
  0
VERTEX
  8
0
  6
CONTINUOUS
 10
0.862840
 20
6.776440
  0
VERTEX
  8
0
  6
CONTINUOUS
 10
0.883960
 20
6.760600
  0
VERTEX
  8
0
  6
CONTINUOUS
 10
0.892320
 20
6.754880
  0
VERTEX
  8
0
  6
CONTINUOUS
 10
0.894960
 20
6.753560
  0
VERTEX
  8
0
  6
CONTINUOUS
 10
0.902000
 20
6.749160
  0
VERTEX
  8
0
  6
CONTINUOUS
 10
0.913440
 20
6.741680
  0
VERTEX
  8
0
  6
CONTINUOUS
 10
0.927960
 20
6.730680
  0
VERTEX
  8
0
  6
CONTINUOUS
 10
0.945120
 20
6.716600
  0
VERTEX
  8
0
  6
CONTINUOUS
 10
0.964480
 20
6.699440
  0
VERTEX
  8
0
  6
CONTINUOUS
 10
1.006720
 20
6.655000
  0
VERTEX
  8
0
  6
CONTINUOUS
 10
1.048520
 20
6.597360
  0
VERTEX
  8
0
  6
CONTINUOUS
 10
1.067880
 20
6.563040
  0
VERTEX
  8
0
  6
CONTINUOUS
 10
1.085480
 20
6.525200
  0
VERTEX
  8
0
  6
CONTINUOUS
 10
1.100000
 20
6.483840
  0
VERTEX
  8
0
  6
CONTINUOUS
 10
1.111440
 20
6.438960
  0
VERTEX
  8
0
  6
CONTINUOUS
 10
1.118480
 20
6.390120
  0
VERTEX
  8
0
  6
CONTINUOUS
 10
1.121120
 20
6.337320
  0
VERTEX
  8
0
  6
CONTINUOUS
 10
1.259280
 20
6.337320
  0
VERTEX
  8
0
  6
CONTINUOUS
 10
1.259280
 20
1.088560
  0
VERTEX
  8
0
  6
CONTINUOUS
 10
0.463760
 20
1.088560
  0
VERTEX
  8
0
  6
CONTINUOUS
 10
0.463760
 20
1.088120
  0
SEQEND
  8
0
  0
TEXT
  8
0
 10
0.810480
 20
0.753720
 40
0.137917
  1
BA  1124
 41
1.000000
  7
SN0
 71
     0
 72
     5
 11
1.491564
 21
0.753720
  0
TEXT
  8
0
 10
0.810480
 20
0.562320
 40
0.137917
  1
3/4" x 6"
 41
1.000000
  7
SN0
 71
     0
 72
     5
 11
1.424268
 21
0.562320
  0
POLYLINE
  8
0
  6
CONTINUOUS
 66
     1
 40
0.014080
 41
0.014080
  0
VERTEX
  8
0
  6
CONTINUOUS
 10
2.067560
 20
5.683040
  0
VERTEX
  8
0
  6
CONTINUOUS
 10
2.067560
 20
6.478560
  0
VERTEX
  8
0
  6
CONTINUOUS
 10
7.316320
 20
6.478560
  0
VERTEX
  8
0
  6
CONTINUOUS
 10
7.316320
 20
6.340840
  0
VERTEX
  8
0
  6
CONTINUOUS
 10
7.343160
 20
6.340400
  0
VERTEX
  8
0
  6
CONTINUOUS
 10
7.393760
 20
6.335120
  0
VERTEX
  8
0
  6
CONTINUOUS
 10
7.417960
 20
6.331160
  0
VERTEX
  8
0
  6
CONTINUOUS
 10
7.462840
 20
6.319720
  0
VERTEX
  8
0
  6
CONTINUOUS
 10
7.504200
 20
6.305200
  0
VERTEX
  8
0
  6
CONTINUOUS
 10
7.542040
 20
6.287600
  0
VERTEX
  8
0
  6
CONTINUOUS
 10
7.576360
 20
6.268240
  0
VERTEX
  8
0
  6
CONTINUOUS
 10
7.621240
 20
6.237000
  0
VERTEX
  8
0
  6
CONTINUOUS
 10
7.658200
 20
6.205320
  0
VERTEX
  8
0
  6
CONTINUOUS
 10
7.696040
 20
6.165280
  0
VERTEX
  8
0
  6
CONTINUOUS
 10
7.725080
 20
6.127000
  0
VERTEX
  8
0
  6
CONTINUOUS
 10
7.750600
 20
6.088720
  0
VERTEX
  8
0
  6
CONTINUOUS
 10
7.782280
 20
6.052200
  0
VERTEX
  8
0
  6
CONTINUOUS
 10
7.819240
 20
6.017440
  0
VERTEX
  8
0
  6
CONTINUOUS
 10
7.853560
 20
5.991040
  0
VERTEX
  8
0
  6
CONTINUOUS
 10
7.879080
 20
5.974320
  0
VERTEX
  8
0
  6
CONTINUOUS
 10
7.922640
 20
5.952320
  0
VERTEX
  8
0
  6
CONTINUOUS
 10
7.971480
 20
5.935160
  0
VERTEX
  8
0
  6
CONTINUOUS
 10
8.007120
 20
5.927680
  0
VERTEX
  8
0
  6
CONTINUOUS
 10
8.044960
 20
5.923280
  0
VERTEX
  8
0
  6
CONTINUOUS
 10
8.064760
 20
5.922840
  0
VERTEX
  8
0
  6
CONTINUOUS
 10
8.064760
 20
5.683040
  0
VERTEX
  8
0
  6
CONTINUOUS
 10
2.067560
 20
5.683040
  0
SEQEND
  8
0
  0
TEXT
  8
0
 10
2.435840
 20
6.017880
 40
0.137917
  1
BA  1124
 41
1.000000
  7
SN0
 71
     0
 72
     5
 11
3.116924
 21
6.017880
  0
TEXT
  8
0
 10
2.435840
 20
5.826480
 40
0.137917
  1
3/4" x 6"
 41
1.000000
  7
SN0
 71
     0
 72
     5
 11
3.049628
 21
5.826480
  0
ENDSEC
  0
EOF
