  0
SECTION
  2
HEADER
  9
$ACADVER
  1
AC1006
  9
$EXTMIN
 10
0.949960
 20
0.399080
  9
$EXTMAX
 10
7.988200
 20
10.074680
  9
$LTSCALE
 40
0.044000
  9
$PDMODE
 70
    35
  9
$PDSIZE
 40
0.035200
  0
ENDSEC
  0
SECTION
  2
TABLES
  0
TABLE
  2
LTYPE
 70
     9
  0
LTYPE
  2
CONTINUOUS
 70
    64
  3
Solid line
 72
    65
 73
     0
 40
0.000000
  0
LTYPE
  2
DASHED
 70
    64
  3
__ __ __ __ __ __ __ __ __ __ __ __ __ __ __
 72
    65
 73
     2
 40
0.000330
 49
0.000220
 49
-0.000110
  0
LTYPE
  2
HIDDEN
 70
    64
  3
 _ _ _ _ _ _ _ _ _ _ _ _ _ _ _ _ _ _ _ _ _ _
 72
    65
 73
     2
 40
0.000165
 49
0.000110
 49
-0.000055
  0
LTYPE
  2
CENTER
 70
    64
  3
____ _ ____ _ ____ _ ____ _ ____ _ ____ _ ____
 72
    65
 73
     4
 40
0.000880
 49
0.000550
 49
-0.000110
 49
0.000110
 49
-0.000110
  0
LTYPE
  2
PHANTOM
 70
    64
  3
_____ _ _ _____ _ _ _____ _ _ _____ _ _ ____
 72
    65
 73
     6
 40
0.001100
 49
0.000550
 49
-0.000110
 49
0.000110
 49
-0.000110
 49
0.000110
 49
-0.000110
  0
LTYPE
  2
DOT
 70
    64
  3
...............................................
 72
    65
 73
     2
 40
0.000110
 49
0.000000
 49
-0.000110
  0
LTYPE
  2
DASHDOT
 70
    64
  3
__ . __ . __ . __ . __ . __ . __ . __ . __ . __
 72
    65
 73
     4
 40
0.000440
 49
0.000220
 49
-0.000110
 49
0.000000
 49
-0.000110
  0
LTYPE
  2
BORDER
 70
    64
  3
__ __ . __ __ . __ __ . __ __ . __ __ . __ __
 72
    65
 73
     6
 40
0.000770
 49
0.000220
 49
-0.000110
 49
0.000220
 49
-0.000110
 49
0.000000
 49
-0.000110
  0
LTYPE
  2
DIVIDE
 70
    64
  3
__ . . __ . . __ . . __ . . __ . . __ . . __
 72
    65
 73
     6
 40
0.000550
 49
0.000220
 49
-0.000110
 49
0.000000
 49
-0.000110
 49
0.000000
 49
-0.000110
  0
LTYPE
  2
DOTDOT
 70
    64
  3
 . .  . .  . .  . .  . .  . . 
 72
    65
 73
     5
 40
0.000242
 49
-0.000110
 49
0.000000
 49
-0.000110
 49
0.000000
 49
-0.000110
  0
ENDTAB
  0
TABLE
  2
STYLE
 70
     2
  0
STYLE
 70
     0
  2
SN0
 40
0.000000
 41
0.000440
 50
0.000000
 71
     0
 42
0.000000
  3
ROMAND
  0
STYLE
 70
    68
  2
SV0
 40
0.000000
 41
0.000440
 50
0.000000
 71
     0
 42
0.000000
  3
ROMAND
  0
ENDTAB
  0
TABLE
  2
LAYER
 70
     3
  0
LAYER
  2
FOREGROUND
 70
    64
 62
     7
  6
CONTINUOUS
  0
LAYER
  2
BACKGROUND
 70
    65
 62
    -7
  6
CONTINUOUS
  0
LAYER
  2
0
 70
    64
 62
     7
  6
CONTINUOUS
  0
ENDTAB
  0
ENDSEC
  0
SECTION
  2
ENTITIES
  0
POLYLINE
  8
FOREGROUND
  6
CONTINUOUS
 66
     1
 40
0.000000
 41
0.000000
  0
VERTEX
  8
FOREGROUND
  6
CONTINUOUS
 10
0.000000
 20
10.473760
  0
VERTEX
  8
FOREGROUND
  6
CONTINUOUS
 10
8.499920
 20
10.473760
  0
VERTEX
  8
FOREGROUND
  6
CONTINUOUS
 10
8.499920
 20
-0.526240
  0
VERTEX
  8
FOREGROUND
  6
CONTINUOUS
 10
0.000000
 20
-0.526240
  0
VERTEX
  8
FOREGROUND
  6
CONTINUOUS
 10
0.000000
 20
10.473760
  0
SEQEND
  8
0
  0
POLYLINE
  8
FOREGROUND
  6
CONTINUOUS
 66
     1
 40
0.000000
 41
0.000000
  0
VERTEX
  8
FOREGROUND
  6
CONTINUOUS
 10
0.000000
 20
10.473760
  0
VERTEX
  8
FOREGROUND
  6
CONTINUOUS
 10
8.499920
 20
10.473760
  0
VERTEX
  8
FOREGROUND
  6
CONTINUOUS
 10
8.499920
 20
-0.526240
  0
VERTEX
  8
FOREGROUND
  6
CONTINUOUS
 10
0.000000
 20
-0.526240
  0
VERTEX
  8
FOREGROUND
  6
CONTINUOUS
 10
0.000000
 20
10.473760
  0
SEQEND
  8
0
  0
TEXT
  8
0
 10
3.414400
 20
3.927000
 40
0.137923
  1
BA  1120
 41
1.000000
  7
SN0
 71
     0
 72
     5
 11
4.098465
 21
3.927000
  0
TEXT
  8
0
 10
3.184720
 20
3.735600
 40
0.137923
  1
1-1/4" x 6-9/16"
 41
1.000000
  7
SN0
 71
     0
 72
     5
 11
4.329827
 21
3.735600
  0
SOLID
  8
0
 62
    15
 10
2.595560
 20
5.041520
 11
3.208040
 21
4.693040
 12
2.553760
 22
4.916560
 13
3.166240
 23
4.568080
  0
POLYLINE
  8
0
  6
CONTINUOUS
 66
     1
 40
0.000000
 41
0.000000
  0
VERTEX
  8
0
  6
CONTINUOUS
 10
2.595560
 20
5.041520
  0
VERTEX
  8
0
  6
CONTINUOUS
 10
3.208040
 20
4.693040
  0
VERTEX
  8
0
  6
CONTINUOUS
 10
3.166240
 20
4.568080
  0
VERTEX
  8
0
  6
CONTINUOUS
 10
2.553760
 20
4.916560
  0
VERTEX
  8
0
  6
CONTINUOUS
 10
2.595560
 20
5.041520
  0
SEQEND
  8
0
  0
SOLID
  8
0
 62
    15
 10
6.153840
 20
7.953880
 11
6.766320
 21
7.605840
 12
5.864760
 22
7.893600
 13
6.477240
 23
7.545560
  0
POLYLINE
  8
0
  6
CONTINUOUS
 66
     1
 40
0.000000
 41
0.000000
  0
VERTEX
  8
0
  6
CONTINUOUS
 10
6.153840
 20
7.953880
  0
VERTEX
  8
0
  6
CONTINUOUS
 10
6.766320
 20
7.605840
  0
VERTEX
  8
0
  6
CONTINUOUS
 10
6.477240
 20
7.545560
  0
VERTEX
  8
0
  6
CONTINUOUS
 10
5.864760
 20
7.893600
  0
VERTEX
  8
0
  6
CONTINUOUS
 10
6.153840
 20
7.953880
  0
SEQEND
  8
0
  0
SOLID
  8
0
 62
    15
 10
5.864760
 20
7.893600
 11
6.477240
 21
7.545560
 12
5.581400
 22
7.813960
 13
6.193880
 23
7.465480
  0
POLYLINE
  8
0
  6
CONTINUOUS
 66
     1
 40
0.000000
 41
0.000000
  0
VERTEX
  8
0
  6
CONTINUOUS
 10
5.864760
 20
7.893600
  0
VERTEX
  8
0
  6
CONTINUOUS
 10
6.477240
 20
7.545560
  0
VERTEX
  8
0
  6
CONTINUOUS
 10
6.193880
 20
7.465480
  0
VERTEX
  8
0
  6
CONTINUOUS
 10
5.581400
 20
7.813960
  0
VERTEX
  8
0
  6
CONTINUOUS
 10
5.864760
 20
7.893600
  0
SEQEND
  8
0
  0
SOLID
  8
0
 62
    15
 10
5.581400
 20
7.813960
 11
6.193880
 21
7.465480
 12
5.304640
 22
7.714960
 13
5.917120
 23
7.366480
  0
POLYLINE
  8
0
  6
CONTINUOUS
 66
     1
 40
0.000000
 41
0.000000
  0
VERTEX
  8
0
  6
CONTINUOUS
 10
5.581400
 20
7.813960
  0
VERTEX
  8
0
  6
CONTINUOUS
 10
6.193880
 20
7.465480
  0
VERTEX
  8
0
  6
CONTINUOUS
 10
5.917120
 20
7.366480
  0
VERTEX
  8
0
  6
CONTINUOUS
 10
5.304640
 20
7.714960
  0
VERTEX
  8
0
  6
CONTINUOUS
 10
5.581400
 20
7.813960
  0
SEQEND
  8
0
  0
SOLID
  8
0
 62
    15
 10
5.304640
 20
7.714960
 11
5.917120
 21
7.366480
 12
5.035360
 22
7.597920
 13
5.647400
 23
7.249440
  0
POLYLINE
  8
0
  6
CONTINUOUS
 66
     1
 40
0.000000
 41
0.000000
  0
VERTEX
  8
0
  6
CONTINUOUS
 10
5.304640
 20
7.714960
  0
VERTEX
  8
0
  6
CONTINUOUS
 10
5.917120
 20
7.366480
  0
VERTEX
  8
0
  6
CONTINUOUS
 10
5.647400
 20
7.249440
  0
VERTEX
  8
0
  6
CONTINUOUS
 10
5.035360
 20
7.597920
  0
VERTEX
  8
0
  6
CONTINUOUS
 10
5.304640
 20
7.714960
  0
SEQEND
  8
0
  0
SOLID
  8
0
 62
    15
 10
5.035360
 20
7.597920
 11
5.647400
 21
7.249440
 12
4.774440
 22
7.463280
 13
5.386480
 23
7.114800
  0
POLYLINE
  8
0
  6
CONTINUOUS
 66
     1
 40
0.000000
 41
0.000000
  0
VERTEX
  8
0
  6
CONTINUOUS
 10
5.035360
 20
7.597920
  0
VERTEX
  8
0
  6
CONTINUOUS
 10
5.647400
 20
7.249440
  0
VERTEX
  8
0
  6
CONTINUOUS
 10
5.386480
 20
7.114800
  0
VERTEX
  8
0
  6
CONTINUOUS
 10
4.774440
 20
7.463280
  0
VERTEX
  8
0
  6
CONTINUOUS
 10
5.035360
 20
7.597920
  0
SEQEND
  8
0
  0
SOLID
  8
0
 62
    15
 10
4.774440
 20
7.463280
 11
5.386480
 21
7.114800
 12
4.281640
 22
7.144280
 13
4.894120
 23
6.795800
  0
POLYLINE
  8
0
  6
CONTINUOUS
 66
     1
 40
0.000000
 41
0.000000
  0
VERTEX
  8
0
  6
CONTINUOUS
 10
4.774440
 20
7.463280
  0
VERTEX
  8
0
  6
CONTINUOUS
 10
5.386480
 20
7.114800
  0
VERTEX
  8
0
  6
CONTINUOUS
 10
4.894120
 20
6.795800
  0
VERTEX
  8
0
  6
CONTINUOUS
 10
4.281640
 20
7.144280
  0
VERTEX
  8
0
  6
CONTINUOUS
 10
4.774440
 20
7.463280
  0
SEQEND
  8
0
  0
SOLID
  8
0
 62
    15
 10
4.281640
 20
7.144280
 11
4.894120
 21
6.795800
 12
3.834160
 22
6.763680
 13
4.446640
 23
6.415200
  0
POLYLINE
  8
0
  6
CONTINUOUS
 66
     1
 40
0.000000
 41
0.000000
  0
VERTEX
  8
0
  6
CONTINUOUS
 10
4.281640
 20
7.144280
  0
VERTEX
  8
0
  6
CONTINUOUS
 10
4.894120
 20
6.795800
  0
VERTEX
  8
0
  6
CONTINUOUS
 10
4.446640
 20
6.415200
  0
VERTEX
  8
0
  6
CONTINUOUS
 10
3.834160
 20
6.763680
  0
VERTEX
  8
0
  6
CONTINUOUS
 10
4.281640
 20
7.144280
  0
SEQEND
  8
0
  0
SOLID
  8
0
 62
    15
 10
3.834160
 20
6.763680
 11
4.446640
 21
6.415200
 12
3.440360
 22
6.327200
 13
4.052400
 23
5.978720
  0
POLYLINE
  8
0
  6
CONTINUOUS
 66
     1
 40
0.000000
 41
0.000000
  0
VERTEX
  8
0
  6
CONTINUOUS
 10
3.834160
 20
6.763680
  0
VERTEX
  8
0
  6
CONTINUOUS
 10
4.446640
 20
6.415200
  0
VERTEX
  8
0
  6
CONTINUOUS
 10
4.052400
 20
5.978720
  0
VERTEX
  8
0
  6
CONTINUOUS
 10
3.440360
 20
6.327200
  0
VERTEX
  8
0
  6
CONTINUOUS
 10
3.834160
 20
6.763680
  0
SEQEND
  8
0
  0
SOLID
  8
0
 62
    15
 10
3.440360
 20
6.327200
 11
4.052400
 21
5.978720
 12
3.265240
 22
6.089600
 13
3.877720
 23
5.741120
  0
POLYLINE
  8
0
  6
CONTINUOUS
 66
     1
 40
0.000000
 41
0.000000
  0
VERTEX
  8
0
  6
CONTINUOUS
 10
3.440360
 20
6.327200
  0
VERTEX
  8
0
  6
CONTINUOUS
 10
4.052400
 20
5.978720
  0
VERTEX
  8
0
  6
CONTINUOUS
 10
3.877720
 20
5.741120
  0
VERTEX
  8
0
  6
CONTINUOUS
 10
3.265240
 20
6.089600
  0
VERTEX
  8
0
  6
CONTINUOUS
 10
3.440360
 20
6.327200
  0
SEQEND
  8
0
  0
SOLID
  8
0
 62
    15
 10
3.265240
 20
6.089600
 11
3.877720
 21
5.741120
 12
3.106840
 22
5.840120
 13
3.719320
 23
5.491640
  0
POLYLINE
  8
0
  6
CONTINUOUS
 66
     1
 40
0.000000
 41
0.000000
  0
VERTEX
  8
0
  6
CONTINUOUS
 10
3.265240
 20
6.089600
  0
VERTEX
  8
0
  6
CONTINUOUS
 10
3.877720
 20
5.741120
  0
VERTEX
  8
0
  6
CONTINUOUS
 10
3.719320
 20
5.491640
  0
VERTEX
  8
0
  6
CONTINUOUS
 10
3.106840
 20
5.840120
  0
VERTEX
  8
0
  6
CONTINUOUS
 10
3.265240
 20
6.089600
  0
SEQEND
  8
0
  0
SOLID
  8
0
 62
    15
 10
3.106840
 20
5.840120
 11
3.719320
 21
5.491640
 12
2.965600
 22
5.579640
 13
3.577640
 23
5.231160
  0
POLYLINE
  8
0
  6
CONTINUOUS
 66
     1
 40
0.000000
 41
0.000000
  0
VERTEX
  8
0
  6
CONTINUOUS
 10
3.106840
 20
5.840120
  0
VERTEX
  8
0
  6
CONTINUOUS
 10
3.719320
 20
5.491640
  0
VERTEX
  8
0
  6
CONTINUOUS
 10
3.577640
 20
5.231160
  0
VERTEX
  8
0
  6
CONTINUOUS
 10
2.965600
 20
5.579640
  0
VERTEX
  8
0
  6
CONTINUOUS
 10
3.106840
 20
5.840120
  0
SEQEND
  8
0
  0
SOLID
  8
0
 62
    15
 10
2.965600
 20
5.579640
 11
3.577640
 21
5.231160
 12
2.842400
 22
5.308600
 13
3.454440
 23
4.960120
  0
POLYLINE
  8
0
  6
CONTINUOUS
 66
     1
 40
0.000000
 41
0.000000
  0
VERTEX
  8
0
  6
CONTINUOUS
 10
2.965600
 20
5.579640
  0
VERTEX
  8
0
  6
CONTINUOUS
 10
3.577640
 20
5.231160
  0
VERTEX
  8
0
  6
CONTINUOUS
 10
3.454440
 20
4.960120
  0
VERTEX
  8
0
  6
CONTINUOUS
 10
2.842400
 20
5.308600
  0
VERTEX
  8
0
  6
CONTINUOUS
 10
2.965600
 20
5.579640
  0
SEQEND
  8
0
  0
SOLID
  8
0
 62
    15
 10
2.842400
 20
5.308600
 11
3.454440
 21
4.960120
 12
2.715240
 22
5.308600
 13
3.327720
 23
4.960120
  0
POLYLINE
  8
0
  6
CONTINUOUS
 66
     1
 40
0.000000
 41
0.000000
  0
VERTEX
  8
0
  6
CONTINUOUS
 10
2.842400
 20
5.308600
  0
VERTEX
  8
0
  6
CONTINUOUS
 10
3.454440
 20
4.960120
  0
VERTEX
  8
0
  6
CONTINUOUS
 10
3.327720
 20
4.960120
  0
VERTEX
  8
0
  6
CONTINUOUS
 10
2.715240
 20
5.308600
  0
VERTEX
  8
0
  6
CONTINUOUS
 10
2.842400
 20
5.308600
  0
SEQEND
  8
0
  0
SOLID
  8
0
 62
    15
 10
2.715240
 20
5.308600
 11
3.327720
 21
4.960120
 12
2.715680
 22
5.041520
 13
3.327720
 23
4.693040
  0
POLYLINE
  8
0
  6
CONTINUOUS
 66
     1
 40
0.000000
 41
0.000000
  0
VERTEX
  8
0
  6
CONTINUOUS
 10
2.715240
 20
5.308600
  0
VERTEX
  8
0
  6
CONTINUOUS
 10
3.327720
 20
4.960120
  0
VERTEX
  8
0
  6
CONTINUOUS
 10
3.327720
 20
4.693040
  0
VERTEX
  8
0
  6
CONTINUOUS
 10
2.715680
 20
5.041520
  0
VERTEX
  8
0
  6
CONTINUOUS
 10
2.715240
 20
5.308600
  0
SEQEND
  8
0
  0
SOLID
  8
0
 62
    15
 10
2.715680
 20
5.041520
 11
3.327720
 21
4.693040
 12
2.596000
 22
5.041520
 13
3.208040
 23
4.693040
  0
POLYLINE
  8
0
  6
CONTINUOUS
 66
     1
 40
0.000000
 41
0.000000
  0
VERTEX
  8
0
  6
CONTINUOUS
 10
2.715680
 20
5.041520
  0
VERTEX
  8
0
  6
CONTINUOUS
 10
3.327720
 20
4.693040
  0
VERTEX
  8
0
  6
CONTINUOUS
 10
3.208040
 20
4.693040
  0
VERTEX
  8
0
  6
CONTINUOUS
 10
2.596000
 20
5.041520
  0
VERTEX
  8
0
  6
CONTINUOUS
 10
2.715680
 20
5.041520
  0
SEQEND
  8
0
  0
SOLID
  8
0
 62
    15
 10
2.596000
 20
5.041520
 11
3.208040
 21
4.693040
 12
2.596000
 22
5.041520
 13
2.595560
 23
5.041520
  0
POLYLINE
  8
0
  6
CONTINUOUS
 66
     1
 40
0.000000
 41
0.000000
  0
VERTEX
  8
0
  6
CONTINUOUS
 10
2.596000
 20
5.041520
  0
VERTEX
  8
0
  6
CONTINUOUS
 10
3.208040
 20
4.693040
  0
VERTEX
  8
0
  6
CONTINUOUS
 10
2.595560
 20
5.041520
  0
VERTEX
  8
0
  6
CONTINUOUS
 10
2.596000
 20
5.041520
  0
SEQEND
  8
0
  0
SOLID
  8
0
 62
    15
 10
6.447320
 20
7.993920
 11
7.059800
 21
7.645880
 12
6.153840
 22
7.953880
 13
6.766320
 23
7.605840
  0
POLYLINE
  8
0
  6
CONTINUOUS
 66
     1
 40
0.000000
 41
0.000000
  0
VERTEX
  8
0
  6
CONTINUOUS
 10
6.447320
 20
7.993920
  0
VERTEX
  8
0
  6
CONTINUOUS
 10
7.059800
 20
7.645880
  0
VERTEX
  8
0
  6
CONTINUOUS
 10
6.766320
 20
7.605840
  0
VERTEX
  8
0
  6
CONTINUOUS
 10
6.153840
 20
7.953880
  0
VERTEX
  8
0
  6
CONTINUOUS
 10
6.447320
 20
7.993920
  0
SEQEND
  8
0
  0
SOLID
  8
0
 62
    15
 10
2.553760
 20
4.916560
 11
3.166240
 21
4.568080
 12
2.493920
 22
4.802600
 13
3.106400
 23
4.454120
  0
POLYLINE
  8
0
  6
CONTINUOUS
 66
     1
 40
0.000000
 41
0.000000
  0
VERTEX
  8
0
  6
CONTINUOUS
 10
2.553760
 20
4.916560
  0
VERTEX
  8
0
  6
CONTINUOUS
 10
3.166240
 20
4.568080
  0
VERTEX
  8
0
  6
CONTINUOUS
 10
3.106400
 20
4.454120
  0
VERTEX
  8
0
  6
CONTINUOUS
 10
2.493920
 20
4.802600
  0
VERTEX
  8
0
  6
CONTINUOUS
 10
2.553760
 20
4.916560
  0
SEQEND
  8
0
  0
SOLID
  8
0
 62
    15
 10
2.493920
 20
4.802600
 11
3.106400
 21
4.454120
 12
2.326720
 22
4.613840
 13
2.938760
 23
4.265800
  0
POLYLINE
  8
0
  6
CONTINUOUS
 66
     1
 40
0.000000
 41
0.000000
  0
VERTEX
  8
0
  6
CONTINUOUS
 10
2.493920
 20
4.802600
  0
VERTEX
  8
0
  6
CONTINUOUS
 10
3.106400
 20
4.454120
  0
VERTEX
  8
0
  6
CONTINUOUS
 10
2.938760
 20
4.265800
  0
VERTEX
  8
0
  6
CONTINUOUS
 10
2.326720
 20
4.613840
  0
VERTEX
  8
0
  6
CONTINUOUS
 10
2.493920
 20
4.802600
  0
SEQEND
  8
0
  0
SOLID
  8
0
 62
    15
 10
2.326720
 20
4.613840
 11
2.938760
 21
4.265800
 12
2.222880
 22
4.542560
 13
2.834920
 23
4.194520
  0
POLYLINE
  8
0
  6
CONTINUOUS
 66
     1
 40
0.000000
 41
0.000000
  0
VERTEX
  8
0
  6
CONTINUOUS
 10
2.326720
 20
4.613840
  0
VERTEX
  8
0
  6
CONTINUOUS
 10
2.938760
 20
4.265800
  0
VERTEX
  8
0
  6
CONTINUOUS
 10
2.834920
 20
4.194520
  0
VERTEX
  8
0
  6
CONTINUOUS
 10
2.222880
 20
4.542560
  0
VERTEX
  8
0
  6
CONTINUOUS
 10
2.326720
 20
4.613840
  0
SEQEND
  8
0
  0
SOLID
  8
0
 62
    15
 10
2.222880
 20
4.542560
 11
2.834920
 21
4.194520
 12
2.108040
 22
4.488880
 13
2.720080
 23
4.140400
  0
POLYLINE
  8
0
  6
CONTINUOUS
 66
     1
 40
0.000000
 41
0.000000
  0
VERTEX
  8
0
  6
CONTINUOUS
 10
2.222880
 20
4.542560
  0
VERTEX
  8
0
  6
CONTINUOUS
 10
2.834920
 20
4.194520
  0
VERTEX
  8
0
  6
CONTINUOUS
 10
2.720080
 20
4.140400
  0
VERTEX
  8
0
  6
CONTINUOUS
 10
2.108040
 20
4.488880
  0
VERTEX
  8
0
  6
CONTINUOUS
 10
2.222880
 20
4.542560
  0
SEQEND
  8
0
  0
SOLID
  8
0
 62
    15
 10
2.108040
 20
4.488880
 11
2.720080
 21
4.140400
 12
1.983960
 22
4.454120
 13
2.596440
 23
4.105640
  0
POLYLINE
  8
0
  6
CONTINUOUS
 66
     1
 40
0.000000
 41
0.000000
  0
VERTEX
  8
0
  6
CONTINUOUS
 10
2.108040
 20
4.488880
  0
VERTEX
  8
0
  6
CONTINUOUS
 10
2.720080
 20
4.140400
  0
VERTEX
  8
0
  6
CONTINUOUS
 10
2.596440
 20
4.105640
  0
VERTEX
  8
0
  6
CONTINUOUS
 10
1.983960
 20
4.454120
  0
VERTEX
  8
0
  6
CONTINUOUS
 10
2.108040
 20
4.488880
  0
SEQEND
  8
0
  0
SOLID
  8
0
 62
    15
 10
1.983960
 20
4.454120
 11
2.596440
 21
4.105640
 12
1.853280
 22
4.440040
 13
2.465320
 23
4.091560
  0
POLYLINE
  8
0
  6
CONTINUOUS
 66
     1
 40
0.000000
 41
0.000000
  0
VERTEX
  8
0
  6
CONTINUOUS
 10
1.983960
 20
4.454120
  0
VERTEX
  8
0
  6
CONTINUOUS
 10
2.596440
 20
4.105640
  0
VERTEX
  8
0
  6
CONTINUOUS
 10
2.465320
 20
4.091560
  0
VERTEX
  8
0
  6
CONTINUOUS
 10
1.853280
 20
4.440040
  0
VERTEX
  8
0
  6
CONTINUOUS
 10
1.983960
 20
4.454120
  0
SEQEND
  8
0
  0
SOLID
  8
0
 62
    15
 10
1.853280
 20
4.440040
 11
2.465320
 21
4.091560
 12
1.853280
 22
4.392520
 13
2.465320
 23
4.044480
  0
POLYLINE
  8
0
  6
CONTINUOUS
 66
     1
 40
0.000000
 41
0.000000
  0
VERTEX
  8
0
  6
CONTINUOUS
 10
1.853280
 20
4.440040
  0
VERTEX
  8
0
  6
CONTINUOUS
 10
2.465320
 20
4.091560
  0
VERTEX
  8
0
  6
CONTINUOUS
 10
2.465320
 20
4.044480
  0
VERTEX
  8
0
  6
CONTINUOUS
 10
1.853280
 20
4.392520
  0
VERTEX
  8
0
  6
CONTINUOUS
 10
1.853280
 20
4.440040
  0
SEQEND
  8
0
  0
SOLID
  8
0
 62
    15
 10
1.853280
 20
4.392520
 11
2.465320
 21
4.044480
 12
1.853280
 22
4.391640
 13
2.465760
 23
4.043160
  0
POLYLINE
  8
0
  6
CONTINUOUS
 66
     1
 40
0.000000
 41
0.000000
  0
VERTEX
  8
0
  6
CONTINUOUS
 10
1.853280
 20
4.392520
  0
VERTEX
  8
0
  6
CONTINUOUS
 10
2.465320
 20
4.044480
  0
VERTEX
  8
0
  6
CONTINUOUS
 10
2.465760
 20
4.043160
  0
VERTEX
  8
0
  6
CONTINUOUS
 10
1.853280
 20
4.391640
  0
VERTEX
  8
0
  6
CONTINUOUS
 10
1.853280
 20
4.392520
  0
SEQEND
  8
0
  0
SOLID
  8
0
 62
    15
 10
1.853280
 20
4.391640
 11
2.465760
 21
4.043160
 12
1.869560
 22
4.323440
 13
2.481600
 23
3.975400
  0
POLYLINE
  8
0
  6
CONTINUOUS
 66
     1
 40
0.000000
 41
0.000000
  0
VERTEX
  8
0
  6
CONTINUOUS
 10
1.853280
 20
4.391640
  0
VERTEX
  8
0
  6
CONTINUOUS
 10
2.465760
 20
4.043160
  0
VERTEX
  8
0
  6
CONTINUOUS
 10
2.481600
 20
3.975400
  0
VERTEX
  8
0
  6
CONTINUOUS
 10
1.869560
 20
4.323440
  0
VERTEX
  8
0
  6
CONTINUOUS
 10
1.853280
 20
4.391640
  0
SEQEND
  8
0
  0
SOLID
  8
0
 62
    15
 10
1.869560
 20
4.323440
 11
2.481600
 21
3.975400
 12
1.857240
 22
4.264040
 13
2.469720
 23
3.915560
  0
POLYLINE
  8
0
  6
CONTINUOUS
 66
     1
 40
0.000000
 41
0.000000
  0
VERTEX
  8
0
  6
CONTINUOUS
 10
1.869560
 20
4.323440
  0
VERTEX
  8
0
  6
CONTINUOUS
 10
2.481600
 20
3.975400
  0
VERTEX
  8
0
  6
CONTINUOUS
 10
2.469720
 20
3.915560
  0
VERTEX
  8
0
  6
CONTINUOUS
 10
1.857240
 20
4.264040
  0
VERTEX
  8
0
  6
CONTINUOUS
 10
1.869560
 20
4.323440
  0
SEQEND
  8
0
  0
SOLID
  8
0
 62
    15
 10
1.857240
 20
4.264040
 11
2.469720
 21
3.915560
 12
1.824680
 22
4.215200
 13
2.436720
 23
3.867160
  0
POLYLINE
  8
0
  6
CONTINUOUS
 66
     1
 40
0.000000
 41
0.000000
  0
VERTEX
  8
0
  6
CONTINUOUS
 10
1.857240
 20
4.264040
  0
VERTEX
  8
0
  6
CONTINUOUS
 10
2.469720
 20
3.915560
  0
VERTEX
  8
0
  6
CONTINUOUS
 10
2.436720
 20
3.867160
  0
VERTEX
  8
0
  6
CONTINUOUS
 10
1.824680
 20
4.215200
  0
VERTEX
  8
0
  6
CONTINUOUS
 10
1.857240
 20
4.264040
  0
SEQEND
  8
0
  0
SOLID
  8
0
 62
    15
 10
1.824680
 20
4.215200
 11
2.436720
 21
3.867160
 12
1.775840
 22
4.182640
 13
2.388320
 23
3.834160
  0
POLYLINE
  8
0
  6
CONTINUOUS
 66
     1
 40
0.000000
 41
0.000000
  0
VERTEX
  8
0
  6
CONTINUOUS
 10
1.824680
 20
4.215200
  0
VERTEX
  8
0
  6
CONTINUOUS
 10
2.436720
 20
3.867160
  0
VERTEX
  8
0
  6
CONTINUOUS
 10
2.388320
 20
3.834160
  0
VERTEX
  8
0
  6
CONTINUOUS
 10
1.775840
 20
4.182640
  0
VERTEX
  8
0
  6
CONTINUOUS
 10
1.824680
 20
4.215200
  0
SEQEND
  8
0
  0
SOLID
  8
0
 62
    15
 10
1.775840
 20
4.182640
 11
2.388320
 21
3.834160
 12
1.716440
 22
4.170320
 13
2.328480
 23
3.822280
  0
POLYLINE
  8
0
  6
CONTINUOUS
 66
     1
 40
0.000000
 41
0.000000
  0
VERTEX
  8
0
  6
CONTINUOUS
 10
1.775840
 20
4.182640
  0
VERTEX
  8
0
  6
CONTINUOUS
 10
2.388320
 20
3.834160
  0
VERTEX
  8
0
  6
CONTINUOUS
 10
2.328480
 20
3.822280
  0
VERTEX
  8
0
  6
CONTINUOUS
 10
1.716440
 20
4.170320
  0
VERTEX
  8
0
  6
CONTINUOUS
 10
1.775840
 20
4.182640
  0
SEQEND
  8
0
  0
SOLID
  8
0
 62
    15
 10
1.716440
 20
4.170320
 11
2.328480
 21
3.822280
 12
1.716440
 22
4.077040
 13
2.328480
 23
3.728560
  0
POLYLINE
  8
0
  6
CONTINUOUS
 66
     1
 40
0.000000
 41
0.000000
  0
VERTEX
  8
0
  6
CONTINUOUS
 10
1.716440
 20
4.170320
  0
VERTEX
  8
0
  6
CONTINUOUS
 10
2.328480
 20
3.822280
  0
VERTEX
  8
0
  6
CONTINUOUS
 10
2.328480
 20
3.728560
  0
VERTEX
  8
0
  6
CONTINUOUS
 10
1.716440
 20
4.077040
  0
VERTEX
  8
0
  6
CONTINUOUS
 10
1.716440
 20
4.170320
  0
SEQEND
  8
0
  0
SOLID
  8
0
 62
    15
 10
1.716440
 20
4.077040
 11
2.328480
 21
3.728560
 12
1.464760
 22
4.077040
 13
2.077240
 23
3.728560
  0
POLYLINE
  8
0
  6
CONTINUOUS
 66
     1
 40
0.000000
 41
0.000000
  0
VERTEX
  8
0
  6
CONTINUOUS
 10
1.716440
 20
4.077040
  0
VERTEX
  8
0
  6
CONTINUOUS
 10
2.328480
 20
3.728560
  0
VERTEX
  8
0
  6
CONTINUOUS
 10
2.077240
 20
3.728560
  0
VERTEX
  8
0
  6
CONTINUOUS
 10
1.464760
 20
4.077040
  0
VERTEX
  8
0
  6
CONTINUOUS
 10
1.716440
 20
4.077040
  0
SEQEND
  8
0
  0
SOLID
  8
0
 62
    15
 10
6.450840
 20
8.316880
 11
7.063320
 21
7.968400
 12
6.450840
 22
7.993480
 13
7.063320
 23
7.645440
  0
POLYLINE
  8
0
  6
CONTINUOUS
 66
     1
 40
0.000000
 41
0.000000
  0
VERTEX
  8
0
  6
CONTINUOUS
 10
6.450840
 20
8.316880
  0
VERTEX
  8
0
  6
CONTINUOUS
 10
7.063320
 20
7.968400
  0
VERTEX
  8
0
  6
CONTINUOUS
 10
7.063320
 20
7.645440
  0
VERTEX
  8
0
  6
CONTINUOUS
 10
6.450840
 20
7.993480
  0
VERTEX
  8
0
  6
CONTINUOUS
 10
6.450840
 20
8.316880
  0
SEQEND
  8
0
  0
SOLID
  8
0
 62
    15
 10
6.450840
 20
7.993480
 11
7.063320
 21
7.645440
 12
6.447320
 22
7.993920
 13
7.059800
 23
7.645880
  0
POLYLINE
  8
0
  6
CONTINUOUS
 66
     1
 40
0.000000
 41
0.000000
  0
VERTEX
  8
0
  6
CONTINUOUS
 10
6.450840
 20
7.993480
  0
VERTEX
  8
0
  6
CONTINUOUS
 10
7.063320
 20
7.645440
  0
VERTEX
  8
0
  6
CONTINUOUS
 10
7.059800
 20
7.645880
  0
VERTEX
  8
0
  6
CONTINUOUS
 10
6.447320
 20
7.993920
  0
VERTEX
  8
0
  6
CONTINUOUS
 10
6.450840
 20
7.993480
  0
SEQEND
  8
0
  0
POLYLINE
  8
0
  6
CONTINUOUS
 66
     1
 40
0.000000
 41
0.000000
  0
VERTEX
  8
0
  6
CONTINUOUS
 10
6.447320
 20
7.993920
  0
VERTEX
  8
0
  6
CONTINUOUS
 10
6.153840
 20
7.953880
  0
VERTEX
  8
0
  6
CONTINUOUS
 10
5.864760
 20
7.893600
  0
VERTEX
  8
0
  6
CONTINUOUS
 10
5.581400
 20
7.813960
  0
VERTEX
  8
0
  6
CONTINUOUS
 10
5.304640
 20
7.714960
  0
VERTEX
  8
0
  6
CONTINUOUS
 10
5.035360
 20
7.597920
  0
VERTEX
  8
0
  6
CONTINUOUS
 10
4.774440
 20
7.463280
  0
VERTEX
  8
0
  6
CONTINUOUS
 10
4.281640
 20
7.144280
  0
VERTEX
  8
0
  6
CONTINUOUS
 10
3.834160
 20
6.763680
  0
VERTEX
  8
0
  6
CONTINUOUS
 10
3.440360
 20
6.327200
  0
VERTEX
  8
0
  6
CONTINUOUS
 10
3.265240
 20
6.089600
  0
VERTEX
  8
0
  6
CONTINUOUS
 10
3.106840
 20
5.840120
  0
VERTEX
  8
0
  6
CONTINUOUS
 10
2.965600
 20
5.579640
  0
VERTEX
  8
0
  6
CONTINUOUS
 10
2.842400
 20
5.308600
  0
VERTEX
  8
0
  6
CONTINUOUS
 10
2.715240
 20
5.308600
  0
VERTEX
  8
0
  6
CONTINUOUS
 10
2.715680
 20
5.041520
  0
VERTEX
  8
0
  6
CONTINUOUS
 10
2.596000
 20
5.041520
  0
VERTEX
  8
0
  6
CONTINUOUS
 10
2.595560
 20
5.041520
  0
VERTEX
  8
0
  6
CONTINUOUS
 10
2.553760
 20
4.916560
  0
VERTEX
  8
0
  6
CONTINUOUS
 10
2.493920
 20
4.802600
  0
VERTEX
  8
0
  6
CONTINUOUS
 10
2.326720
 20
4.613840
  0
VERTEX
  8
0
  6
CONTINUOUS
 10
2.222880
 20
4.542560
  0
VERTEX
  8
0
  6
CONTINUOUS
 10
2.108040
 20
4.488880
  0
VERTEX
  8
0
  6
CONTINUOUS
 10
1.983960
 20
4.454120
  0
VERTEX
  8
0
  6
CONTINUOUS
 10
1.853280
 20
4.440040
  0
VERTEX
  8
0
  6
CONTINUOUS
 10
1.853280
 20
4.392520
  0
VERTEX
  8
0
  6
CONTINUOUS
 10
1.853280
 20
4.391640
  0
VERTEX
  8
0
  6
CONTINUOUS
 10
1.869560
 20
4.323440
  0
VERTEX
  8
0
  6
CONTINUOUS
 10
1.857240
 20
4.264040
  0
VERTEX
  8
0
  6
CONTINUOUS
 10
1.824680
 20
4.215200
  0
VERTEX
  8
0
  6
CONTINUOUS
 10
1.775840
 20
4.182640
  0
VERTEX
  8
0
  6
CONTINUOUS
 10
1.716440
 20
4.170320
  0
VERTEX
  8
0
  6
CONTINUOUS
 10
1.716440
 20
4.077040
  0
VERTEX
  8
0
  6
CONTINUOUS
 10
1.464760
 20
4.077040
  0
VERTEX
  8
0
  6
CONTINUOUS
 10
1.464760
 20
5.467880
  0
VERTEX
  8
0
  6
CONTINUOUS
 10
1.465640
 20
5.467880
  0
VERTEX
  8
0
  6
CONTINUOUS
 10
4.909080
 20
8.316440
  0
VERTEX
  8
0
  6
CONTINUOUS
 10
6.450840
 20
8.316880
  0
VERTEX
  8
0
  6
CONTINUOUS
 10
6.450840
 20
7.993480
  0
VERTEX
  8
0
  6
CONTINUOUS
 10
6.447320
 20
7.993920
  0
SEQEND
  8
0
  0
POLYLINE
  8
0
  6
CONTINUOUS
 66
     1
 40
0.000000
 41
0.000000
  0
VERTEX
  8
0
  6
CONTINUOUS
 10
7.286840
 20
1.628880
  0
VERTEX
  8
0
  6
CONTINUOUS
 10
7.162320
 20
1.548360
  0
VERTEX
  8
0
  6
CONTINUOUS
 10
7.035160
 20
1.472680
  0
VERTEX
  8
0
  6
CONTINUOUS
 10
6.905800
 20
1.401400
  0
VERTEX
  8
0
  6
CONTINUOUS
 10
6.774240
 20
1.334960
  0
VERTEX
  8
0
  6
CONTINUOUS
 10
6.640480
 20
1.272920
  0
VERTEX
  8
0
  6
CONTINUOUS
 10
6.504960
 20
1.216160
  0
VERTEX
  8
0
  6
CONTINUOUS
 10
6.367240
 20
1.163360
  0
VERTEX
  8
0
  6
CONTINUOUS
 10
6.228640
 20
1.115840
  0
VERTEX
  8
0
  6
CONTINUOUS
 10
6.158240
 20
1.093400
  0
VERTEX
  8
0
  6
CONTINUOUS
 10
6.017440
 20
1.052920
  0
VERTEX
  8
0
  6
CONTINUOUS
 10
5.946160
 20
1.034000
  0
VERTEX
  8
0
  6
CONTINUOUS
 10
5.803160
 20
1.000560
  0
VERTEX
  8
0
  6
CONTINUOUS
 10
5.659280
 20
0.971520
  0
VERTEX
  8
0
  6
CONTINUOUS
 10
5.514520
 20
0.947320
  0
VERTEX
  8
0
  6
CONTINUOUS
 10
5.441920
 20
0.936760
  0
VERTEX
  8
0
  6
CONTINUOUS
 10
5.295840
 20
0.920040
  0
VERTEX
  8
0
  6
CONTINUOUS
 10
5.222800
 20
0.913000
  0
VERTEX
  8
0
  6
CONTINUOUS
 10
5.076280
 20
0.903320
  0
VERTEX
  8
0
  6
CONTINUOUS
 10
5.002800
 20
0.899800
  0
VERTEX
  8
0
  6
CONTINUOUS
 10
4.855840
 20
0.897160
  0
VERTEX
  8
0
  6
CONTINUOUS
 10
4.709320
 20
0.899360
  0
VERTEX
  8
0
  6
CONTINUOUS
 10
4.562360
 20
0.905960
  0
VERTEX
  8
0
  6
CONTINUOUS
 10
4.415840
 20
0.917840
  0
VERTEX
  8
0
  6
CONTINUOUS
 10
4.269760
 20
0.934120
  0
VERTEX
  8
0
  6
CONTINUOUS
 10
4.124120
 20
0.955240
  0
VERTEX
  8
0
  6
CONTINUOUS
 10
3.978920
 20
0.981640
  0
VERTEX
  8
0
  6
CONTINUOUS
 10
3.907200
 20
0.996160
  0
VERTEX
  8
0
  6
CONTINUOUS
 10
3.763320
 20
1.029600
  0
VERTEX
  8
0
  6
CONTINUOUS
 10
3.620760
 20
1.067880
  0
VERTEX
  8
0
  6
CONTINUOUS
 10
3.479520
 20
1.111000
  0
VERTEX
  8
0
  6
CONTINUOUS
 10
3.340040
 20
1.158960
  0
VERTEX
  8
0
  6
CONTINUOUS
 10
3.201440
 20
1.211760
  0
VERTEX
  8
0
  6
CONTINUOUS
 10
3.064600
 20
1.269840
  0
VERTEX
  8
0
  6
CONTINUOUS
 10
2.929960
 20
1.332320
  0
VERTEX
  8
0
  6
CONTINUOUS
 10
2.797080
 20
1.400080
  0
VERTEX
  8
0
  6
CONTINUOUS
 10
2.699400
 20
1.319120
  0
VERTEX
  8
0
  6
CONTINUOUS
 10
2.529120
 20
1.525040
  0
VERTEX
  8
0
  6
CONTINUOUS
 10
2.436720
 20
1.448480
  0
VERTEX
  8
0
  6
CONTINUOUS
 10
2.382160
 20
1.485880
  0
VERTEX
  8
0
  6
CONTINUOUS
 10
2.324960
 20
1.518440
  0
VERTEX
  8
0
  6
CONTINUOUS
 10
2.266440
 20
1.545720
  0
VERTEX
  8
0
  6
CONTINUOUS
 10
2.236520
 20
1.557600
  0
VERTEX
  8
0
  6
CONTINUOUS
 10
2.175800
 20
1.577400
  0
VERTEX
  8
0
  6
CONTINUOUS
 10
2.114200
 20
1.591920
  0
VERTEX
  8
0
  6
CONTINUOUS
 10
2.051280
 20
1.601600
  0
VERTEX
  8
0
  6
CONTINUOUS
 10
2.020040
 20
1.604680
  0
VERTEX
  8
0
  6
CONTINUOUS
 10
1.957120
 20
1.606440
  0
VERTEX
  8
0
  6
CONTINUOUS
 10
1.894200
 20
1.603360
  0
VERTEX
  8
0
  6
CONTINUOUS
 10
1.831720
 20
1.595440
  0
VERTEX
  8
0
  6
CONTINUOUS
 10
1.769680
 20
1.581800
  0
VERTEX
  8
0
  6
CONTINUOUS
 10
1.708960
 20
1.563760
  0
VERTEX
  8
0
  6
CONTINUOUS
 10
1.649560
 20
1.540000
  0
VERTEX
  8
0
  6
CONTINUOUS
 10
1.591480
 20
1.511400
  0
VERTEX
  8
0
  6
CONTINUOUS
 10
1.535160
 20
1.477520
  0
VERTEX
  8
0
  6
CONTINUOUS
 10
1.481480
 20
1.438800
  0
VERTEX
  8
0
  6
CONTINUOUS
 10
1.450680
 20
1.476200
  0
VERTEX
  8
0
  6
CONTINUOUS
 10
1.445840
 20
1.492920
  0
VERTEX
  8
0
  6
CONTINUOUS
 10
1.439240
 20
1.509200
  0
VERTEX
  8
0
  6
CONTINUOUS
 10
1.430440
 20
1.524600
  0
VERTEX
  8
0
  6
CONTINUOUS
 10
1.409320
 20
1.550120
  0
VERTEX
  8
0
  6
CONTINUOUS
 10
1.397880
 20
1.560680
  0
VERTEX
  8
0
  6
CONTINUOUS
 10
1.372360
 20
1.576960
  0
VERTEX
  8
0
  6
CONTINUOUS
 10
1.345080
 20
1.587960
  0
VERTEX
  8
0
  6
CONTINUOUS
 10
1.316040
 20
1.593680
  0
VERTEX
  8
0
  6
CONTINUOUS
 10
1.287000
 20
1.593680
  0
VERTEX
  8
0
  6
CONTINUOUS
 10
1.257960
 20
1.587960
  0
VERTEX
  8
0
  6
CONTINUOUS
 10
1.243880
 20
1.583120
  0
VERTEX
  8
0
  6
CONTINUOUS
 10
1.217040
 20
1.568600
  0
VERTEX
  8
0
  6
CONTINUOUS
 10
1.204280
 20
1.559360
  0
VERTEX
  8
0
  6
CONTINUOUS
 10
1.144440
 20
1.631080
  0
VERTEX
  8
0
  6
CONTINUOUS
 10
0.950840
 20
1.470920
  0
VERTEX
  8
0
  6
CONTINUOUS
 10
1.837440
 20
0.399080
  0
VERTEX
  8
0
  6
CONTINUOUS
 10
6.306960
 20
0.399520
  0
VERTEX
  8
0
  6
CONTINUOUS
 10
7.494960
 20
1.382480
  0
VERTEX
  8
0
  6
CONTINUOUS
 10
7.289040
 20
1.631080
  0
VERTEX
  8
0
  6
CONTINUOUS
 10
7.286840
 20
1.628880
  0
SEQEND
  8
0
  0
POLYLINE
  8
0
  6
CONTINUOUS
 66
     1
 40
0.000000
 41
0.000000
  0
VERTEX
  8
0
  6
CONTINUOUS
 10
1.186240
 20
3.391080
  0
VERTEX
  8
0
  6
CONTINUOUS
 10
1.310760
 20
3.310560
  0
VERTEX
  8
0
  6
CONTINUOUS
 10
1.437920
 20
3.234880
  0
VERTEX
  8
0
  6
CONTINUOUS
 10
1.567280
 20
3.163600
  0
VERTEX
  8
0
  6
CONTINUOUS
 10
1.698840
 20
3.097160
  0
VERTEX
  8
0
  6
CONTINUOUS
 10
1.832600
 20
3.035560
  0
VERTEX
  8
0
  6
CONTINUOUS
 10
1.968120
 20
2.978360
  0
VERTEX
  8
0
  6
CONTINUOUS
 10
2.105400
 20
2.925560
  0
VERTEX
  8
0
  6
CONTINUOUS
 10
2.244440
 20
2.878040
  0
VERTEX
  8
0
  6
CONTINUOUS
 10
2.314840
 20
2.855600
  0
VERTEX
  8
0
  6
CONTINUOUS
 10
2.455640
 20
2.815120
  0
VERTEX
  8
0
  6
CONTINUOUS
 10
2.598200
 20
2.779040
  0
VERTEX
  8
0
  6
CONTINUOUS
 10
2.741640
 20
2.747800
  0
VERTEX
  8
0
  6
CONTINUOUS
 10
2.885960
 20
2.720960
  0
VERTEX
  8
0
  6
CONTINUOUS
 10
3.031160
 20
2.699400
  0
VERTEX
  8
0
  6
CONTINUOUS
 10
3.176800
 20
2.682240
  0
VERTEX
  8
0
  6
CONTINUOUS
 10
3.323320
 20
2.669920
  0
VERTEX
  8
0
  6
CONTINUOUS
 10
3.469840
 20
2.662440
  0
VERTEX
  8
0
  6
CONTINUOUS
 10
3.543320
 20
2.660240
  0
VERTEX
  8
0
  6
CONTINUOUS
 10
3.690280
 20
2.660240
  0
VERTEX
  8
0
  6
CONTINUOUS
 10
3.763760
 20
2.661560
  0
VERTEX
  8
0
  6
CONTINUOUS
 10
3.910720
 20
2.668600
  0
VERTEX
  8
0
  6
CONTINUOUS
 10
4.057240
 20
2.680040
  0
VERTEX
  8
0
  6
CONTINUOUS
 10
4.203320
 20
2.696760
  0
VERTEX
  8
0
  6
CONTINUOUS
 10
4.276360
 20
2.706440
  0
VERTEX
  8
0
  6
CONTINUOUS
 10
4.421560
 20
2.730200
  0
VERTEX
  8
0
  6
CONTINUOUS
 10
4.565880
 20
2.758800
  0
VERTEX
  8
0
  6
CONTINUOUS
 10
4.709320
 20
2.792240
  0
VERTEX
  8
0
  6
CONTINUOUS
 10
4.851880
 20
2.830520
  0
VERTEX
  8
0
  6
CONTINUOUS
 10
4.993120
 20
2.873640
  0
VERTEX
  8
0
  6
CONTINUOUS
 10
5.133040
 20
2.921600
  0
VERTEX
  8
0
  6
CONTINUOUS
 10
5.271640
 20
2.974400
  0
VERTEX
  8
0
  6
CONTINUOUS
 10
5.408040
 20
3.032480
  0
VERTEX
  8
0
  6
CONTINUOUS
 10
5.543120
 20
3.094960
  0
VERTEX
  8
0
  6
CONTINUOUS
 10
5.676000
 20
3.162720
  0
VERTEX
  8
0
  6
CONTINUOUS
 10
5.773680
 20
3.081760
  0
VERTEX
  8
0
  6
CONTINUOUS
 10
5.943960
 20
3.287240
  0
VERTEX
  8
0
  6
CONTINUOUS
 10
6.036360
 20
3.211120
  0
VERTEX
  8
0
  6
CONTINUOUS
 10
6.090920
 20
3.248520
  0
VERTEX
  8
0
  6
CONTINUOUS
 10
6.147680
 20
3.280640
  0
VERTEX
  8
0
  6
CONTINUOUS
 10
6.206640
 20
3.307920
  0
VERTEX
  8
0
  6
CONTINUOUS
 10
6.266480
 20
3.330360
  0
VERTEX
  8
0
  6
CONTINUOUS
 10
6.328080
 20
3.347520
  0
VERTEX
  8
0
  6
CONTINUOUS
 10
6.390120
 20
3.359840
  0
VERTEX
  8
0
  6
CONTINUOUS
 10
6.452600
 20
3.366880
  0
VERTEX
  8
0
  6
CONTINUOUS
 10
6.515960
 20
3.368640
  0
VERTEX
  8
0
  6
CONTINUOUS
 10
6.578880
 20
3.365560
  0
VERTEX
  8
0
  6
CONTINUOUS
 10
6.641360
 20
3.357640
  0
VERTEX
  8
0
  6
CONTINUOUS
 10
6.702960
 20
3.344440
  0
VERTEX
  8
0
  6
CONTINUOUS
 10
6.764120
 20
3.325960
  0
VERTEX
  8
0
  6
CONTINUOUS
 10
6.823520
 20
3.302200
  0
VERTEX
  8
0
  6
CONTINUOUS
 10
6.881600
 20
3.273600
  0
VERTEX
  8
0
  6
CONTINUOUS
 10
6.937920
 20
3.239720
  0
VERTEX
  8
0
  6
CONTINUOUS
 10
6.991600
 20
3.201000
  0
VERTEX
  8
0
  6
CONTINUOUS
 10
7.022400
 20
3.238400
  0
VERTEX
  8
0
  6
CONTINUOUS
 10
7.027240
 20
3.255560
  0
VERTEX
  8
0
  6
CONTINUOUS
 10
7.033840
 20
3.271840
  0
VERTEX
  8
0
  6
CONTINUOUS
 10
7.042640
 20
3.287240
  0
VERTEX
  8
0
  6
CONTINUOUS
 10
7.063760
 20
3.312760
  0
VERTEX
  8
0
  6
CONTINUOUS
 10
7.087520
 20
3.332120
  0
VERTEX
  8
0
  6
CONTINUOUS
 10
7.113920
 20
3.345760
  0
VERTEX
  8
0
  6
CONTINUOUS
 10
7.142080
 20
3.354120
  0
VERTEX
  8
0
  6
CONTINUOUS
 10
7.171560
 20
3.356760
  0
VERTEX
  8
0
  6
CONTINUOUS
 10
7.200600
 20
3.353680
  0
VERTEX
  8
0
  6
CONTINUOUS
 10
7.229200
 20
3.345320
  0
VERTEX
  8
0
  6
CONTINUOUS
 10
7.256040
 20
3.330800
  0
VERTEX
  8
0
  6
CONTINUOUS
 10
7.268800
 20
3.321560
  0
VERTEX
  8
0
  6
CONTINUOUS
 10
7.328640
 20
3.393720
  0
VERTEX
  8
0
  6
CONTINUOUS
 10
7.522240
 20
3.233120
  0
VERTEX
  8
0
  6
CONTINUOUS
 10
6.635640
 20
2.161720
  0
VERTEX
  8
0
  6
CONTINUOUS
 10
2.165680
 20
2.162160
  0
VERTEX
  8
0
  6
CONTINUOUS
 10
0.978120
 20
3.144680
  0
VERTEX
  8
0
  6
CONTINUOUS
 10
1.183600
 20
3.393720
  0
VERTEX
  8
0
  6
CONTINUOUS
 10
1.186240
 20
3.391080
  0
SEQEND
  8
0
  0
POLYLINE
  8
0
  6
CONTINUOUS
 66
     1
 40
0.014080
 41
0.014080
  0
VERTEX
  8
0
  6
CONTINUOUS
 10
1.642520
 20
10.061920
  0
VERTEX
  8
0
  6
CONTINUOUS
 10
1.767040
 20
9.981400
  0
VERTEX
  8
0
  6
CONTINUOUS
 10
1.894200
 20
9.905720
  0
VERTEX
  8
0
  6
CONTINUOUS
 10
2.023560
 20
9.834440
  0
VERTEX
  8
0
  6
CONTINUOUS
 10
2.155120
 20
9.768000
  0
VERTEX
  8
0
  6
CONTINUOUS
 10
2.288880
 20
9.706400
  0
VERTEX
  8
0
  6
CONTINUOUS
 10
2.424400
 20
9.649200
  0
VERTEX
  8
0
  6
CONTINUOUS
 10
2.561680
 20
9.596840
  0
VERTEX
  8
0
  6
CONTINUOUS
 10
2.700720
 20
9.548880
  0
VERTEX
  8
0
  6
CONTINUOUS
 10
2.841520
 20
9.505760
  0
VERTEX
  8
0
  6
CONTINUOUS
 10
2.983200
 20
9.467480
  0
VERTEX
  8
0
  6
CONTINUOUS
 10
3.126200
 20
9.433600
  0
VERTEX
  8
0
  6
CONTINUOUS
 10
3.270080
 20
9.405000
  0
VERTEX
  8
0
  6
CONTINUOUS
 10
3.414840
 20
9.380800
  0
VERTEX
  8
0
  6
CONTINUOUS
 10
3.560480
 20
9.361000
  0
VERTEX
  8
0
  6
CONTINUOUS
 10
3.706560
 20
9.346480
  0
VERTEX
  8
0
  6
CONTINUOUS
 10
3.853080
 20
9.336360
  0
VERTEX
  8
0
  6
CONTINUOUS
 10
3.999600
 20
9.331520
  0
VERTEX
  8
0
  6
CONTINUOUS
 10
4.146560
 20
9.331080
  0
VERTEX
  8
0
  6
CONTINUOUS
 10
4.293520
 20
9.335480
  0
VERTEX
  8
0
  6
CONTINUOUS
 10
4.440040
 20
9.344720
  0
VERTEX
  8
0
  6
CONTINUOUS
 10
4.586560
 20
9.358800
  0
VERTEX
  8
0
  6
CONTINUOUS
 10
4.732200
 20
9.377720
  0
VERTEX
  8
0
  6
CONTINUOUS
 10
4.804800
 20
9.388720
  0
VERTEX
  8
0
  6
CONTINUOUS
 10
4.950000
 20
9.415120
  0
VERTEX
  8
0
  6
CONTINUOUS
 10
5.022160
 20
9.429640
  0
VERTEX
  8
0
  6
CONTINUOUS
 10
5.165600
 20
9.463080
  0
VERTEX
  8
0
  6
CONTINUOUS
 10
5.308160
 20
9.501360
  0
VERTEX
  8
0
  6
CONTINUOUS
 10
5.449400
 20
9.544480
  0
VERTEX
  8
0
  6
CONTINUOUS
 10
5.589320
 20
9.592440
  0
VERTEX
  8
0
  6
CONTINUOUS
 10
5.727480
 20
9.645240
  0
VERTEX
  8
0
  6
CONTINUOUS
 10
5.864320
 20
9.703320
  0
VERTEX
  8
0
  6
CONTINUOUS
 10
5.998960
 20
9.765800
  0
VERTEX
  8
0
  6
CONTINUOUS
 10
6.131840
 20
9.833560
  0
VERTEX
  8
0
  6
CONTINUOUS
 10
6.229520
 20
9.752600
  0
VERTEX
  8
0
  6
CONTINUOUS
 10
6.399800
 20
9.958080
  0
VERTEX
  8
0
  6
CONTINUOUS
 10
6.492200
 20
9.881960
  0
VERTEX
  8
0
  6
CONTINUOUS
 10
6.547200
 20
9.919360
  0
VERTEX
  8
0
  6
CONTINUOUS
 10
6.603960
 20
9.951480
  0
VERTEX
  8
0
  6
CONTINUOUS
 10
6.633000
 20
9.966000
  0
VERTEX
  8
0
  6
CONTINUOUS
 10
6.692400
 20
9.990640
  0
VERTEX
  8
0
  6
CONTINUOUS
 10
6.753120
 20
10.010440
  0
VERTEX
  8
0
  6
CONTINUOUS
 10
6.815160
 20
10.025400
  0
VERTEX
  8
0
  6
CONTINUOUS
 10
6.877640
 20
10.034640
  0
VERTEX
  8
0
  6
CONTINUOUS
 10
6.940560
 20
10.039480
  0
VERTEX
  8
0
  6
CONTINUOUS
 10
6.972240
 20
10.039920
  0
VERTEX
  8
0
  6
CONTINUOUS
 10
7.035160
 20
10.036840
  0
VERTEX
  8
0
  6
CONTINUOUS
 10
7.097640
 20
10.028480
  0
VERTEX
  8
0
  6
CONTINUOUS
 10
7.128440
 20
10.022760
  0
VERTEX
  8
0
  6
CONTINUOUS
 10
7.190040
 20
10.006920
  0
VERTEX
  8
0
  6
CONTINUOUS
 10
7.220400
 20
9.997240
  0
VERTEX
  8
0
  6
CONTINUOUS
 10
7.279800
 20
9.973480
  0
VERTEX
  8
0
  6
CONTINUOUS
 10
7.337880
 20
9.944880
  0
VERTEX
  8
0
  6
CONTINUOUS
 10
7.394200
 20
9.911000
  0
VERTEX
  8
0
  6
CONTINUOUS
 10
7.447880
 20
9.872280
  0
VERTEX
  8
0
  6
CONTINUOUS
 10
7.478240
 20
9.909240
  0
VERTEX
  8
0
  6
CONTINUOUS
 10
7.483080
 20
9.926400
  0
VERTEX
  8
0
  6
CONTINUOUS
 10
7.490120
 20
9.942680
  0
VERTEX
  8
0
  6
CONTINUOUS
 10
7.498920
 20
9.958080
  0
VERTEX
  8
0
  6
CONTINUOUS
 10
7.520040
 20
9.983600
  0
VERTEX
  8
0
  6
CONTINUOUS
 10
7.531480
 20
9.994160
  0
VERTEX
  8
0
  6
CONTINUOUS
 10
7.556560
 20
10.010440
  0
VERTEX
  8
0
  6
CONTINUOUS
 10
7.583840
 20
10.021440
  0
VERTEX
  8
0
  6
CONTINUOUS
 10
7.612880
 20
10.027160
  0
VERTEX
  8
0
  6
CONTINUOUS
 10
7.642360
 20
10.027160
  0
VERTEX
  8
0
  6
CONTINUOUS
 10
7.671400
 20
10.021440
  0
VERTEX
  8
0
  6
CONTINUOUS
 10
7.699120
 20
10.009560
  0
VERTEX
  8
0
  6
CONTINUOUS
 10
7.725080
 20
9.992400
  0
VERTEX
  8
0
  6
CONTINUOUS
 10
7.784480
 20
10.064560
  0
VERTEX
  8
0
  6
CONTINUOUS
 10
7.978080
 20
9.904400
  0
VERTEX
  8
0
  6
CONTINUOUS
 10
7.091480
 20
8.832560
  0
VERTEX
  8
0
  6
CONTINUOUS
 10
2.621960
 20
8.833000
  0
VERTEX
  8
0
  6
CONTINUOUS
 10
1.433960
 20
9.815520
  0
VERTEX
  8
0
  6
CONTINUOUS
 10
1.639880
 20
10.064560
  0
VERTEX
  8
0
  6
CONTINUOUS
 10
1.642520
 20
10.061920
  0
SEQEND
  8
0
  0
TEXT
  8
0
 10
5.888080
 20
9.163440
 40
0.137923
  1
BA  1120
 41
1.000000
  7
SN0
 71
     0
 72
     5
 11
6.572145
 21
9.163440
  0
TEXT
  8
0
 10
5.658400
 20
8.972040
 40
0.137923
  1
1-1/4" x 6-9/16"
 41
1.000000
  7
SN0
 71
     0
 72
     5
 11
6.803507
 21
8.972040
  0
ENDSEC
  0
EOF
