  0
SECTION
  2
HEADER
  9
$ACADVER
  1
AC1006
  9
$EXTMIN
 10
2.416920
 20
0.414920
  9
$EXTMAX
 10
8.121960
 20
3.969680
  9
$LTSCALE
 40
0.044000
  9
$PDMODE
 70
    35
  9
$PDSIZE
 40
0.035200
  0
ENDSEC
  0
SECTION
  2
TABLES
  0
TABLE
  2
LTYPE
 70
     9
  0
LTYPE
  2
CONTINUOUS
 70
    64
  3
Solid line
 72
    65
 73
     0
 40
0.000000
  0
LTYPE
  2
DASHED
 70
    64
  3
__ __ __ __ __ __ __ __ __ __ __ __ __ __ __
 72
    65
 73
     2
 40
0.000330
 49
0.000220
 49
-0.000110
  0
LTYPE
  2
HIDDEN
 70
    64
  3
 _ _ _ _ _ _ _ _ _ _ _ _ _ _ _ _ _ _ _ _ _ _
 72
    65
 73
     2
 40
0.000165
 49
0.000110
 49
-0.000055
  0
LTYPE
  2
CENTER
 70
    64
  3
____ _ ____ _ ____ _ ____ _ ____ _ ____ _ ____
 72
    65
 73
     4
 40
0.000880
 49
0.000550
 49
-0.000110
 49
0.000110
 49
-0.000110
  0
LTYPE
  2
PHANTOM
 70
    64
  3
_____ _ _ _____ _ _ _____ _ _ _____ _ _ ____
 72
    65
 73
     6
 40
0.001100
 49
0.000550
 49
-0.000110
 49
0.000110
 49
-0.000110
 49
0.000110
 49
-0.000110
  0
LTYPE
  2
DOT
 70
    64
  3
...............................................
 72
    65
 73
     2
 40
0.000110
 49
0.000000
 49
-0.000110
  0
LTYPE
  2
DASHDOT
 70
    64
  3
__ . __ . __ . __ . __ . __ . __ . __ . __ . __
 72
    65
 73
     4
 40
0.000440
 49
0.000220
 49
-0.000110
 49
0.000000
 49
-0.000110
  0
LTYPE
  2
BORDER
 70
    64
  3
__ __ . __ __ . __ __ . __ __ . __ __ . __ __
 72
    65
 73
     6
 40
0.000770
 49
0.000220
 49
-0.000110
 49
0.000220
 49
-0.000110
 49
0.000000
 49
-0.000110
  0
LTYPE
  2
DIVIDE
 70
    64
  3
__ . . __ . . __ . . __ . . __ . . __ . . __
 72
    65
 73
     6
 40
0.000550
 49
0.000220
 49
-0.000110
 49
0.000000
 49
-0.000110
 49
0.000000
 49
-0.000110
  0
LTYPE
  2
DOTDOT
 70
    64
  3
 . .  . .  . .  . .  . .  . . 
 72
    65
 73
     5
 40
0.000242
 49
-0.000110
 49
0.000000
 49
-0.000110
 49
0.000000
 49
-0.000110
  0
ENDTAB
  0
TABLE
  2
STYLE
 70
     2
  0
STYLE
 70
     0
  2
SN0
 40
0.000000
 41
0.000440
 50
0.000000
 71
     0
 42
0.000000
  3
ROMAND
  0
STYLE
 70
    68
  2
SV0
 40
0.000000
 41
0.000440
 50
0.000000
 71
     0
 42
0.000000
  3
ROMAND
  0
ENDTAB
  0
TABLE
  2
LAYER
 70
     3
  0
LAYER
  2
FOREGROUND
 70
    64
 62
     7
  6
CONTINUOUS
  0
LAYER
  2
BACKGROUND
 70
    65
 62
    -7
  6
CONTINUOUS
  0
LAYER
  2
0
 70
    64
 62
     7
  6
CONTINUOUS
  0
ENDTAB
  0
ENDSEC
  0
SECTION
  2
ENTITIES
  0
POLYLINE
  8
FOREGROUND
  6
CONTINUOUS
 66
     1
 40
0.000000
 41
0.000000
  0
VERTEX
  8
FOREGROUND
  6
CONTINUOUS
 10
0.000000
 20
4.384600
  0
VERTEX
  8
FOREGROUND
  6
CONTINUOUS
 10
8.499920
 20
4.384600
  0
VERTEX
  8
FOREGROUND
  6
CONTINUOUS
 10
8.499920
 20
-6.615400
  0
VERTEX
  8
FOREGROUND
  6
CONTINUOUS
 10
0.000000
 20
-6.615400
  0
VERTEX
  8
FOREGROUND
  6
CONTINUOUS
 10
0.000000
 20
4.384600
  0
SEQEND
  8
0
  0
POLYLINE
  8
FOREGROUND
  6
CONTINUOUS
 66
     1
 40
0.000000
 41
0.000000
  0
VERTEX
  8
FOREGROUND
  6
CONTINUOUS
 10
0.000000
 20
4.384600
  0
VERTEX
  8
FOREGROUND
  6
CONTINUOUS
 10
8.499920
 20
4.384600
  0
VERTEX
  8
FOREGROUND
  6
CONTINUOUS
 10
8.499920
 20
-6.615400
  0
VERTEX
  8
FOREGROUND
  6
CONTINUOUS
 10
0.000000
 20
-6.615400
  0
VERTEX
  8
FOREGROUND
  6
CONTINUOUS
 10
0.000000
 20
4.384600
  0
SEQEND
  8
0
  0
POLYLINE
  8
0
  6
CONTINUOUS
 66
     1
 40
0.000000
 41
0.000000
  0
VERTEX
  8
0
  6
CONTINUOUS
 10
5.252720
 20
1.644720
  0
VERTEX
  8
0
  6
CONTINUOUS
 10
4.919200
 20
2.067120
  0
VERTEX
  8
0
  6
CONTINUOUS
 10
5.003680
 20
2.128280
  0
VERTEX
  8
0
  6
CONTINUOUS
 10
5.062200
 20
2.165680
  0
VERTEX
  8
0
  6
CONTINUOUS
 10
5.122480
 20
2.200880
  0
VERTEX
  8
0
  6
CONTINUOUS
 10
5.184080
 20
2.233000
  0
VERTEX
  8
0
  6
CONTINUOUS
 10
5.279560
 20
2.276120
  0
VERTEX
  8
0
  6
CONTINUOUS
 10
5.377240
 20
2.313080
  0
VERTEX
  8
0
  6
CONTINUOUS
 10
5.443680
 20
2.334200
  0
VERTEX
  8
0
  6
CONTINUOUS
 10
5.544880
 20
2.360600
  0
VERTEX
  8
0
  6
CONTINUOUS
 10
5.613520
 20
2.374680
  0
VERTEX
  8
0
  6
CONTINUOUS
 10
5.716480
 20
2.390520
  0
VERTEX
  8
0
  6
CONTINUOUS
 10
5.820320
 20
2.399760
  0
VERTEX
  8
0
  6
CONTINUOUS
 10
5.924600
 20
2.402400
  0
VERTEX
  8
0
  6
CONTINUOUS
 10
5.993680
 20
2.400200
  0
VERTEX
  8
0
  6
CONTINUOUS
 10
6.062320
 20
2.395360
  0
VERTEX
  8
0
  6
CONTINUOUS
 10
6.130960
 20
2.387440
  0
VERTEX
  8
0
  6
CONTINUOUS
 10
6.198720
 20
2.376440
  0
VERTEX
  8
0
  6
CONTINUOUS
 10
6.265600
 20
2.362360
  0
VERTEX
  8
0
  6
CONTINUOUS
 10
6.364600
 20
2.335520
  0
VERTEX
  8
0
  6
CONTINUOUS
 10
6.460960
 20
2.301200
  0
VERTEX
  8
0
  6
CONTINUOUS
 10
6.523440
 20
2.274800
  0
VERTEX
  8
0
  6
CONTINUOUS
 10
6.614520
 20
2.229040
  0
VERTEX
  8
0
  6
CONTINUOUS
 10
6.673480
 20
2.194280
  0
VERTEX
  8
0
  6
CONTINUOUS
 10
6.758400
 20
2.136640
  0
VERTEX
  8
0
  6
CONTINUOUS
 10
6.812080
 20
2.093960
  0
VERTEX
  8
0
  6
CONTINUOUS
 10
6.864000
 20
2.047760
  0
VERTEX
  8
0
  6
CONTINUOUS
 10
6.913720
 20
1.998480
  0
VERTEX
  8
0
  6
CONTINUOUS
 10
6.937480
 20
1.972520
  0
VERTEX
  8
0
  6
CONTINUOUS
 10
7.049680
 20
2.061400
  0
VERTEX
  8
0
  6
CONTINUOUS
 10
7.032080
 20
2.109360
  0
VERTEX
  8
0
  6
CONTINUOUS
 10
7.026800
 20
2.132240
  0
VERTEX
  8
0
  6
CONTINUOUS
 10
7.023720
 20
2.155120
  0
VERTEX
  8
0
  6
CONTINUOUS
 10
7.022400
 20
2.177120
  0
VERTEX
  8
0
  6
CONTINUOUS
 10
7.023280
 20
2.198240
  0
VERTEX
  8
0
  6
CONTINUOUS
 10
7.025920
 20
2.218920
  0
VERTEX
  8
0
  6
CONTINUOUS
 10
7.030320
 20
2.238720
  0
VERTEX
  8
0
  6
CONTINUOUS
 10
7.043960
 20
2.275680
  0
VERTEX
  8
0
  6
CONTINUOUS
 10
7.063760
 20
2.308680
  0
VERTEX
  8
0
  6
CONTINUOUS
 10
7.088840
 20
2.337280
  0
VERTEX
  8
0
  6
CONTINUOUS
 10
7.118320
 20
2.361040
  0
VERTEX
  8
0
  6
CONTINUOUS
 10
7.134600
 20
2.371160
  0
VERTEX
  8
0
  6
CONTINUOUS
 10
7.169360
 20
2.387000
  0
VERTEX
  8
0
  6
CONTINUOUS
 10
7.207200
 20
2.397120
  0
VERTEX
  8
0
  6
CONTINUOUS
 10
7.227000
 20
2.399760
  0
VERTEX
  8
0
  6
CONTINUOUS
 10
7.246800
 20
2.400640
  0
VERTEX
  8
0
  6
CONTINUOUS
 10
7.287720
 20
2.397560
  0
VERTEX
  8
0
  6
CONTINUOUS
 10
7.308400
 20
2.393160
  0
VERTEX
  8
0
  6
CONTINUOUS
 10
7.349760
 20
2.379080
  0
VERTEX
  8
0
  6
CONTINUOUS
 10
7.390680
 20
2.357080
  0
VERTEX
  8
0
  6
CONTINUOUS
 10
7.430280
 20
2.326720
  0
VERTEX
  8
0
  6
CONTINUOUS
 10
7.523120
 20
2.401960
  0
VERTEX
  8
0
  6
CONTINUOUS
 10
7.558320
 20
2.367640
  0
VERTEX
  8
0
  6
CONTINUOUS
 10
7.593960
 20
2.341680
  0
VERTEX
  8
0
  6
CONTINUOUS
 10
7.629600
 20
2.323200
  0
VERTEX
  8
0
  6
CONTINUOUS
 10
7.664800
 20
2.311760
  0
VERTEX
  8
0
  6
CONTINUOUS
 10
7.688120
 20
2.307360
  0
VERTEX
  8
0
  6
CONTINUOUS
 10
7.711000
 20
2.305600
  0
VERTEX
  8
0
  6
CONTINUOUS
 10
7.733000
 20
2.306480
  0
VERTEX
  8
0
  6
CONTINUOUS
 10
7.774800
 20
2.314840
  0
VERTEX
  8
0
  6
CONTINUOUS
 10
7.794600
 20
2.321880
  0
VERTEX
  8
0
  6
CONTINUOUS
 10
7.812640
 20
2.330680
  0
VERTEX
  8
0
  6
CONTINUOUS
 10
7.845640
 20
2.352680
  0
VERTEX
  8
0
  6
CONTINUOUS
 10
7.859720
 20
2.365440
  0
VERTEX
  8
0
  6
CONTINUOUS
 10
7.970600
 20
2.225520
  0
VERTEX
  8
0
  6
CONTINUOUS
 10
7.232720
 20
1.642960
  0
VERTEX
  8
0
  6
CONTINUOUS
 10
5.252720
 20
1.644720
  0
SEQEND
  8
0
  0
POLYLINE
  8
0
  6
CONTINUOUS
 66
     1
 40
0.000000
 41
0.000000
  0
VERTEX
  8
0
  6
CONTINUOUS
 10
5.280000
 20
0.478720
  0
VERTEX
  8
0
  6
CONTINUOUS
 10
4.946040
 20
0.901120
  0
VERTEX
  8
0
  6
CONTINUOUS
 10
5.030520
 20
0.962280
  0
VERTEX
  8
0
  6
CONTINUOUS
 10
5.089040
 20
0.999680
  0
VERTEX
  8
0
  6
CONTINUOUS
 10
5.149320
 20
1.034880
  0
VERTEX
  8
0
  6
CONTINUOUS
 10
5.210920
 20
1.067000
  0
VERTEX
  8
0
  6
CONTINUOUS
 10
5.306400
 20
1.110120
  0
VERTEX
  8
0
  6
CONTINUOUS
 10
5.404080
 20
1.147080
  0
VERTEX
  8
0
  6
CONTINUOUS
 10
5.470960
 20
1.168200
  0
VERTEX
  8
0
  6
CONTINUOUS
 10
5.572160
 20
1.194600
  0
VERTEX
  8
0
  6
CONTINUOUS
 10
5.640360
 20
1.208680
  0
VERTEX
  8
0
  6
CONTINUOUS
 10
5.743760
 20
1.224520
  0
VERTEX
  8
0
  6
CONTINUOUS
 10
5.847600
 20
1.233760
  0
VERTEX
  8
0
  6
CONTINUOUS
 10
5.951440
 20
1.236400
  0
VERTEX
  8
0
  6
CONTINUOUS
 10
6.020520
 20
1.234200
  0
VERTEX
  8
0
  6
CONTINUOUS
 10
6.089600
 20
1.229360
  0
VERTEX
  8
0
  6
CONTINUOUS
 10
6.157800
 20
1.221440
  0
VERTEX
  8
0
  6
CONTINUOUS
 10
6.225560
 20
1.210440
  0
VERTEX
  8
0
  6
CONTINUOUS
 10
6.292440
 20
1.196360
  0
VERTEX
  8
0
  6
CONTINUOUS
 10
6.358880
 20
1.179200
  0
VERTEX
  8
0
  6
CONTINUOUS
 10
6.424000
 20
1.158960
  0
VERTEX
  8
0
  6
CONTINUOUS
 10
6.519480
 20
1.122440
  0
VERTEX
  8
0
  6
CONTINUOUS
 10
6.581520
 20
1.094280
  0
VERTEX
  8
0
  6
CONTINUOUS
 10
6.671280
 20
1.046320
  0
VERTEX
  8
0
  6
CONTINUOUS
 10
6.729360
 20
1.009800
  0
VERTEX
  8
0
  6
CONTINUOUS
 10
6.785240
 20
0.970640
  0
VERTEX
  8
0
  6
CONTINUOUS
 10
6.839360
 20
0.927960
  0
VERTEX
  8
0
  6
CONTINUOUS
 10
6.891280
 20
0.881760
  0
VERTEX
  8
0
  6
CONTINUOUS
 10
6.941000
 20
0.832480
  0
VERTEX
  8
0
  6
CONTINUOUS
 10
6.964760
 20
0.806520
  0
VERTEX
  8
0
  6
CONTINUOUS
 10
7.076960
 20
0.895400
  0
VERTEX
  8
0
  6
CONTINUOUS
 10
7.059360
 20
0.943360
  0
VERTEX
  8
0
  6
CONTINUOUS
 10
7.054080
 20
0.966240
  0
VERTEX
  8
0
  6
CONTINUOUS
 10
7.051000
 20
0.989120
  0
VERTEX
  8
0
  6
CONTINUOUS
 10
7.049680
 20
1.011120
  0
VERTEX
  8
0
  6
CONTINUOUS
 10
7.050560
 20
1.032240
  0
VERTEX
  8
0
  6
CONTINUOUS
 10
7.053200
 20
1.052920
  0
VERTEX
  8
0
  6
CONTINUOUS
 10
7.057600
 20
1.072720
  0
VERTEX
  8
0
  6
CONTINUOUS
 10
7.071240
 20
1.109680
  0
VERTEX
  8
0
  6
CONTINUOUS
 10
7.091040
 20
1.142680
  0
VERTEX
  8
0
  6
CONTINUOUS
 10
7.116120
 20
1.171280
  0
VERTEX
  8
0
  6
CONTINUOUS
 10
7.145600
 20
1.195040
  0
VERTEX
  8
0
  6
CONTINUOUS
 10
7.178600
 20
1.213520
  0
VERTEX
  8
0
  6
CONTINUOUS
 10
7.196640
 20
1.221000
  0
VERTEX
  8
0
  6
CONTINUOUS
 10
7.234480
 20
1.231120
  0
VERTEX
  8
0
  6
CONTINUOUS
 10
7.253840
 20
1.233760
  0
VERTEX
  8
0
  6
CONTINUOUS
 10
7.274080
 20
1.234640
  0
VERTEX
  8
0
  6
CONTINUOUS
 10
7.315000
 20
1.231560
  0
VERTEX
  8
0
  6
CONTINUOUS
 10
7.335680
 20
1.227160
  0
VERTEX
  8
0
  6
CONTINUOUS
 10
7.377040
 20
1.213080
  0
VERTEX
  8
0
  6
CONTINUOUS
 10
7.417960
 20
1.191080
  0
VERTEX
  8
0
  6
CONTINUOUS
 10
7.457560
 20
1.160720
  0
VERTEX
  8
0
  6
CONTINUOUS
 10
7.549960
 20
1.236400
  0
VERTEX
  8
0
  6
CONTINUOUS
 10
7.585160
 20
1.202080
  0
VERTEX
  8
0
  6
CONTINUOUS
 10
7.608920
 20
1.183600
  0
VERTEX
  8
0
  6
CONTINUOUS
 10
7.644560
 20
1.162920
  0
VERTEX
  8
0
  6
CONTINUOUS
 10
7.680200
 20
1.148840
  0
VERTEX
  8
0
  6
CONTINUOUS
 10
7.715400
 20
1.141360
  0
VERTEX
  8
0
  6
CONTINUOUS
 10
7.749280
 20
1.140040
  0
VERTEX
  8
0
  6
CONTINUOUS
 10
7.781840
 20
1.144000
  0
VERTEX
  8
0
  6
CONTINUOUS
 10
7.802080
 20
1.148840
  0
VERTEX
  8
0
  6
CONTINUOUS
 10
7.821440
 20
1.155880
  0
VERTEX
  8
0
  6
CONTINUOUS
 10
7.839920
 20
1.164680
  0
VERTEX
  8
0
  6
CONTINUOUS
 10
7.872920
 20
1.186680
  0
VERTEX
  8
0
  6
CONTINUOUS
 10
7.887000
 20
1.199440
  0
VERTEX
  8
0
  6
CONTINUOUS
 10
7.997440
 20
1.059520
  0
VERTEX
  8
0
  6
CONTINUOUS
 10
7.260000
 20
0.476960
  0
VERTEX
  8
0
  6
CONTINUOUS
 10
5.280000
 20
0.478720
  0
SEQEND
  8
0
  0
SOLID
  8
0
 62
    15
 10
2.859120
 20
2.328920
 11
3.501960
 21
1.953600
 12
2.859560
 22
2.185480
 13
3.502400
 23
1.810600
  0
POLYLINE
  8
0
  6
CONTINUOUS
 66
     1
 40
0.000000
 41
0.000000
  0
VERTEX
  8
0
  6
CONTINUOUS
 10
2.859120
 20
2.328920
  0
VERTEX
  8
0
  6
CONTINUOUS
 10
3.501960
 20
1.953600
  0
VERTEX
  8
0
  6
CONTINUOUS
 10
3.502400
 20
1.810600
  0
VERTEX
  8
0
  6
CONTINUOUS
 10
2.859560
 20
2.185480
  0
VERTEX
  8
0
  6
CONTINUOUS
 10
2.859120
 20
2.328920
  0
SEQEND
  8
0
  0
SOLID
  8
0
 62
    15
 10
4.174720
 20
3.717560
 11
4.817560
 21
3.342680
 12
4.154920
 22
3.579840
 13
4.797760
 23
3.204960
  0
POLYLINE
  8
0
  6
CONTINUOUS
 66
     1
 40
0.000000
 41
0.000000
  0
VERTEX
  8
0
  6
CONTINUOUS
 10
4.174720
 20
3.717560
  0
VERTEX
  8
0
  6
CONTINUOUS
 10
4.817560
 20
3.342680
  0
VERTEX
  8
0
  6
CONTINUOUS
 10
4.797760
 20
3.204960
  0
VERTEX
  8
0
  6
CONTINUOUS
 10
4.154920
 20
3.579840
  0
VERTEX
  8
0
  6
CONTINUOUS
 10
4.174720
 20
3.717560
  0
SEQEND
  8
0
  0
SOLID
  8
0
 62
    15
 10
4.154920
 20
3.579840
 11
4.797760
 21
3.204960
 12
4.123240
 22
3.444320
 13
4.766080
 23
3.069000
  0
POLYLINE
  8
0
  6
CONTINUOUS
 66
     1
 40
0.000000
 41
0.000000
  0
VERTEX
  8
0
  6
CONTINUOUS
 10
4.154920
 20
3.579840
  0
VERTEX
  8
0
  6
CONTINUOUS
 10
4.797760
 20
3.204960
  0
VERTEX
  8
0
  6
CONTINUOUS
 10
4.766080
 20
3.069000
  0
VERTEX
  8
0
  6
CONTINUOUS
 10
4.123240
 20
3.444320
  0
VERTEX
  8
0
  6
CONTINUOUS
 10
4.154920
 20
3.579840
  0
SEQEND
  8
0
  0
SOLID
  8
0
 62
    15
 10
4.123240
 20
3.444320
 11
4.766080
 21
3.069000
 12
4.079680
 22
3.311440
 13
4.722520
 23
2.936560
  0
POLYLINE
  8
0
  6
CONTINUOUS
 66
     1
 40
0.000000
 41
0.000000
  0
VERTEX
  8
0
  6
CONTINUOUS
 10
4.123240
 20
3.444320
  0
VERTEX
  8
0
  6
CONTINUOUS
 10
4.766080
 20
3.069000
  0
VERTEX
  8
0
  6
CONTINUOUS
 10
4.722520
 20
2.936560
  0
VERTEX
  8
0
  6
CONTINUOUS
 10
4.079680
 20
3.311440
  0
VERTEX
  8
0
  6
CONTINUOUS
 10
4.123240
 20
3.444320
  0
SEQEND
  8
0
  0
SOLID
  8
0
 62
    15
 10
4.079680
 20
3.311440
 11
4.722520
 21
2.936560
 12
4.025120
 22
3.182960
 13
4.667960
 23
2.808080
  0
POLYLINE
  8
0
  6
CONTINUOUS
 66
     1
 40
0.000000
 41
0.000000
  0
VERTEX
  8
0
  6
CONTINUOUS
 10
4.079680
 20
3.311440
  0
VERTEX
  8
0
  6
CONTINUOUS
 10
4.722520
 20
2.936560
  0
VERTEX
  8
0
  6
CONTINUOUS
 10
4.667960
 20
2.808080
  0
VERTEX
  8
0
  6
CONTINUOUS
 10
4.025120
 20
3.182960
  0
VERTEX
  8
0
  6
CONTINUOUS
 10
4.079680
 20
3.311440
  0
SEQEND
  8
0
  0
SOLID
  8
0
 62
    15
 10
4.025120
 20
3.182960
 11
4.667960
 21
2.808080
 12
3.960440
 22
3.059760
 13
4.603280
 23
2.684880
  0
POLYLINE
  8
0
  6
CONTINUOUS
 66
     1
 40
0.000000
 41
0.000000
  0
VERTEX
  8
0
  6
CONTINUOUS
 10
4.025120
 20
3.182960
  0
VERTEX
  8
0
  6
CONTINUOUS
 10
4.667960
 20
2.808080
  0
VERTEX
  8
0
  6
CONTINUOUS
 10
4.603280
 20
2.684880
  0
VERTEX
  8
0
  6
CONTINUOUS
 10
3.960440
 20
3.059760
  0
VERTEX
  8
0
  6
CONTINUOUS
 10
4.025120
 20
3.182960
  0
SEQEND
  8
0
  0
SOLID
  8
0
 62
    15
 10
3.960440
 20
3.059760
 11
4.603280
 21
2.684880
 12
3.885640
 22
2.942720
 13
4.528480
 23
2.567400
  0
POLYLINE
  8
0
  6
CONTINUOUS
 66
     1
 40
0.000000
 41
0.000000
  0
VERTEX
  8
0
  6
CONTINUOUS
 10
3.960440
 20
3.059760
  0
VERTEX
  8
0
  6
CONTINUOUS
 10
4.603280
 20
2.684880
  0
VERTEX
  8
0
  6
CONTINUOUS
 10
4.528480
 20
2.567400
  0
VERTEX
  8
0
  6
CONTINUOUS
 10
3.885640
 20
2.942720
  0
VERTEX
  8
0
  6
CONTINUOUS
 10
3.960440
 20
3.059760
  0
SEQEND
  8
0
  0
SOLID
  8
0
 62
    15
 10
3.885640
 20
2.942720
 11
4.528480
 21
2.567400
 12
3.801600
 22
2.832280
 13
4.444440
 23
2.457400
  0
POLYLINE
  8
0
  6
CONTINUOUS
 66
     1
 40
0.000000
 41
0.000000
  0
VERTEX
  8
0
  6
CONTINUOUS
 10
3.885640
 20
2.942720
  0
VERTEX
  8
0
  6
CONTINUOUS
 10
4.528480
 20
2.567400
  0
VERTEX
  8
0
  6
CONTINUOUS
 10
4.444440
 20
2.457400
  0
VERTEX
  8
0
  6
CONTINUOUS
 10
3.801600
 20
2.832280
  0
VERTEX
  8
0
  6
CONTINUOUS
 10
3.885640
 20
2.942720
  0
SEQEND
  8
0
  0
SOLID
  8
0
 62
    15
 10
3.801600
 20
2.832280
 11
4.444440
 21
2.457400
 12
3.708760
 22
2.730200
 13
4.351600
 23
2.355320
  0
POLYLINE
  8
0
  6
CONTINUOUS
 66
     1
 40
0.000000
 41
0.000000
  0
VERTEX
  8
0
  6
CONTINUOUS
 10
3.801600
 20
2.832280
  0
VERTEX
  8
0
  6
CONTINUOUS
 10
4.444440
 20
2.457400
  0
VERTEX
  8
0
  6
CONTINUOUS
 10
4.351600
 20
2.355320
  0
VERTEX
  8
0
  6
CONTINUOUS
 10
3.708760
 20
2.730200
  0
VERTEX
  8
0
  6
CONTINUOUS
 10
3.801600
 20
2.832280
  0
SEQEND
  8
0
  0
SOLID
  8
0
 62
    15
 10
3.708760
 20
2.730200
 11
4.351600
 21
2.355320
 12
3.607560
 22
2.637360
 13
4.250400
 23
2.262480
  0
POLYLINE
  8
0
  6
CONTINUOUS
 66
     1
 40
0.000000
 41
0.000000
  0
VERTEX
  8
0
  6
CONTINUOUS
 10
3.708760
 20
2.730200
  0
VERTEX
  8
0
  6
CONTINUOUS
 10
4.351600
 20
2.355320
  0
VERTEX
  8
0
  6
CONTINUOUS
 10
4.250400
 20
2.262480
  0
VERTEX
  8
0
  6
CONTINUOUS
 10
3.607560
 20
2.637360
  0
VERTEX
  8
0
  6
CONTINUOUS
 10
3.708760
 20
2.730200
  0
SEQEND
  8
0
  0
SOLID
  8
0
 62
    15
 10
3.607560
 20
2.637360
 11
4.250400
 21
2.262480
 12
3.498880
 22
2.554640
 13
4.141720
 23
2.179760
  0
POLYLINE
  8
0
  6
CONTINUOUS
 66
     1
 40
0.000000
 41
0.000000
  0
VERTEX
  8
0
  6
CONTINUOUS
 10
3.607560
 20
2.637360
  0
VERTEX
  8
0
  6
CONTINUOUS
 10
4.250400
 20
2.262480
  0
VERTEX
  8
0
  6
CONTINUOUS
 10
4.141720
 20
2.179760
  0
VERTEX
  8
0
  6
CONTINUOUS
 10
3.498880
 20
2.554640
  0
VERTEX
  8
0
  6
CONTINUOUS
 10
3.607560
 20
2.637360
  0
SEQEND
  8
0
  0
SOLID
  8
0
 62
    15
 10
3.498880
 20
2.554640
 11
4.141720
 21
2.179760
 12
3.382720
 22
2.483360
 13
4.026000
 23
2.108040
  0
POLYLINE
  8
0
  6
CONTINUOUS
 66
     1
 40
0.000000
 41
0.000000
  0
VERTEX
  8
0
  6
CONTINUOUS
 10
3.498880
 20
2.554640
  0
VERTEX
  8
0
  6
CONTINUOUS
 10
4.141720
 20
2.179760
  0
VERTEX
  8
0
  6
CONTINUOUS
 10
4.026000
 20
2.108040
  0
VERTEX
  8
0
  6
CONTINUOUS
 10
3.382720
 20
2.483360
  0
VERTEX
  8
0
  6
CONTINUOUS
 10
3.498880
 20
2.554640
  0
SEQEND
  8
0
  0
SOLID
  8
0
 62
    15
 10
3.382720
 20
2.483360
 11
4.026000
 21
2.108040
 12
3.260400
 22
2.423960
 13
3.903240
 23
2.048640
  0
POLYLINE
  8
0
  6
CONTINUOUS
 66
     1
 40
0.000000
 41
0.000000
  0
VERTEX
  8
0
  6
CONTINUOUS
 10
3.382720
 20
2.483360
  0
VERTEX
  8
0
  6
CONTINUOUS
 10
4.026000
 20
2.108040
  0
VERTEX
  8
0
  6
CONTINUOUS
 10
3.903240
 20
2.048640
  0
VERTEX
  8
0
  6
CONTINUOUS
 10
3.260400
 20
2.423960
  0
VERTEX
  8
0
  6
CONTINUOUS
 10
3.382720
 20
2.483360
  0
SEQEND
  8
0
  0
SOLID
  8
0
 62
    15
 10
3.260400
 20
2.423960
 11
3.903240
 21
2.048640
 12
3.131920
 22
2.377760
 13
3.774760
 23
2.002440
  0
POLYLINE
  8
0
  6
CONTINUOUS
 66
     1
 40
0.000000
 41
0.000000
  0
VERTEX
  8
0
  6
CONTINUOUS
 10
3.260400
 20
2.423960
  0
VERTEX
  8
0
  6
CONTINUOUS
 10
3.903240
 20
2.048640
  0
VERTEX
  8
0
  6
CONTINUOUS
 10
3.774760
 20
2.002440
  0
VERTEX
  8
0
  6
CONTINUOUS
 10
3.131920
 20
2.377760
  0
VERTEX
  8
0
  6
CONTINUOUS
 10
3.260400
 20
2.423960
  0
SEQEND
  8
0
  0
SOLID
  8
0
 62
    15
 10
3.131920
 20
2.377760
 11
3.774760
 21
2.002440
 12
2.998160
 22
2.345640
 13
3.641000
 23
1.970760
  0
POLYLINE
  8
0
  6
CONTINUOUS
 66
     1
 40
0.000000
 41
0.000000
  0
VERTEX
  8
0
  6
CONTINUOUS
 10
3.131920
 20
2.377760
  0
VERTEX
  8
0
  6
CONTINUOUS
 10
3.774760
 20
2.002440
  0
VERTEX
  8
0
  6
CONTINUOUS
 10
3.641000
 20
1.970760
  0
VERTEX
  8
0
  6
CONTINUOUS
 10
2.998160
 20
2.345640
  0
VERTEX
  8
0
  6
CONTINUOUS
 10
3.131920
 20
2.377760
  0
SEQEND
  8
0
  0
SOLID
  8
0
 62
    15
 10
2.998160
 20
2.345640
 11
3.641000
 21
1.970760
 12
2.859120
 22
2.328920
 13
3.501960
 23
1.953600
  0
POLYLINE
  8
0
  6
CONTINUOUS
 66
     1
 40
0.000000
 41
0.000000
  0
VERTEX
  8
0
  6
CONTINUOUS
 10
2.998160
 20
2.345640
  0
VERTEX
  8
0
  6
CONTINUOUS
 10
3.641000
 20
1.970760
  0
VERTEX
  8
0
  6
CONTINUOUS
 10
3.501960
 20
1.953600
  0
VERTEX
  8
0
  6
CONTINUOUS
 10
2.859120
 20
2.328920
  0
VERTEX
  8
0
  6
CONTINUOUS
 10
2.998160
 20
2.345640
  0
SEQEND
  8
0
  0
SOLID
  8
0
 62
    15
 10
4.181760
 20
3.856600
 11
4.824600
 21
3.481280
 12
4.174720
 22
3.717560
 13
4.817560
 23
3.342680
  0
POLYLINE
  8
0
  6
CONTINUOUS
 66
     1
 40
0.000000
 41
0.000000
  0
VERTEX
  8
0
  6
CONTINUOUS
 10
4.181760
 20
3.856600
  0
VERTEX
  8
0
  6
CONTINUOUS
 10
4.824600
 20
3.481280
  0
VERTEX
  8
0
  6
CONTINUOUS
 10
4.817560
 20
3.342680
  0
VERTEX
  8
0
  6
CONTINUOUS
 10
4.174720
 20
3.717560
  0
VERTEX
  8
0
  6
CONTINUOUS
 10
4.181760
 20
3.856600
  0
SEQEND
  8
0
  0
SOLID
  8
0
 62
    15
 10
2.949320
 20
2.148080
 11
3.592160
 21
1.773200
 12
3.010920
 22
2.091320
 13
3.653760
 23
1.716000
  0
POLYLINE
  8
0
  6
CONTINUOUS
 66
     1
 40
0.000000
 41
0.000000
  0
VERTEX
  8
0
  6
CONTINUOUS
 10
2.949320
 20
2.148080
  0
VERTEX
  8
0
  6
CONTINUOUS
 10
3.592160
 20
1.773200
  0
VERTEX
  8
0
  6
CONTINUOUS
 10
3.653760
 20
1.716000
  0
VERTEX
  8
0
  6
CONTINUOUS
 10
3.010920
 20
2.091320
  0
VERTEX
  8
0
  6
CONTINUOUS
 10
2.949320
 20
2.148080
  0
SEQEND
  8
0
  0
SOLID
  8
0
 62
    15
 10
3.010920
 20
2.091320
 11
3.653760
 21
1.716000
 12
3.045240
 22
2.021800
 13
3.688080
 23
1.646480
  0
POLYLINE
  8
0
  6
CONTINUOUS
 66
     1
 40
0.000000
 41
0.000000
  0
VERTEX
  8
0
  6
CONTINUOUS
 10
3.010920
 20
2.091320
  0
VERTEX
  8
0
  6
CONTINUOUS
 10
3.653760
 20
1.716000
  0
VERTEX
  8
0
  6
CONTINUOUS
 10
3.688080
 20
1.646480
  0
VERTEX
  8
0
  6
CONTINUOUS
 10
3.045240
 20
2.021800
  0
VERTEX
  8
0
  6
CONTINUOUS
 10
3.010920
 20
2.091320
  0
SEQEND
  8
0
  0
SOLID
  8
0
 62
    15
 10
3.045240
 20
2.021800
 11
3.688080
 21
1.646480
 12
3.052720
 22
1.946560
 13
3.695560
 23
1.571240
  0
POLYLINE
  8
0
  6
CONTINUOUS
 66
     1
 40
0.000000
 41
0.000000
  0
VERTEX
  8
0
  6
CONTINUOUS
 10
3.045240
 20
2.021800
  0
VERTEX
  8
0
  6
CONTINUOUS
 10
3.688080
 20
1.646480
  0
VERTEX
  8
0
  6
CONTINUOUS
 10
3.695560
 20
1.571240
  0
VERTEX
  8
0
  6
CONTINUOUS
 10
3.052720
 20
1.946560
  0
VERTEX
  8
0
  6
CONTINUOUS
 10
3.045240
 20
2.021800
  0
SEQEND
  8
0
  0
SOLID
  8
0
 62
    15
 10
3.052720
 20
1.946560
 11
3.695560
 21
1.571240
 12
3.034680
 22
1.872200
 13
3.677520
 23
1.496880
  0
POLYLINE
  8
0
  6
CONTINUOUS
 66
     1
 40
0.000000
 41
0.000000
  0
VERTEX
  8
0
  6
CONTINUOUS
 10
3.052720
 20
1.946560
  0
VERTEX
  8
0
  6
CONTINUOUS
 10
3.695560
 20
1.571240
  0
VERTEX
  8
0
  6
CONTINUOUS
 10
3.677520
 20
1.496880
  0
VERTEX
  8
0
  6
CONTINUOUS
 10
3.034680
 20
1.872200
  0
VERTEX
  8
0
  6
CONTINUOUS
 10
3.052720
 20
1.946560
  0
SEQEND
  8
0
  0
SOLID
  8
0
 62
    15
 10
3.034680
 20
1.872200
 11
3.677520
 21
1.496880
 12
2.991560
 22
1.805320
 13
3.634400
 23
1.430440
  0
POLYLINE
  8
0
  6
CONTINUOUS
 66
     1
 40
0.000000
 41
0.000000
  0
VERTEX
  8
0
  6
CONTINUOUS
 10
3.034680
 20
1.872200
  0
VERTEX
  8
0
  6
CONTINUOUS
 10
3.677520
 20
1.496880
  0
VERTEX
  8
0
  6
CONTINUOUS
 10
3.634400
 20
1.430440
  0
VERTEX
  8
0
  6
CONTINUOUS
 10
2.991560
 20
1.805320
  0
VERTEX
  8
0
  6
CONTINUOUS
 10
3.034680
 20
1.872200
  0
SEQEND
  8
0
  0
SOLID
  8
0
 62
    15
 10
2.991560
 20
1.805320
 11
3.634400
 21
1.430440
 12
2.923800
 22
1.753400
 13
3.566640
 23
1.378080
  0
POLYLINE
  8
0
  6
CONTINUOUS
 66
     1
 40
0.000000
 41
0.000000
  0
VERTEX
  8
0
  6
CONTINUOUS
 10
2.991560
 20
1.805320
  0
VERTEX
  8
0
  6
CONTINUOUS
 10
3.634400
 20
1.430440
  0
VERTEX
  8
0
  6
CONTINUOUS
 10
3.566640
 20
1.378080
  0
VERTEX
  8
0
  6
CONTINUOUS
 10
2.923800
 20
1.753400
  0
VERTEX
  8
0
  6
CONTINUOUS
 10
2.991560
 20
1.805320
  0
SEQEND
  8
0
  0
SOLID
  8
0
 62
    15
 10
2.923800
 20
1.753400
 11
3.566640
 21
1.378080
 12
2.832720
 22
1.722160
 13
3.476000
 23
1.347280
  0
POLYLINE
  8
0
  6
CONTINUOUS
 66
     1
 40
0.000000
 41
0.000000
  0
VERTEX
  8
0
  6
CONTINUOUS
 10
2.923800
 20
1.753400
  0
VERTEX
  8
0
  6
CONTINUOUS
 10
3.566640
 20
1.378080
  0
VERTEX
  8
0
  6
CONTINUOUS
 10
3.476000
 20
1.347280
  0
VERTEX
  8
0
  6
CONTINUOUS
 10
2.832720
 20
1.722160
  0
VERTEX
  8
0
  6
CONTINUOUS
 10
2.923800
 20
1.753400
  0
SEQEND
  8
0
  0
SOLID
  8
0
 62
    15
 10
2.832720
 20
1.722160
 11
3.476000
 21
1.347280
 12
2.834920
 22
1.602920
 13
3.477760
 23
1.228040
  0
POLYLINE
  8
0
  6
CONTINUOUS
 66
     1
 40
0.000000
 41
0.000000
  0
VERTEX
  8
0
  6
CONTINUOUS
 10
2.832720
 20
1.722160
  0
VERTEX
  8
0
  6
CONTINUOUS
 10
3.476000
 20
1.347280
  0
VERTEX
  8
0
  6
CONTINUOUS
 10
3.477760
 20
1.228040
  0
VERTEX
  8
0
  6
CONTINUOUS
 10
2.834920
 20
1.602920
  0
VERTEX
  8
0
  6
CONTINUOUS
 10
2.832720
 20
1.722160
  0
SEQEND
  8
0
  0
SOLID
  8
0
 62
    15
 10
2.834920
 20
1.602920
 11
3.477760
 21
1.228040
 12
2.771120
 22
1.593240
 13
3.414400
 23
1.217920
  0
POLYLINE
  8
0
  6
CONTINUOUS
 66
     1
 40
0.000000
 41
0.000000
  0
VERTEX
  8
0
  6
CONTINUOUS
 10
2.834920
 20
1.602920
  0
VERTEX
  8
0
  6
CONTINUOUS
 10
3.477760
 20
1.228040
  0
VERTEX
  8
0
  6
CONTINUOUS
 10
3.414400
 20
1.217920
  0
VERTEX
  8
0
  6
CONTINUOUS
 10
2.771120
 20
1.593240
  0
VERTEX
  8
0
  6
CONTINUOUS
 10
2.834920
 20
1.602920
  0
SEQEND
  8
0
  0
SOLID
  8
0
 62
    15
 10
2.771120
 20
1.593240
 11
3.414400
 21
1.217920
 12
2.718320
 22
1.573880
 13
3.361600
 23
1.199000
  0
POLYLINE
  8
0
  6
CONTINUOUS
 66
     1
 40
0.000000
 41
0.000000
  0
VERTEX
  8
0
  6
CONTINUOUS
 10
2.771120
 20
1.593240
  0
VERTEX
  8
0
  6
CONTINUOUS
 10
3.414400
 20
1.217920
  0
VERTEX
  8
0
  6
CONTINUOUS
 10
3.361600
 20
1.199000
  0
VERTEX
  8
0
  6
CONTINUOUS
 10
2.718320
 20
1.573880
  0
VERTEX
  8
0
  6
CONTINUOUS
 10
2.771120
 20
1.593240
  0
SEQEND
  8
0
  0
SOLID
  8
0
 62
    15
 10
2.718320
 20
1.573880
 11
3.361600
 21
1.199000
 12
2.676080
 22
1.547480
 13
3.318920
 23
1.172160
  0
POLYLINE
  8
0
  6
CONTINUOUS
 66
     1
 40
0.000000
 41
0.000000
  0
VERTEX
  8
0
  6
CONTINUOUS
 10
2.718320
 20
1.573880
  0
VERTEX
  8
0
  6
CONTINUOUS
 10
3.361600
 20
1.199000
  0
VERTEX
  8
0
  6
CONTINUOUS
 10
3.318920
 20
1.172160
  0
VERTEX
  8
0
  6
CONTINUOUS
 10
2.676080
 20
1.547480
  0
VERTEX
  8
0
  6
CONTINUOUS
 10
2.718320
 20
1.573880
  0
SEQEND
  8
0
  0
SOLID
  8
0
 62
    15
 10
2.676080
 20
1.547480
 11
3.318920
 21
1.172160
 12
2.643080
 22
1.514920
 13
3.285920
 23
1.139600
  0
POLYLINE
  8
0
  6
CONTINUOUS
 66
     1
 40
0.000000
 41
0.000000
  0
VERTEX
  8
0
  6
CONTINUOUS
 10
2.676080
 20
1.547480
  0
VERTEX
  8
0
  6
CONTINUOUS
 10
3.318920
 20
1.172160
  0
VERTEX
  8
0
  6
CONTINUOUS
 10
3.285920
 20
1.139600
  0
VERTEX
  8
0
  6
CONTINUOUS
 10
2.643080
 20
1.514920
  0
VERTEX
  8
0
  6
CONTINUOUS
 10
2.676080
 20
1.547480
  0
SEQEND
  8
0
  0
SOLID
  8
0
 62
    15
 10
2.643080
 20
1.514920
 11
3.285920
 21
1.139600
 12
2.619320
 22
1.478400
 13
3.262160
 23
1.103080
  0
POLYLINE
  8
0
  6
CONTINUOUS
 66
     1
 40
0.000000
 41
0.000000
  0
VERTEX
  8
0
  6
CONTINUOUS
 10
2.643080
 20
1.514920
  0
VERTEX
  8
0
  6
CONTINUOUS
 10
3.285920
 20
1.139600
  0
VERTEX
  8
0
  6
CONTINUOUS
 10
3.262160
 20
1.103080
  0
VERTEX
  8
0
  6
CONTINUOUS
 10
2.619320
 20
1.478400
  0
VERTEX
  8
0
  6
CONTINUOUS
 10
2.643080
 20
1.514920
  0
SEQEND
  8
0
  0
SOLID
  8
0
 62
    15
 10
2.619320
 20
1.478400
 11
3.262160
 21
1.103080
 12
2.603920
 22
1.439240
 13
3.246760
 23
1.063920
  0
POLYLINE
  8
0
  6
CONTINUOUS
 66
     1
 40
0.000000
 41
0.000000
  0
VERTEX
  8
0
  6
CONTINUOUS
 10
2.619320
 20
1.478400
  0
VERTEX
  8
0
  6
CONTINUOUS
 10
3.262160
 20
1.103080
  0
VERTEX
  8
0
  6
CONTINUOUS
 10
3.246760
 20
1.063920
  0
VERTEX
  8
0
  6
CONTINUOUS
 10
2.603920
 20
1.439240
  0
VERTEX
  8
0
  6
CONTINUOUS
 10
2.619320
 20
1.478400
  0
SEQEND
  8
0
  0
SOLID
  8
0
 62
    15
 10
2.603920
 20
1.439240
 11
3.246760
 21
1.063920
 12
2.597760
 22
1.360920
 13
3.240600
 23
0.986040
  0
POLYLINE
  8
0
  6
CONTINUOUS
 66
     1
 40
0.000000
 41
0.000000
  0
VERTEX
  8
0
  6
CONTINUOUS
 10
2.603920
 20
1.439240
  0
VERTEX
  8
0
  6
CONTINUOUS
 10
3.246760
 20
1.063920
  0
VERTEX
  8
0
  6
CONTINUOUS
 10
3.240600
 20
0.986040
  0
VERTEX
  8
0
  6
CONTINUOUS
 10
2.597760
 20
1.360920
  0
VERTEX
  8
0
  6
CONTINUOUS
 10
2.603920
 20
1.439240
  0
SEQEND
  8
0
  0
SOLID
  8
0
 62
    15
 10
2.597760
 20
1.360920
 11
3.240600
 21
0.986040
 12
2.419120
 22
1.360480
 13
3.061960
 23
0.985600
  0
POLYLINE
  8
0
  6
CONTINUOUS
 66
     1
 40
0.000000
 41
0.000000
  0
VERTEX
  8
0
  6
CONTINUOUS
 10
2.597760
 20
1.360920
  0
VERTEX
  8
0
  6
CONTINUOUS
 10
3.240600
 20
0.986040
  0
VERTEX
  8
0
  6
CONTINUOUS
 10
3.061960
 20
0.985600
  0
VERTEX
  8
0
  6
CONTINUOUS
 10
2.419120
 20
1.360480
  0
VERTEX
  8
0
  6
CONTINUOUS
 10
2.597760
 20
1.360920
  0
SEQEND
  8
0
  0
POLYLINE
  8
0
  6
CONTINUOUS
 66
     1
 40
0.000000
 41
0.000000
  0
VERTEX
  8
0
  6
CONTINUOUS
 10
3.643200
 20
3.855720
  0
VERTEX
  8
0
  6
CONTINUOUS
 10
4.181760
 20
3.856600
  0
VERTEX
  8
0
  6
CONTINUOUS
 10
4.174720
 20
3.717560
  0
VERTEX
  8
0
  6
CONTINUOUS
 10
4.154920
 20
3.579840
  0
VERTEX
  8
0
  6
CONTINUOUS
 10
4.123240
 20
3.444320
  0
VERTEX
  8
0
  6
CONTINUOUS
 10
4.079680
 20
3.311440
  0
VERTEX
  8
0
  6
CONTINUOUS
 10
4.025120
 20
3.182960
  0
VERTEX
  8
0
  6
CONTINUOUS
 10
3.960440
 20
3.059760
  0
VERTEX
  8
0
  6
CONTINUOUS
 10
3.885640
 20
2.942720
  0
VERTEX
  8
0
  6
CONTINUOUS
 10
3.801600
 20
2.832280
  0
VERTEX
  8
0
  6
CONTINUOUS
 10
3.708760
 20
2.730200
  0
VERTEX
  8
0
  6
CONTINUOUS
 10
3.607560
 20
2.637360
  0
VERTEX
  8
0
  6
CONTINUOUS
 10
3.498880
 20
2.554640
  0
VERTEX
  8
0
  6
CONTINUOUS
 10
3.382720
 20
2.483360
  0
VERTEX
  8
0
  6
CONTINUOUS
 10
3.260400
 20
2.423960
  0
VERTEX
  8
0
  6
CONTINUOUS
 10
3.131920
 20
2.377760
  0
VERTEX
  8
0
  6
CONTINUOUS
 10
2.998160
 20
2.345640
  0
VERTEX
  8
0
  6
CONTINUOUS
 10
2.859120
 20
2.328920
  0
VERTEX
  8
0
  6
CONTINUOUS
 10
2.859560
 20
2.185480
  0
VERTEX
  8
0
  6
CONTINUOUS
 10
2.907960
 20
2.169640
  0
VERTEX
  8
0
  6
CONTINUOUS
 10
2.949320
 20
2.148080
  0
VERTEX
  8
0
  6
CONTINUOUS
 10
3.010920
 20
2.091320
  0
VERTEX
  8
0
  6
CONTINUOUS
 10
3.045240
 20
2.021800
  0
VERTEX
  8
0
  6
CONTINUOUS
 10
3.052720
 20
1.946560
  0
VERTEX
  8
0
  6
CONTINUOUS
 10
3.034680
 20
1.872200
  0
VERTEX
  8
0
  6
CONTINUOUS
 10
2.991560
 20
1.805320
  0
VERTEX
  8
0
  6
CONTINUOUS
 10
2.923800
 20
1.753400
  0
VERTEX
  8
0
  6
CONTINUOUS
 10
2.832720
 20
1.722160
  0
VERTEX
  8
0
  6
CONTINUOUS
 10
2.834920
 20
1.602920
  0
VERTEX
  8
0
  6
CONTINUOUS
 10
2.771120
 20
1.593240
  0
VERTEX
  8
0
  6
CONTINUOUS
 10
2.718320
 20
1.573880
  0
VERTEX
  8
0
  6
CONTINUOUS
 10
2.676080
 20
1.547480
  0
VERTEX
  8
0
  6
CONTINUOUS
 10
2.643080
 20
1.514920
  0
VERTEX
  8
0
  6
CONTINUOUS
 10
2.619320
 20
1.478400
  0
VERTEX
  8
0
  6
CONTINUOUS
 10
2.603920
 20
1.439240
  0
VERTEX
  8
0
  6
CONTINUOUS
 10
2.597760
 20
1.360920
  0
VERTEX
  8
0
  6
CONTINUOUS
 10
2.419120
 20
1.360480
  0
VERTEX
  8
0
  6
CONTINUOUS
 10
2.417360
 20
2.300320
  0
VERTEX
  8
0
  6
CONTINUOUS
 10
3.643200
 20
3.855720
  0
SEQEND
  8
0
  0
TEXT
  8
0
 10
3.279760
 20
0.650760
 40
0.138067
  1
BA  1119
 41
1.000000
  7
SN0
 71
     0
 72
     5
 11
3.961798
 21
0.650760
  0
TEXT
  8
0
 10
3.124000
 20
0.458920
 40
0.138067
  1
3/4" x 3-1/16"
 41
1.000000
  7
SN0
 71
     0
 72
     5
 11
4.116392
 21
0.458920
  0
POLYLINE
  8
0
  6
CONTINUOUS
 66
     1
 40
0.000000
 41
0.000000
  0
VERTEX
  8
0
  6
CONTINUOUS
 10
5.404080
 20
3.211560
  0
VERTEX
  8
0
  6
CONTINUOUS
 10
5.070560
 20
3.633960
  0
VERTEX
  8
0
  6
CONTINUOUS
 10
5.155040
 20
3.695120
  0
VERTEX
  8
0
  6
CONTINUOUS
 10
5.213560
 20
3.732520
  0
VERTEX
  8
0
  6
CONTINUOUS
 10
5.273840
 20
3.767720
  0
VERTEX
  8
0
  6
CONTINUOUS
 10
5.335440
 20
3.799840
  0
VERTEX
  8
0
  6
CONTINUOUS
 10
5.430920
 20
3.842960
  0
VERTEX
  8
0
  6
CONTINUOUS
 10
5.528600
 20
3.879920
  0
VERTEX
  8
0
  6
CONTINUOUS
 10
5.595040
 20
3.901040
  0
VERTEX
  8
0
  6
CONTINUOUS
 10
5.696240
 20
3.927440
  0
VERTEX
  8
0
  6
CONTINUOUS
 10
5.764880
 20
3.941520
  0
VERTEX
  8
0
  6
CONTINUOUS
 10
5.867840
 20
3.957360
  0
VERTEX
  8
0
  6
CONTINUOUS
 10
5.971680
 20
3.966600
  0
VERTEX
  8
0
  6
CONTINUOUS
 10
6.075960
 20
3.969240
  0
VERTEX
  8
0
  6
CONTINUOUS
 10
6.145040
 20
3.967040
  0
VERTEX
  8
0
  6
CONTINUOUS
 10
6.213680
 20
3.962200
  0
VERTEX
  8
0
  6
CONTINUOUS
 10
6.282320
 20
3.954280
  0
VERTEX
  8
0
  6
CONTINUOUS
 10
6.350080
 20
3.943280
  0
VERTEX
  8
0
  6
CONTINUOUS
 10
6.416960
 20
3.929200
  0
VERTEX
  8
0
  6
CONTINUOUS
 10
6.515960
 20
3.902360
  0
VERTEX
  8
0
  6
CONTINUOUS
 10
6.612320
 20
3.868040
  0
VERTEX
  8
0
  6
CONTINUOUS
 10
6.674800
 20
3.841640
  0
VERTEX
  8
0
  6
CONTINUOUS
 10
6.765880
 20
3.795880
  0
VERTEX
  8
0
  6
CONTINUOUS
 10
6.824840
 20
3.761120
  0
VERTEX
  8
0
  6
CONTINUOUS
 10
6.909760
 20
3.703480
  0
VERTEX
  8
0
  6
CONTINUOUS
 10
6.963440
 20
3.660800
  0
VERTEX
  8
0
  6
CONTINUOUS
 10
7.015360
 20
3.614600
  0
VERTEX
  8
0
  6
CONTINUOUS
 10
7.065080
 20
3.565320
  0
VERTEX
  8
0
  6
CONTINUOUS
 10
7.088840
 20
3.539360
  0
VERTEX
  8
0
  6
CONTINUOUS
 10
7.201040
 20
3.628240
  0
VERTEX
  8
0
  6
CONTINUOUS
 10
7.183440
 20
3.676200
  0
VERTEX
  8
0
  6
CONTINUOUS
 10
7.178160
 20
3.699080
  0
VERTEX
  8
0
  6
CONTINUOUS
 10
7.175080
 20
3.721960
  0
VERTEX
  8
0
  6
CONTINUOUS
 10
7.173760
 20
3.743960
  0
VERTEX
  8
0
  6
CONTINUOUS
 10
7.174640
 20
3.765080
  0
VERTEX
  8
0
  6
CONTINUOUS
 10
7.177280
 20
3.785760
  0
VERTEX
  8
0
  6
CONTINUOUS
 10
7.181680
 20
3.805560
  0
VERTEX
  8
0
  6
CONTINUOUS
 10
7.195320
 20
3.842520
  0
VERTEX
  8
0
  6
CONTINUOUS
 10
7.215120
 20
3.875520
  0
VERTEX
  8
0
  6
CONTINUOUS
 10
7.240200
 20
3.904120
  0
VERTEX
  8
0
  6
CONTINUOUS
 10
7.269680
 20
3.927880
  0
VERTEX
  8
0
  6
CONTINUOUS
 10
7.285960
 20
3.938000
  0
VERTEX
  8
0
  6
CONTINUOUS
 10
7.320720
 20
3.953840
  0
VERTEX
  8
0
  6
CONTINUOUS
 10
7.358560
 20
3.963960
  0
VERTEX
  8
0
  6
CONTINUOUS
 10
7.378360
 20
3.966600
  0
VERTEX
  8
0
  6
CONTINUOUS
 10
7.398160
 20
3.967480
  0
VERTEX
  8
0
  6
CONTINUOUS
 10
7.439080
 20
3.964400
  0
VERTEX
  8
0
  6
CONTINUOUS
 10
7.459760
 20
3.960000
  0
VERTEX
  8
0
  6
CONTINUOUS
 10
7.501120
 20
3.945920
  0
VERTEX
  8
0
  6
CONTINUOUS
 10
7.542040
 20
3.923920
  0
VERTEX
  8
0
  6
CONTINUOUS
 10
7.581640
 20
3.893560
  0
VERTEX
  8
0
  6
CONTINUOUS
 10
7.674480
 20
3.969240
  0
VERTEX
  8
0
  6
CONTINUOUS
 10
7.709680
 20
3.934920
  0
VERTEX
  8
0
  6
CONTINUOUS
 10
7.733440
 20
3.916440
  0
VERTEX
  8
0
  6
CONTINUOUS
 10
7.769080
 20
3.895760
  0
VERTEX
  8
0
  6
CONTINUOUS
 10
7.792840
 20
3.885640
  0
VERTEX
  8
0
  6
CONTINUOUS
 10
7.828040
 20
3.875960
  0
VERTEX
  8
0
  6
CONTINUOUS
 10
7.850920
 20
3.873320
  0
VERTEX
  8
0
  6
CONTINUOUS
 10
7.873360
 20
3.872880
  0
VERTEX
  8
0
  6
CONTINUOUS
 10
7.905920
 20
3.876840
  0
VERTEX
  8
0
  6
CONTINUOUS
 10
7.926160
 20
3.881680
  0
VERTEX
  8
0
  6
CONTINUOUS
 10
7.945960
 20
3.888720
  0
VERTEX
  8
0
  6
CONTINUOUS
 10
7.964000
 20
3.897520
  0
VERTEX
  8
0
  6
CONTINUOUS
 10
7.997000
 20
3.919520
  0
VERTEX
  8
0
  6
CONTINUOUS
 10
8.011080
 20
3.932280
  0
VERTEX
  8
0
  6
CONTINUOUS
 10
8.121960
 20
3.792360
  0
VERTEX
  8
0
  6
CONTINUOUS
 10
7.384080
 20
3.209800
  0
VERTEX
  8
0
  6
CONTINUOUS
 10
5.404080
 20
3.211560
  0
SEQEND
  8
0
  0
TEXT
  8
0
 10
5.898200
 20
3.507680
 40
0.138067
  1
BA  1119
 41
1.000000
  7
SN0
 71
     0
 72
     5
 11
6.580238
 21
3.507680
  0
TEXT
  8
0
 10
5.742440
 20
3.316280
 40
0.138067
  1
3/4" x 3-1/16"
 41
1.000000
  7
SN0
 71
     0
 72
     5
 11
6.734832
 21
3.316280
  0
ENDSEC
  0
EOF
