  0
SECTION
  2
HEADER
  9
$ACADVER
  1
AC1006
  9
$EXTMIN
 10
1.229800
 20
0.635360
  9
$EXTMAX
 10
7.845640
 20
4.364360
  9
$LTSCALE
 40
0.044000
  9
$PDMODE
 70
    35
  9
$PDSIZE
 40
0.035200
  0
ENDSEC
  0
SECTION
  2
TABLES
  0
TABLE
  2
LTYPE
 70
     9
  0
LTYPE
  2
CONTINUOUS
 70
    64
  3
Solid line
 72
    65
 73
     0
 40
0.000000
  0
LTYPE
  2
DASHED
 70
    64
  3
__ __ __ __ __ __ __ __ __ __ __ __ __ __ __
 72
    65
 73
     2
 40
0.000330
 49
0.000220
 49
-0.000110
  0
LTYPE
  2
HIDDEN
 70
    64
  3
 _ _ _ _ _ _ _ _ _ _ _ _ _ _ _ _ _ _ _ _ _ _
 72
    65
 73
     2
 40
0.000165
 49
0.000110
 49
-0.000055
  0
LTYPE
  2
CENTER
 70
    64
  3
____ _ ____ _ ____ _ ____ _ ____ _ ____ _ ____
 72
    65
 73
     4
 40
0.000880
 49
0.000550
 49
-0.000110
 49
0.000110
 49
-0.000110
  0
LTYPE
  2
PHANTOM
 70
    64
  3
_____ _ _ _____ _ _ _____ _ _ _____ _ _ ____
 72
    65
 73
     6
 40
0.001100
 49
0.000550
 49
-0.000110
 49
0.000110
 49
-0.000110
 49
0.000110
 49
-0.000110
  0
LTYPE
  2
DOT
 70
    64
  3
...............................................
 72
    65
 73
     2
 40
0.000110
 49
0.000000
 49
-0.000110
  0
LTYPE
  2
DASHDOT
 70
    64
  3
__ . __ . __ . __ . __ . __ . __ . __ . __ . __
 72
    65
 73
     4
 40
0.000440
 49
0.000220
 49
-0.000110
 49
0.000000
 49
-0.000110
  0
LTYPE
  2
BORDER
 70
    64
  3
__ __ . __ __ . __ __ . __ __ . __ __ . __ __
 72
    65
 73
     6
 40
0.000770
 49
0.000220
 49
-0.000110
 49
0.000220
 49
-0.000110
 49
0.000000
 49
-0.000110
  0
LTYPE
  2
DIVIDE
 70
    64
  3
__ . . __ . . __ . . __ . . __ . . __ . . __
 72
    65
 73
     6
 40
0.000550
 49
0.000220
 49
-0.000110
 49
0.000000
 49
-0.000110
 49
0.000000
 49
-0.000110
  0
LTYPE
  2
DOTDOT
 70
    64
  3
 . .  . .  . .  . .  . .  . . 
 72
    65
 73
     5
 40
0.000242
 49
-0.000110
 49
0.000000
 49
-0.000110
 49
0.000000
 49
-0.000110
  0
ENDTAB
  0
TABLE
  2
STYLE
 70
     2
  0
STYLE
 70
     0
  2
SN0
 40
0.000000
 41
0.000440
 50
0.000000
 71
     0
 42
0.000000
  3
ROMAND
  0
STYLE
 70
    68
  2
SV0
 40
0.000000
 41
0.000440
 50
0.000000
 71
     0
 42
0.000000
  3
ROMAND
  0
ENDTAB
  0
TABLE
  2
LAYER
 70
     3
  0
LAYER
  2
FOREGROUND
 70
    64
 62
     7
  6
CONTINUOUS
  0
LAYER
  2
BACKGROUND
 70
    65
 62
    -7
  6
CONTINUOUS
  0
LAYER
  2
0
 70
    64
 62
     7
  6
CONTINUOUS
  0
ENDTAB
  0
ENDSEC
  0
SECTION
  2
ENTITIES
  0
POLYLINE
  8
FOREGROUND
  6
CONTINUOUS
 66
     1
 40
0.000000
 41
0.000000
  0
VERTEX
  8
FOREGROUND
  6
CONTINUOUS
 10
0.000000
 20
4.999720
  0
VERTEX
  8
FOREGROUND
  6
CONTINUOUS
 10
8.499920
 20
4.999720
  0
VERTEX
  8
FOREGROUND
  6
CONTINUOUS
 10
8.499920
 20
-6.000280
  0
VERTEX
  8
FOREGROUND
  6
CONTINUOUS
 10
0.000000
 20
-6.000280
  0
VERTEX
  8
FOREGROUND
  6
CONTINUOUS
 10
0.000000
 20
4.999720
  0
SEQEND
  8
0
  0
POLYLINE
  8
FOREGROUND
  6
CONTINUOUS
 66
     1
 40
0.000000
 41
0.000000
  0
VERTEX
  8
FOREGROUND
  6
CONTINUOUS
 10
0.000000
 20
4.999720
  0
VERTEX
  8
FOREGROUND
  6
CONTINUOUS
 10
8.499920
 20
4.999720
  0
VERTEX
  8
FOREGROUND
  6
CONTINUOUS
 10
8.499920
 20
-6.000280
  0
VERTEX
  8
FOREGROUND
  6
CONTINUOUS
 10
0.000000
 20
-6.000280
  0
VERTEX
  8
FOREGROUND
  6
CONTINUOUS
 10
0.000000
 20
4.999720
  0
SEQEND
  8
0
  0
POLYLINE
  8
0
  6
CONTINUOUS
 66
     1
 40
0.000000
 41
0.000000
  0
VERTEX
  8
0
  6
CONTINUOUS
 10
4.232800
 20
1.786840
  0
VERTEX
  8
0
  6
CONTINUOUS
 10
3.487000
 20
1.786840
  0
VERTEX
  8
0
  6
CONTINUOUS
 10
3.487000
 20
1.530760
  0
VERTEX
  8
0
  6
CONTINUOUS
 10
3.381840
 20
1.531200
  0
VERTEX
  8
0
  6
CONTINUOUS
 10
3.362040
 20
1.577400
  0
VERTEX
  8
0
  6
CONTINUOUS
 10
3.340040
 20
1.618320
  0
VERTEX
  8
0
  6
CONTINUOUS
 10
3.324200
 20
1.642960
  0
VERTEX
  8
0
  6
CONTINUOUS
 10
3.307480
 20
1.665400
  0
VERTEX
  8
0
  6
CONTINUOUS
 10
3.271840
 20
1.704120
  0
VERTEX
  8
0
  6
CONTINUOUS
 10
3.252920
 20
1.720400
  0
VERTEX
  8
0
  6
CONTINUOUS
 10
3.233120
 20
1.734920
  0
VERTEX
  8
0
  6
CONTINUOUS
 10
3.191760
 20
1.758240
  0
VERTEX
  8
0
  6
CONTINUOUS
 10
3.170200
 20
1.767040
  0
VERTEX
  8
0
  6
CONTINUOUS
 10
3.125760
 20
1.779800
  0
VERTEX
  8
0
  6
CONTINUOUS
 10
3.079120
 20
1.786400
  0
VERTEX
  8
0
  6
CONTINUOUS
 10
3.031160
 20
1.786840
  0
VERTEX
  8
0
  6
CONTINUOUS
 10
2.982320
 20
1.781560
  0
VERTEX
  8
0
  6
CONTINUOUS
 10
2.932600
 20
1.771440
  0
VERTEX
  8
0
  6
CONTINUOUS
 10
2.882000
 20
1.756480
  0
VERTEX
  8
0
  6
CONTINUOUS
 10
2.831840
 20
1.737560
  0
VERTEX
  8
0
  6
CONTINUOUS
 10
2.756600
 20
1.701480
  0
VERTEX
  8
0
  6
CONTINUOUS
 10
2.707320
 20
1.673760
  0
VERTEX
  8
0
  6
CONTINUOUS
 10
2.633840
 20
1.629760
  0
VERTEX
  8
0
  6
CONTINUOUS
 10
2.557280
 20
1.592360
  0
VERTEX
  8
0
  6
CONTINUOUS
 10
2.478960
 20
1.561560
  0
VERTEX
  8
0
  6
CONTINUOUS
 10
2.374680
 20
1.529880
  0
VERTEX
  8
0
  6
CONTINUOUS
 10
2.273920
 20
1.507440
  0
VERTEX
  8
0
  6
CONTINUOUS
 10
2.181520
 20
1.492920
  0
VERTEX
  8
0
  6
CONTINUOUS
 10
2.083400
 20
1.482800
  0
VERTEX
  8
0
  6
CONTINUOUS
 10
2.012120
 20
1.479280
  0
VERTEX
  8
0
  6
CONTINUOUS
 10
1.993200
 20
1.479280
  0
VERTEX
  8
0
  6
CONTINUOUS
 10
1.992760
 20
1.378080
  0
VERTEX
  8
0
  6
CONTINUOUS
 10
1.873080
 20
1.378520
  0
VERTEX
  8
0
  6
CONTINUOUS
 10
1.873080
 20
1.255320
  0
VERTEX
  8
0
  6
CONTINUOUS
 10
1.824240
 20
1.254440
  0
VERTEX
  8
0
  6
CONTINUOUS
 10
1.760880
 20
1.249160
  0
VERTEX
  8
0
  6
CONTINUOUS
 10
1.707640
 20
1.240360
  0
VERTEX
  8
0
  6
CONTINUOUS
 10
1.663640
 20
1.228040
  0
VERTEX
  8
0
  6
CONTINUOUS
 10
1.639000
 20
1.219240
  0
VERTEX
  8
0
  6
CONTINUOUS
 10
1.599400
 20
1.198560
  0
VERTEX
  8
0
  6
CONTINUOUS
 10
1.576960
 20
1.182720
  0
VERTEX
  8
0
  6
CONTINUOUS
 10
1.538680
 20
1.144440
  0
VERTEX
  8
0
  6
CONTINUOUS
 10
1.495120
 20
1.100440
  0
VERTEX
  8
0
  6
CONTINUOUS
 10
1.457280
 20
1.070520
  0
VERTEX
  8
0
  6
CONTINUOUS
 10
1.422960
 20
1.051160
  0
VERTEX
  8
0
  6
CONTINUOUS
 10
1.380280
 20
1.033560
  0
VERTEX
  8
0
  6
CONTINUOUS
 10
1.342440
 20
1.023000
  0
VERTEX
  8
0
  6
CONTINUOUS
 10
1.298440
 20
1.015520
  0
VERTEX
  8
0
  6
CONTINUOUS
 10
1.265880
 20
1.012440
  0
VERTEX
  8
0
  6
CONTINUOUS
 10
1.230240
 20
1.011560
  0
VERTEX
  8
0
  6
CONTINUOUS
 10
1.230240
 20
0.791120
  0
VERTEX
  8
0
  6
CONTINUOUS
 10
1.230240
 20
0.792000
  0
VERTEX
  8
0
  6
CONTINUOUS
 10
4.232800
 20
0.792000
  0
VERTEX
  8
0
  6
CONTINUOUS
 10
4.232800
 20
1.786840
  0
SEQEND
  8
0
  0
POLYLINE
  8
0
  6
CONTINUOUS
 66
     1
 40
0.000000
 41
0.000000
  0
VERTEX
  8
0
  6
CONTINUOUS
 10
1.230680
 20
3.251160
  0
VERTEX
  8
0
  6
CONTINUOUS
 10
1.976480
 20
3.251160
  0
VERTEX
  8
0
  6
CONTINUOUS
 10
1.976480
 20
2.995080
  0
VERTEX
  8
0
  6
CONTINUOUS
 10
2.081200
 20
2.995080
  0
VERTEX
  8
0
  6
CONTINUOUS
 10
2.101000
 20
3.041280
  0
VERTEX
  8
0
  6
CONTINUOUS
 10
2.123000
 20
3.082200
  0
VERTEX
  8
0
  6
CONTINUOUS
 10
2.138840
 20
3.106840
  0
VERTEX
  8
0
  6
CONTINUOUS
 10
2.155560
 20
3.129280
  0
VERTEX
  8
0
  6
CONTINUOUS
 10
2.191200
 20
3.168000
  0
VERTEX
  8
0
  6
CONTINUOUS
 10
2.210120
 20
3.184280
  0
VERTEX
  8
0
  6
CONTINUOUS
 10
2.229920
 20
3.198800
  0
VERTEX
  8
0
  6
CONTINUOUS
 10
2.271280
 20
3.222120
  0
VERTEX
  8
0
  6
CONTINUOUS
 10
2.292840
 20
3.230920
  0
VERTEX
  8
0
  6
CONTINUOUS
 10
2.337720
 20
3.243680
  0
VERTEX
  8
0
  6
CONTINUOUS
 10
2.383920
 20
3.250280
  0
VERTEX
  8
0
  6
CONTINUOUS
 10
2.431880
 20
3.250720
  0
VERTEX
  8
0
  6
CONTINUOUS
 10
2.481160
 20
3.245440
  0
VERTEX
  8
0
  6
CONTINUOUS
 10
2.530880
 20
3.235320
  0
VERTEX
  8
0
  6
CONTINUOUS
 10
2.581040
 20
3.220360
  0
VERTEX
  8
0
  6
CONTINUOUS
 10
2.631640
 20
3.201440
  0
VERTEX
  8
0
  6
CONTINUOUS
 10
2.706880
 20
3.165360
  0
VERTEX
  8
0
  6
CONTINUOUS
 10
2.756160
 20
3.137640
  0
VERTEX
  8
0
  6
CONTINUOUS
 10
2.829640
 20
3.093640
  0
VERTEX
  8
0
  6
CONTINUOUS
 10
2.906200
 20
3.056240
  0
VERTEX
  8
0
  6
CONTINUOUS
 10
2.958120
 20
3.035120
  0
VERTEX
  8
0
  6
CONTINUOUS
 10
3.036880
 20
3.008720
  0
VERTEX
  8
0
  6
CONTINUOUS
 10
3.114760
 20
2.988040
  0
VERTEX
  8
0
  6
CONTINUOUS
 10
3.189560
 20
2.971760
  0
VERTEX
  8
0
  6
CONTINUOUS
 10
3.281960
 20
2.957240
  0
VERTEX
  8
0
  6
CONTINUOUS
 10
3.380080
 20
2.947120
  0
VERTEX
  8
0
  6
CONTINUOUS
 10
3.451360
 20
2.943600
  0
VERTEX
  8
0
  6
CONTINUOUS
 10
3.470280
 20
2.943600
  0
VERTEX
  8
0
  6
CONTINUOUS
 10
3.470720
 20
2.842400
  0
VERTEX
  8
0
  6
CONTINUOUS
 10
3.590400
 20
2.842400
  0
VERTEX
  8
0
  6
CONTINUOUS
 10
3.590400
 20
2.719200
  0
VERTEX
  8
0
  6
CONTINUOUS
 10
3.639240
 20
2.718320
  0
VERTEX
  8
0
  6
CONTINUOUS
 10
3.702600
 20
2.713040
  0
VERTEX
  8
0
  6
CONTINUOUS
 10
3.739120
 20
2.707760
  0
VERTEX
  8
0
  6
CONTINUOUS
 10
3.786200
 20
2.696760
  0
VERTEX
  8
0
  6
CONTINUOUS
 10
3.824480
 20
2.683120
  0
VERTEX
  8
0
  6
CONTINUOUS
 10
3.855280
 20
2.668160
  0
VERTEX
  8
0
  6
CONTINUOUS
 10
3.886520
 20
2.647040
  0
VERTEX
  8
0
  6
CONTINUOUS
 10
3.917320
 20
2.617120
  0
VERTEX
  8
0
  6
CONTINUOUS
 10
3.943280
 20
2.588520
  0
VERTEX
  8
0
  6
CONTINUOUS
 10
3.979360
 20
2.554640
  0
VERTEX
  8
0
  6
CONTINUOUS
 10
4.006200
 20
2.534400
  0
VERTEX
  8
0
  6
CONTINUOUS
 10
4.040520
 20
2.515040
  0
VERTEX
  8
0
  6
CONTINUOUS
 10
4.083200
 20
2.497440
  0
VERTEX
  8
0
  6
CONTINUOUS
 10
4.121040
 20
2.486880
  0
VERTEX
  8
0
  6
CONTINUOUS
 10
4.165040
 20
2.479400
  0
VERTEX
  8
0
  6
CONTINUOUS
 10
4.197600
 20
2.476320
  0
VERTEX
  8
0
  6
CONTINUOUS
 10
4.233240
 20
2.475440
  0
VERTEX
  8
0
  6
CONTINUOUS
 10
4.233240
 20
2.255440
  0
VERTEX
  8
0
  6
CONTINUOUS
 10
4.233240
 20
2.255880
  0
VERTEX
  8
0
  6
CONTINUOUS
 10
1.230680
 20
2.255880
  0
VERTEX
  8
0
  6
CONTINUOUS
 10
1.230680
 20
3.251160
  0
SEQEND
  8
0
  0
SOLID
  8
0
 62
    15
 10
7.062440
 20
1.606000
 11
7.061560
 21
2.348280
 12
7.110840
 22
1.605120
 13
7.110400
 23
2.347400
  0
POLYLINE
  8
0
  6
CONTINUOUS
 66
     1
 40
0.000000
 41
0.000000
  0
VERTEX
  8
0
  6
CONTINUOUS
 10
7.062440
 20
1.606000
  0
VERTEX
  8
0
  6
CONTINUOUS
 10
7.061560
 20
2.348280
  0
VERTEX
  8
0
  6
CONTINUOUS
 10
7.110400
 20
2.347400
  0
VERTEX
  8
0
  6
CONTINUOUS
 10
7.110840
 20
1.605120
  0
VERTEX
  8
0
  6
CONTINUOUS
 10
7.062440
 20
1.606000
  0
SEQEND
  8
0
  0
SOLID
  8
0
 62
    15
 10
5.448520
 20
1.881880
 11
5.447640
 21
2.624160
 12
5.553240
 22
1.882320
 13
5.552800
 23
2.624160
  0
POLYLINE
  8
0
  6
CONTINUOUS
 66
     1
 40
0.000000
 41
0.000000
  0
VERTEX
  8
0
  6
CONTINUOUS
 10
5.448520
 20
1.881880
  0
VERTEX
  8
0
  6
CONTINUOUS
 10
5.447640
 20
2.624160
  0
VERTEX
  8
0
  6
CONTINUOUS
 10
5.552800
 20
2.624160
  0
VERTEX
  8
0
  6
CONTINUOUS
 10
5.553240
 20
1.882320
  0
VERTEX
  8
0
  6
CONTINUOUS
 10
5.448520
 20
1.881880
  0
SEQEND
  8
0
  0
SOLID
  8
0
 62
    15
 10
5.553240
 20
1.882320
 11
5.552800
 21
2.624160
 12
5.580080
 22
1.942600
 13
5.579640
 23
2.684440
  0
POLYLINE
  8
0
  6
CONTINUOUS
 66
     1
 40
0.000000
 41
0.000000
  0
VERTEX
  8
0
  6
CONTINUOUS
 10
5.553240
 20
1.882320
  0
VERTEX
  8
0
  6
CONTINUOUS
 10
5.552800
 20
2.624160
  0
VERTEX
  8
0
  6
CONTINUOUS
 10
5.579640
 20
2.684440
  0
VERTEX
  8
0
  6
CONTINUOUS
 10
5.580080
 20
1.942600
  0
VERTEX
  8
0
  6
CONTINUOUS
 10
5.553240
 20
1.882320
  0
SEQEND
  8
0
  0
SOLID
  8
0
 62
    15
 10
5.580080
 20
1.942600
 11
5.579640
 21
2.684440
 12
5.610880
 22
1.993640
 13
5.610440
 23
2.735920
  0
POLYLINE
  8
0
  6
CONTINUOUS
 66
     1
 40
0.000000
 41
0.000000
  0
VERTEX
  8
0
  6
CONTINUOUS
 10
5.580080
 20
1.942600
  0
VERTEX
  8
0
  6
CONTINUOUS
 10
5.579640
 20
2.684440
  0
VERTEX
  8
0
  6
CONTINUOUS
 10
5.610440
 20
2.735920
  0
VERTEX
  8
0
  6
CONTINUOUS
 10
5.610880
 20
1.993640
  0
VERTEX
  8
0
  6
CONTINUOUS
 10
5.580080
 20
1.942600
  0
SEQEND
  8
0
  0
SOLID
  8
0
 62
    15
 10
5.610880
 20
1.993640
 11
5.610440
 21
2.735920
 12
5.645200
 22
2.036760
 13
5.644320
 23
2.778600
  0
POLYLINE
  8
0
  6
CONTINUOUS
 66
     1
 40
0.000000
 41
0.000000
  0
VERTEX
  8
0
  6
CONTINUOUS
 10
5.610880
 20
1.993640
  0
VERTEX
  8
0
  6
CONTINUOUS
 10
5.610440
 20
2.735920
  0
VERTEX
  8
0
  6
CONTINUOUS
 10
5.644320
 20
2.778600
  0
VERTEX
  8
0
  6
CONTINUOUS
 10
5.645200
 20
2.036760
  0
VERTEX
  8
0
  6
CONTINUOUS
 10
5.610880
 20
1.993640
  0
SEQEND
  8
0
  0
SOLID
  8
0
 62
    15
 10
5.645200
 20
2.036760
 11
5.644320
 21
2.778600
 12
5.682160
 22
2.071080
 13
5.681720
 23
2.813360
  0
POLYLINE
  8
0
  6
CONTINUOUS
 66
     1
 40
0.000000
 41
0.000000
  0
VERTEX
  8
0
  6
CONTINUOUS
 10
5.645200
 20
2.036760
  0
VERTEX
  8
0
  6
CONTINUOUS
 10
5.644320
 20
2.778600
  0
VERTEX
  8
0
  6
CONTINUOUS
 10
5.681720
 20
2.813360
  0
VERTEX
  8
0
  6
CONTINUOUS
 10
5.682160
 20
2.071080
  0
VERTEX
  8
0
  6
CONTINUOUS
 10
5.645200
 20
2.036760
  0
SEQEND
  8
0
  0
SOLID
  8
0
 62
    15
 10
5.682160
 20
2.071080
 11
5.681720
 21
2.813360
 12
5.722640
 22
2.098360
 13
5.721760
 23
2.840200
  0
POLYLINE
  8
0
  6
CONTINUOUS
 66
     1
 40
0.000000
 41
0.000000
  0
VERTEX
  8
0
  6
CONTINUOUS
 10
5.682160
 20
2.071080
  0
VERTEX
  8
0
  6
CONTINUOUS
 10
5.681720
 20
2.813360
  0
VERTEX
  8
0
  6
CONTINUOUS
 10
5.721760
 20
2.840200
  0
VERTEX
  8
0
  6
CONTINUOUS
 10
5.722640
 20
2.098360
  0
VERTEX
  8
0
  6
CONTINUOUS
 10
5.682160
 20
2.071080
  0
SEQEND
  8
0
  0
SOLID
  8
0
 62
    15
 10
5.722640
 20
2.098360
 11
5.721760
 21
2.840200
 12
5.764880
 22
2.117720
 13
5.764440
 23
2.860000
  0
POLYLINE
  8
0
  6
CONTINUOUS
 66
     1
 40
0.000000
 41
0.000000
  0
VERTEX
  8
0
  6
CONTINUOUS
 10
5.722640
 20
2.098360
  0
VERTEX
  8
0
  6
CONTINUOUS
 10
5.721760
 20
2.840200
  0
VERTEX
  8
0
  6
CONTINUOUS
 10
5.764440
 20
2.860000
  0
VERTEX
  8
0
  6
CONTINUOUS
 10
5.764880
 20
2.117720
  0
VERTEX
  8
0
  6
CONTINUOUS
 10
5.722640
 20
2.098360
  0
SEQEND
  8
0
  0
SOLID
  8
0
 62
    15
 10
5.764880
 20
2.117720
 11
5.764440
 21
2.860000
 12
5.809760
 22
2.130920
 13
5.808880
 23
2.872760
  0
POLYLINE
  8
0
  6
CONTINUOUS
 66
     1
 40
0.000000
 41
0.000000
  0
VERTEX
  8
0
  6
CONTINUOUS
 10
5.764880
 20
2.117720
  0
VERTEX
  8
0
  6
CONTINUOUS
 10
5.764440
 20
2.860000
  0
VERTEX
  8
0
  6
CONTINUOUS
 10
5.808880
 20
2.872760
  0
VERTEX
  8
0
  6
CONTINUOUS
 10
5.809760
 20
2.130920
  0
VERTEX
  8
0
  6
CONTINUOUS
 10
5.764880
 20
2.117720
  0
SEQEND
  8
0
  0
SOLID
  8
0
 62
    15
 10
5.809760
 20
2.130920
 11
5.808880
 21
2.872760
 12
5.855960
 22
2.137080
 13
5.855520
 23
2.879360
  0
POLYLINE
  8
0
  6
CONTINUOUS
 66
     1
 40
0.000000
 41
0.000000
  0
VERTEX
  8
0
  6
CONTINUOUS
 10
5.809760
 20
2.130920
  0
VERTEX
  8
0
  6
CONTINUOUS
 10
5.808880
 20
2.872760
  0
VERTEX
  8
0
  6
CONTINUOUS
 10
5.855520
 20
2.879360
  0
VERTEX
  8
0
  6
CONTINUOUS
 10
5.855960
 20
2.137080
  0
VERTEX
  8
0
  6
CONTINUOUS
 10
5.809760
 20
2.130920
  0
SEQEND
  8
0
  0
SOLID
  8
0
 62
    15
 10
5.855960
 20
2.137080
 11
5.855520
 21
2.879360
 12
5.903920
 22
2.137520
 13
5.903480
 23
2.879800
  0
POLYLINE
  8
0
  6
CONTINUOUS
 66
     1
 40
0.000000
 41
0.000000
  0
VERTEX
  8
0
  6
CONTINUOUS
 10
5.855960
 20
2.137080
  0
VERTEX
  8
0
  6
CONTINUOUS
 10
5.855520
 20
2.879360
  0
VERTEX
  8
0
  6
CONTINUOUS
 10
5.903480
 20
2.879800
  0
VERTEX
  8
0
  6
CONTINUOUS
 10
5.903920
 20
2.137520
  0
VERTEX
  8
0
  6
CONTINUOUS
 10
5.855960
 20
2.137080
  0
SEQEND
  8
0
  0
SOLID
  8
0
 62
    15
 10
5.903920
 20
2.137520
 11
5.903480
 21
2.879800
 12
5.953200
 22
2.132680
 13
5.952320
 23
2.874520
  0
POLYLINE
  8
0
  6
CONTINUOUS
 66
     1
 40
0.000000
 41
0.000000
  0
VERTEX
  8
0
  6
CONTINUOUS
 10
5.903920
 20
2.137520
  0
VERTEX
  8
0
  6
CONTINUOUS
 10
5.903480
 20
2.879800
  0
VERTEX
  8
0
  6
CONTINUOUS
 10
5.952320
 20
2.874520
  0
VERTEX
  8
0
  6
CONTINUOUS
 10
5.953200
 20
2.132680
  0
VERTEX
  8
0
  6
CONTINUOUS
 10
5.903920
 20
2.137520
  0
SEQEND
  8
0
  0
SOLID
  8
0
 62
    15
 10
5.953200
 20
2.132680
 11
5.952320
 21
2.874520
 12
6.053080
 22
2.107600
 13
6.052200
 23
2.849440
  0
POLYLINE
  8
0
  6
CONTINUOUS
 66
     1
 40
0.000000
 41
0.000000
  0
VERTEX
  8
0
  6
CONTINUOUS
 10
5.953200
 20
2.132680
  0
VERTEX
  8
0
  6
CONTINUOUS
 10
5.952320
 20
2.874520
  0
VERTEX
  8
0
  6
CONTINUOUS
 10
6.052200
 20
2.849440
  0
VERTEX
  8
0
  6
CONTINUOUS
 10
6.053080
 20
2.107600
  0
VERTEX
  8
0
  6
CONTINUOUS
 10
5.953200
 20
2.132680
  0
SEQEND
  8
0
  0
SOLID
  8
0
 62
    15
 10
6.053080
 20
2.107600
 11
6.052200
 21
2.849440
 12
6.153840
 22
2.065360
 13
6.152960
 23
2.807200
  0
POLYLINE
  8
0
  6
CONTINUOUS
 66
     1
 40
0.000000
 41
0.000000
  0
VERTEX
  8
0
  6
CONTINUOUS
 10
6.053080
 20
2.107600
  0
VERTEX
  8
0
  6
CONTINUOUS
 10
6.052200
 20
2.849440
  0
VERTEX
  8
0
  6
CONTINUOUS
 10
6.152960
 20
2.807200
  0
VERTEX
  8
0
  6
CONTINUOUS
 10
6.153840
 20
2.065360
  0
VERTEX
  8
0
  6
CONTINUOUS
 10
6.053080
 20
2.107600
  0
SEQEND
  8
0
  0
SOLID
  8
0
 62
    15
 10
6.153840
 20
2.065360
 11
6.152960
 21
2.807200
 12
6.251960
 22
2.009480
 13
6.251520
 23
2.751760
  0
POLYLINE
  8
0
  6
CONTINUOUS
 66
     1
 40
0.000000
 41
0.000000
  0
VERTEX
  8
0
  6
CONTINUOUS
 10
6.153840
 20
2.065360
  0
VERTEX
  8
0
  6
CONTINUOUS
 10
6.152960
 20
2.807200
  0
VERTEX
  8
0
  6
CONTINUOUS
 10
6.251520
 20
2.751760
  0
VERTEX
  8
0
  6
CONTINUOUS
 10
6.251960
 20
2.009480
  0
VERTEX
  8
0
  6
CONTINUOUS
 10
6.153840
 20
2.065360
  0
SEQEND
  8
0
  0
SOLID
  8
0
 62
    15
 10
6.251960
 20
2.009480
 11
6.251520
 21
2.751760
 12
6.352280
 22
1.954920
 13
6.351400
 23
2.697200
  0
POLYLINE
  8
0
  6
CONTINUOUS
 66
     1
 40
0.000000
 41
0.000000
  0
VERTEX
  8
0
  6
CONTINUOUS
 10
6.251960
 20
2.009480
  0
VERTEX
  8
0
  6
CONTINUOUS
 10
6.251520
 20
2.751760
  0
VERTEX
  8
0
  6
CONTINUOUS
 10
6.351400
 20
2.697200
  0
VERTEX
  8
0
  6
CONTINUOUS
 10
6.352280
 20
1.954920
  0
VERTEX
  8
0
  6
CONTINUOUS
 10
6.251960
 20
2.009480
  0
SEQEND
  8
0
  0
SOLID
  8
0
 62
    15
 10
6.352280
 20
1.954920
 11
6.351400
 21
2.697200
 12
6.456560
 22
1.912680
 13
6.455680
 23
2.654520
  0
POLYLINE
  8
0
  6
CONTINUOUS
 66
     1
 40
0.000000
 41
0.000000
  0
VERTEX
  8
0
  6
CONTINUOUS
 10
6.352280
 20
1.954920
  0
VERTEX
  8
0
  6
CONTINUOUS
 10
6.351400
 20
2.697200
  0
VERTEX
  8
0
  6
CONTINUOUS
 10
6.455680
 20
2.654520
  0
VERTEX
  8
0
  6
CONTINUOUS
 10
6.456560
 20
1.912680
  0
VERTEX
  8
0
  6
CONTINUOUS
 10
6.352280
 20
1.954920
  0
SEQEND
  8
0
  0
SOLID
  8
0
 62
    15
 10
6.456560
 20
1.912680
 11
6.455680
 21
2.654520
 12
6.560840
 22
1.881000
 13
6.560400
 23
2.623280
  0
POLYLINE
  8
0
  6
CONTINUOUS
 66
     1
 40
0.000000
 41
0.000000
  0
VERTEX
  8
0
  6
CONTINUOUS
 10
6.456560
 20
1.912680
  0
VERTEX
  8
0
  6
CONTINUOUS
 10
6.455680
 20
2.654520
  0
VERTEX
  8
0
  6
CONTINUOUS
 10
6.560400
 20
2.623280
  0
VERTEX
  8
0
  6
CONTINUOUS
 10
6.560840
 20
1.881000
  0
VERTEX
  8
0
  6
CONTINUOUS
 10
6.456560
 20
1.912680
  0
SEQEND
  8
0
  0
SOLID
  8
0
 62
    15
 10
6.560840
 20
1.881000
 11
6.560400
 21
2.623280
 12
6.661600
 22
1.858560
 13
6.660720
 23
2.600840
  0
POLYLINE
  8
0
  6
CONTINUOUS
 66
     1
 40
0.000000
 41
0.000000
  0
VERTEX
  8
0
  6
CONTINUOUS
 10
6.560840
 20
1.881000
  0
VERTEX
  8
0
  6
CONTINUOUS
 10
6.560400
 20
2.623280
  0
VERTEX
  8
0
  6
CONTINUOUS
 10
6.660720
 20
2.600840
  0
VERTEX
  8
0
  6
CONTINUOUS
 10
6.661600
 20
1.858560
  0
VERTEX
  8
0
  6
CONTINUOUS
 10
6.560840
 20
1.881000
  0
SEQEND
  8
0
  0
SOLID
  8
0
 62
    15
 10
6.661600
 20
1.858560
 11
6.660720
 21
2.600840
 12
6.754000
 22
1.844040
 13
6.753560
 23
2.585880
  0
POLYLINE
  8
0
  6
CONTINUOUS
 66
     1
 40
0.000000
 41
0.000000
  0
VERTEX
  8
0
  6
CONTINUOUS
 10
6.661600
 20
1.858560
  0
VERTEX
  8
0
  6
CONTINUOUS
 10
6.660720
 20
2.600840
  0
VERTEX
  8
0
  6
CONTINUOUS
 10
6.753560
 20
2.585880
  0
VERTEX
  8
0
  6
CONTINUOUS
 10
6.754000
 20
1.844040
  0
VERTEX
  8
0
  6
CONTINUOUS
 10
6.661600
 20
1.858560
  0
SEQEND
  8
0
  0
SOLID
  8
0
 62
    15
 10
6.754000
 20
1.844040
 11
6.753560
 21
2.585880
 12
6.834520
 22
1.835240
 13
6.833640
 23
2.577520
  0
POLYLINE
  8
0
  6
CONTINUOUS
 66
     1
 40
0.000000
 41
0.000000
  0
VERTEX
  8
0
  6
CONTINUOUS
 10
6.754000
 20
1.844040
  0
VERTEX
  8
0
  6
CONTINUOUS
 10
6.753560
 20
2.585880
  0
VERTEX
  8
0
  6
CONTINUOUS
 10
6.833640
 20
2.577520
  0
VERTEX
  8
0
  6
CONTINUOUS
 10
6.834520
 20
1.835240
  0
VERTEX
  8
0
  6
CONTINUOUS
 10
6.754000
 20
1.844040
  0
SEQEND
  8
0
  0
SOLID
  8
0
 62
    15
 10
6.834520
 20
1.835240
 11
6.833640
 21
2.577520
 12
6.868840
 22
1.833040
 13
6.867960
 23
2.574880
  0
POLYLINE
  8
0
  6
CONTINUOUS
 66
     1
 40
0.000000
 41
0.000000
  0
VERTEX
  8
0
  6
CONTINUOUS
 10
6.834520
 20
1.835240
  0
VERTEX
  8
0
  6
CONTINUOUS
 10
6.833640
 20
2.577520
  0
VERTEX
  8
0
  6
CONTINUOUS
 10
6.867960
 20
2.574880
  0
VERTEX
  8
0
  6
CONTINUOUS
 10
6.868840
 20
1.833040
  0
VERTEX
  8
0
  6
CONTINUOUS
 10
6.834520
 20
1.835240
  0
SEQEND
  8
0
  0
SOLID
  8
0
 62
    15
 10
6.868840
 20
1.833040
 11
6.867960
 21
2.574880
 12
6.898760
 22
1.831280
 13
6.897880
 23
2.573560
  0
POLYLINE
  8
0
  6
CONTINUOUS
 66
     1
 40
0.000000
 41
0.000000
  0
VERTEX
  8
0
  6
CONTINUOUS
 10
6.868840
 20
1.833040
  0
VERTEX
  8
0
  6
CONTINUOUS
 10
6.867960
 20
2.574880
  0
VERTEX
  8
0
  6
CONTINUOUS
 10
6.897880
 20
2.573560
  0
VERTEX
  8
0
  6
CONTINUOUS
 10
6.898760
 20
1.831280
  0
VERTEX
  8
0
  6
CONTINUOUS
 10
6.868840
 20
1.833040
  0
SEQEND
  8
0
  0
SOLID
  8
0
 62
    15
 10
6.898760
 20
1.831280
 11
6.897880
 21
2.573560
 12
6.923400
 22
1.830400
 13
6.922520
 23
2.572680
  0
POLYLINE
  8
0
  6
CONTINUOUS
 66
     1
 40
0.000000
 41
0.000000
  0
VERTEX
  8
0
  6
CONTINUOUS
 10
6.898760
 20
1.831280
  0
VERTEX
  8
0
  6
CONTINUOUS
 10
6.897880
 20
2.573560
  0
VERTEX
  8
0
  6
CONTINUOUS
 10
6.922520
 20
2.572680
  0
VERTEX
  8
0
  6
CONTINUOUS
 10
6.923400
 20
1.830400
  0
VERTEX
  8
0
  6
CONTINUOUS
 10
6.898760
 20
1.831280
  0
SEQEND
  8
0
  0
SOLID
  8
0
 62
    15
 10
4.702280
 20
1.142680
 11
4.701840
 21
1.884960
 12
4.702280
 22
2.137520
 13
4.701840
 23
2.879360
  0
POLYLINE
  8
0
  6
CONTINUOUS
 66
     1
 40
0.000000
 41
0.000000
  0
VERTEX
  8
0
  6
CONTINUOUS
 10
4.702280
 20
1.142680
  0
VERTEX
  8
0
  6
CONTINUOUS
 10
4.701840
 20
1.884960
  0
VERTEX
  8
0
  6
CONTINUOUS
 10
4.701840
 20
2.879360
  0
VERTEX
  8
0
  6
CONTINUOUS
 10
4.702280
 20
2.137520
  0
VERTEX
  8
0
  6
CONTINUOUS
 10
4.702280
 20
1.142680
  0
SEQEND
  8
0
  0
SOLID
  8
0
 62
    15
 10
6.942760
 20
1.729200
 11
6.941880
 21
2.471040
 12
7.062440
 22
1.729640
 13
7.061560
 23
2.471480
  0
POLYLINE
  8
0
  6
CONTINUOUS
 66
     1
 40
0.000000
 41
0.000000
  0
VERTEX
  8
0
  6
CONTINUOUS
 10
6.942760
 20
1.729200
  0
VERTEX
  8
0
  6
CONTINUOUS
 10
6.941880
 20
2.471040
  0
VERTEX
  8
0
  6
CONTINUOUS
 10
7.061560
 20
2.471480
  0
VERTEX
  8
0
  6
CONTINUOUS
 10
7.062440
 20
1.729640
  0
VERTEX
  8
0
  6
CONTINUOUS
 10
6.942760
 20
1.729200
  0
SEQEND
  8
0
  0
SOLID
  8
0
 62
    15
 10
6.942320
 20
1.830400
 11
6.941440
 21
2.572240
 12
6.942760
 22
1.729200
 13
6.941880
 23
2.471040
  0
POLYLINE
  8
0
  6
CONTINUOUS
 66
     1
 40
0.000000
 41
0.000000
  0
VERTEX
  8
0
  6
CONTINUOUS
 10
6.942320
 20
1.830400
  0
VERTEX
  8
0
  6
CONTINUOUS
 10
6.941440
 20
2.572240
  0
VERTEX
  8
0
  6
CONTINUOUS
 10
6.941880
 20
2.471040
  0
VERTEX
  8
0
  6
CONTINUOUS
 10
6.942760
 20
1.729200
  0
VERTEX
  8
0
  6
CONTINUOUS
 10
6.942320
 20
1.830400
  0
SEQEND
  8
0
  0
SOLID
  8
0
 62
    15
 10
6.923400
 20
1.830400
 11
6.922520
 21
2.572680
 12
6.942320
 22
1.830400
 13
6.941440
 23
2.572240
  0
POLYLINE
  8
0
  6
CONTINUOUS
 66
     1
 40
0.000000
 41
0.000000
  0
VERTEX
  8
0
  6
CONTINUOUS
 10
6.923400
 20
1.830400
  0
VERTEX
  8
0
  6
CONTINUOUS
 10
6.922520
 20
2.572680
  0
VERTEX
  8
0
  6
CONTINUOUS
 10
6.941440
 20
2.572240
  0
VERTEX
  8
0
  6
CONTINUOUS
 10
6.942320
 20
1.830400
  0
VERTEX
  8
0
  6
CONTINUOUS
 10
6.923400
 20
1.830400
  0
SEQEND
  8
0
  0
SOLID
  8
0
 62
    15
 10
7.110840
 20
1.605120
 11
7.110400
 21
2.347400
 12
7.154400
 22
1.602480
 13
7.153960
 23
2.344320
  0
POLYLINE
  8
0
  6
CONTINUOUS
 66
     1
 40
0.000000
 41
0.000000
  0
VERTEX
  8
0
  6
CONTINUOUS
 10
7.110840
 20
1.605120
  0
VERTEX
  8
0
  6
CONTINUOUS
 10
7.110400
 20
2.347400
  0
VERTEX
  8
0
  6
CONTINUOUS
 10
7.153960
 20
2.344320
  0
VERTEX
  8
0
  6
CONTINUOUS
 10
7.154400
 20
1.602480
  0
VERTEX
  8
0
  6
CONTINUOUS
 10
7.110840
 20
1.605120
  0
SEQEND
  8
0
  0
SOLID
  8
0
 62
    15
 10
7.154400
 20
1.602480
 11
7.153960
 21
2.344320
 12
7.193560
 22
1.597640
 13
7.192680
 23
2.339480
  0
POLYLINE
  8
0
  6
CONTINUOUS
 66
     1
 40
0.000000
 41
0.000000
  0
VERTEX
  8
0
  6
CONTINUOUS
 10
7.154400
 20
1.602480
  0
VERTEX
  8
0
  6
CONTINUOUS
 10
7.153960
 20
2.344320
  0
VERTEX
  8
0
  6
CONTINUOUS
 10
7.192680
 20
2.339480
  0
VERTEX
  8
0
  6
CONTINUOUS
 10
7.193560
 20
1.597640
  0
VERTEX
  8
0
  6
CONTINUOUS
 10
7.154400
 20
1.602480
  0
SEQEND
  8
0
  0
SOLID
  8
0
 62
    15
 10
7.193560
 20
1.597640
 11
7.192680
 21
2.339480
 12
7.227880
 22
1.591040
 13
7.227000
 23
2.333320
  0
POLYLINE
  8
0
  6
CONTINUOUS
 66
     1
 40
0.000000
 41
0.000000
  0
VERTEX
  8
0
  6
CONTINUOUS
 10
7.193560
 20
1.597640
  0
VERTEX
  8
0
  6
CONTINUOUS
 10
7.192680
 20
2.339480
  0
VERTEX
  8
0
  6
CONTINUOUS
 10
7.227000
 20
2.333320
  0
VERTEX
  8
0
  6
CONTINUOUS
 10
7.227880
 20
1.591040
  0
VERTEX
  8
0
  6
CONTINUOUS
 10
7.193560
 20
1.597640
  0
SEQEND
  8
0
  0
SOLID
  8
0
 62
    15
 10
7.227880
 20
1.591040
 11
7.227000
 21
2.333320
 12
7.284200
 22
1.574760
 13
7.283760
 23
2.316600
  0
POLYLINE
  8
0
  6
CONTINUOUS
 66
     1
 40
0.000000
 41
0.000000
  0
VERTEX
  8
0
  6
CONTINUOUS
 10
7.227880
 20
1.591040
  0
VERTEX
  8
0
  6
CONTINUOUS
 10
7.227000
 20
2.333320
  0
VERTEX
  8
0
  6
CONTINUOUS
 10
7.283760
 20
2.316600
  0
VERTEX
  8
0
  6
CONTINUOUS
 10
7.284200
 20
1.574760
  0
VERTEX
  8
0
  6
CONTINUOUS
 10
7.227880
 20
1.591040
  0
SEQEND
  8
0
  0
SOLID
  8
0
 62
    15
 10
7.284200
 20
1.574760
 11
7.283760
 21
2.316600
 12
7.326880
 22
1.554960
 13
7.326440
 23
2.297240
  0
POLYLINE
  8
0
  6
CONTINUOUS
 66
     1
 40
0.000000
 41
0.000000
  0
VERTEX
  8
0
  6
CONTINUOUS
 10
7.284200
 20
1.574760
  0
VERTEX
  8
0
  6
CONTINUOUS
 10
7.283760
 20
2.316600
  0
VERTEX
  8
0
  6
CONTINUOUS
 10
7.326440
 20
2.297240
  0
VERTEX
  8
0
  6
CONTINUOUS
 10
7.326880
 20
1.554960
  0
VERTEX
  8
0
  6
CONTINUOUS
 10
7.284200
 20
1.574760
  0
SEQEND
  8
0
  0
SOLID
  8
0
 62
    15
 10
7.326880
 20
1.554960
 11
7.326440
 21
2.297240
 12
7.358120
 22
1.533840
 13
7.357680
 23
2.276120
  0
POLYLINE
  8
0
  6
CONTINUOUS
 66
     1
 40
0.000000
 41
0.000000
  0
VERTEX
  8
0
  6
CONTINUOUS
 10
7.326880
 20
1.554960
  0
VERTEX
  8
0
  6
CONTINUOUS
 10
7.326440
 20
2.297240
  0
VERTEX
  8
0
  6
CONTINUOUS
 10
7.357680
 20
2.276120
  0
VERTEX
  8
0
  6
CONTINUOUS
 10
7.358120
 20
1.533840
  0
VERTEX
  8
0
  6
CONTINUOUS
 10
7.326880
 20
1.554960
  0
SEQEND
  8
0
  0
SOLID
  8
0
 62
    15
 10
7.358120
 20
1.533840
 11
7.357680
 21
2.276120
 12
7.380560
 22
1.513160
 13
7.380120
 23
2.255440
  0
POLYLINE
  8
0
  6
CONTINUOUS
 66
     1
 40
0.000000
 41
0.000000
  0
VERTEX
  8
0
  6
CONTINUOUS
 10
7.358120
 20
1.533840
  0
VERTEX
  8
0
  6
CONTINUOUS
 10
7.357680
 20
2.276120
  0
VERTEX
  8
0
  6
CONTINUOUS
 10
7.380120
 20
2.255440
  0
VERTEX
  8
0
  6
CONTINUOUS
 10
7.380560
 20
1.513160
  0
VERTEX
  8
0
  6
CONTINUOUS
 10
7.358120
 20
1.533840
  0
SEQEND
  8
0
  0
SOLID
  8
0
 62
    15
 10
7.380560
 20
1.513160
 11
7.380120
 21
2.255440
 12
7.389360
 22
1.503920
 13
7.388480
 23
2.245760
  0
POLYLINE
  8
0
  6
CONTINUOUS
 66
     1
 40
0.000000
 41
0.000000
  0
VERTEX
  8
0
  6
CONTINUOUS
 10
7.380560
 20
1.513160
  0
VERTEX
  8
0
  6
CONTINUOUS
 10
7.380120
 20
2.255440
  0
VERTEX
  8
0
  6
CONTINUOUS
 10
7.388480
 20
2.245760
  0
VERTEX
  8
0
  6
CONTINUOUS
 10
7.389360
 20
1.503920
  0
VERTEX
  8
0
  6
CONTINUOUS
 10
7.380560
 20
1.513160
  0
SEQEND
  8
0
  0
SOLID
  8
0
 62
    15
 10
7.389360
 20
1.503920
 11
7.388480
 21
2.245760
 12
7.393320
 22
1.499520
 13
7.392440
 23
2.241360
  0
POLYLINE
  8
0
  6
CONTINUOUS
 66
     1
 40
0.000000
 41
0.000000
  0
VERTEX
  8
0
  6
CONTINUOUS
 10
7.389360
 20
1.503920
  0
VERTEX
  8
0
  6
CONTINUOUS
 10
7.388480
 20
2.245760
  0
VERTEX
  8
0
  6
CONTINUOUS
 10
7.392440
 20
2.241360
  0
VERTEX
  8
0
  6
CONTINUOUS
 10
7.393320
 20
1.499520
  0
VERTEX
  8
0
  6
CONTINUOUS
 10
7.389360
 20
1.503920
  0
SEQEND
  8
0
  0
SOLID
  8
0
 62
    15
 10
7.393320
 20
1.499520
 11
7.392440
 21
2.241360
 12
7.396840
 22
1.495120
 13
7.395960
 23
2.237400
  0
POLYLINE
  8
0
  6
CONTINUOUS
 66
     1
 40
0.000000
 41
0.000000
  0
VERTEX
  8
0
  6
CONTINUOUS
 10
7.393320
 20
1.499520
  0
VERTEX
  8
0
  6
CONTINUOUS
 10
7.392440
 20
2.241360
  0
VERTEX
  8
0
  6
CONTINUOUS
 10
7.395960
 20
2.237400
  0
VERTEX
  8
0
  6
CONTINUOUS
 10
7.396840
 20
1.495120
  0
VERTEX
  8
0
  6
CONTINUOUS
 10
7.393320
 20
1.499520
  0
SEQEND
  8
0
  0
SOLID
  8
0
 62
    15
 10
7.396840
 20
1.495120
 11
7.395960
 21
2.237400
 12
7.409160
 22
1.481920
 13
7.408720
 23
2.223760
  0
POLYLINE
  8
0
  6
CONTINUOUS
 66
     1
 40
0.000000
 41
0.000000
  0
VERTEX
  8
0
  6
CONTINUOUS
 10
7.396840
 20
1.495120
  0
VERTEX
  8
0
  6
CONTINUOUS
 10
7.395960
 20
2.237400
  0
VERTEX
  8
0
  6
CONTINUOUS
 10
7.408720
 20
2.223760
  0
VERTEX
  8
0
  6
CONTINUOUS
 10
7.409160
 20
1.481920
  0
VERTEX
  8
0
  6
CONTINUOUS
 10
7.396840
 20
1.495120
  0
SEQEND
  8
0
  0
SOLID
  8
0
 62
    15
 10
7.409160
 20
1.481920
 11
7.408720
 21
2.223760
 12
7.422360
 22
1.468720
 13
7.421920
 23
2.210560
  0
POLYLINE
  8
0
  6
CONTINUOUS
 66
     1
 40
0.000000
 41
0.000000
  0
VERTEX
  8
0
  6
CONTINUOUS
 10
7.409160
 20
1.481920
  0
VERTEX
  8
0
  6
CONTINUOUS
 10
7.408720
 20
2.223760
  0
VERTEX
  8
0
  6
CONTINUOUS
 10
7.421920
 20
2.210560
  0
VERTEX
  8
0
  6
CONTINUOUS
 10
7.422360
 20
1.468720
  0
VERTEX
  8
0
  6
CONTINUOUS
 10
7.409160
 20
1.481920
  0
SEQEND
  8
0
  0
SOLID
  8
0
 62
    15
 10
7.422360
 20
1.468720
 11
7.421920
 21
2.210560
 12
7.440400
 22
1.451120
 13
7.439520
 23
2.193400
  0
POLYLINE
  8
0
  6
CONTINUOUS
 66
     1
 40
0.000000
 41
0.000000
  0
VERTEX
  8
0
  6
CONTINUOUS
 10
7.422360
 20
1.468720
  0
VERTEX
  8
0
  6
CONTINUOUS
 10
7.421920
 20
2.210560
  0
VERTEX
  8
0
  6
CONTINUOUS
 10
7.439520
 20
2.193400
  0
VERTEX
  8
0
  6
CONTINUOUS
 10
7.440400
 20
1.451120
  0
VERTEX
  8
0
  6
CONTINUOUS
 10
7.422360
 20
1.468720
  0
SEQEND
  8
0
  0
SOLID
  8
0
 62
    15
 10
7.440400
 20
1.451120
 11
7.439520
 21
2.193400
 12
7.463720
 22
1.431760
 13
7.463280
 23
2.173600
  0
POLYLINE
  8
0
  6
CONTINUOUS
 66
     1
 40
0.000000
 41
0.000000
  0
VERTEX
  8
0
  6
CONTINUOUS
 10
7.440400
 20
1.451120
  0
VERTEX
  8
0
  6
CONTINUOUS
 10
7.439520
 20
2.193400
  0
VERTEX
  8
0
  6
CONTINUOUS
 10
7.463280
 20
2.173600
  0
VERTEX
  8
0
  6
CONTINUOUS
 10
7.463720
 20
1.431760
  0
VERTEX
  8
0
  6
CONTINUOUS
 10
7.440400
 20
1.451120
  0
SEQEND
  8
0
  0
SOLID
  8
0
 62
    15
 10
7.463720
 20
1.431760
 11
7.463280
 21
2.173600
 12
7.494080
 22
1.411520
 13
7.493640
 23
2.153800
  0
POLYLINE
  8
0
  6
CONTINUOUS
 66
     1
 40
0.000000
 41
0.000000
  0
VERTEX
  8
0
  6
CONTINUOUS
 10
7.463720
 20
1.431760
  0
VERTEX
  8
0
  6
CONTINUOUS
 10
7.463280
 20
2.173600
  0
VERTEX
  8
0
  6
CONTINUOUS
 10
7.493640
 20
2.153800
  0
VERTEX
  8
0
  6
CONTINUOUS
 10
7.494080
 20
1.411520
  0
VERTEX
  8
0
  6
CONTINUOUS
 10
7.463720
 20
1.431760
  0
SEQEND
  8
0
  0
SOLID
  8
0
 62
    15
 10
7.494080
 20
1.411520
 11
7.493640
 21
2.153800
 12
7.532360
 22
1.393040
 13
7.531480
 23
2.134880
  0
POLYLINE
  8
0
  6
CONTINUOUS
 66
     1
 40
0.000000
 41
0.000000
  0
VERTEX
  8
0
  6
CONTINUOUS
 10
7.494080
 20
1.411520
  0
VERTEX
  8
0
  6
CONTINUOUS
 10
7.493640
 20
2.153800
  0
VERTEX
  8
0
  6
CONTINUOUS
 10
7.531480
 20
2.134880
  0
VERTEX
  8
0
  6
CONTINUOUS
 10
7.532360
 20
1.393040
  0
VERTEX
  8
0
  6
CONTINUOUS
 10
7.494080
 20
1.411520
  0
SEQEND
  8
0
  0
SOLID
  8
0
 62
    15
 10
7.532360
 20
1.393040
 11
7.531480
 21
2.134880
 12
7.579440
 22
1.377200
 13
7.578560
 23
2.119480
  0
POLYLINE
  8
0
  6
CONTINUOUS
 66
     1
 40
0.000000
 41
0.000000
  0
VERTEX
  8
0
  6
CONTINUOUS
 10
7.532360
 20
1.393040
  0
VERTEX
  8
0
  6
CONTINUOUS
 10
7.531480
 20
2.134880
  0
VERTEX
  8
0
  6
CONTINUOUS
 10
7.578560
 20
2.119480
  0
VERTEX
  8
0
  6
CONTINUOUS
 10
7.579440
 20
1.377200
  0
VERTEX
  8
0
  6
CONTINUOUS
 10
7.532360
 20
1.393040
  0
SEQEND
  8
0
  0
SOLID
  8
0
 62
    15
 10
7.579440
 20
1.377200
 11
7.578560
 21
2.119480
 12
7.636640
 22
1.366640
 13
7.635760
 23
2.108480
  0
POLYLINE
  8
0
  6
CONTINUOUS
 66
     1
 40
0.000000
 41
0.000000
  0
VERTEX
  8
0
  6
CONTINUOUS
 10
7.579440
 20
1.377200
  0
VERTEX
  8
0
  6
CONTINUOUS
 10
7.578560
 20
2.119480
  0
VERTEX
  8
0
  6
CONTINUOUS
 10
7.635760
 20
2.108480
  0
VERTEX
  8
0
  6
CONTINUOUS
 10
7.636640
 20
1.366640
  0
VERTEX
  8
0
  6
CONTINUOUS
 10
7.579440
 20
1.377200
  0
SEQEND
  8
0
  0
SOLID
  8
0
 62
    15
 10
7.636640
 20
1.366640
 11
7.635760
 21
2.108480
 12
7.704840
 22
1.362680
 13
7.704400
 23
2.104520
  0
POLYLINE
  8
0
  6
CONTINUOUS
 66
     1
 40
0.000000
 41
0.000000
  0
VERTEX
  8
0
  6
CONTINUOUS
 10
7.636640
 20
1.366640
  0
VERTEX
  8
0
  6
CONTINUOUS
 10
7.635760
 20
2.108480
  0
VERTEX
  8
0
  6
CONTINUOUS
 10
7.704400
 20
2.104520
  0
VERTEX
  8
0
  6
CONTINUOUS
 10
7.704840
 20
1.362680
  0
VERTEX
  8
0
  6
CONTINUOUS
 10
7.636640
 20
1.366640
  0
SEQEND
  8
0
  0
SOLID
  8
0
 62
    15
 10
4.702280
 20
2.137960
 11
4.701840
 21
2.880240
 12
5.448520
 22
2.137960
 13
5.447640
 23
2.880240
  0
POLYLINE
  8
0
  6
CONTINUOUS
 66
     1
 40
0.000000
 41
0.000000
  0
VERTEX
  8
0
  6
CONTINUOUS
 10
4.702280
 20
2.137960
  0
VERTEX
  8
0
  6
CONTINUOUS
 10
4.701840
 20
2.880240
  0
VERTEX
  8
0
  6
CONTINUOUS
 10
5.447640
 20
2.880240
  0
VERTEX
  8
0
  6
CONTINUOUS
 10
5.448520
 20
2.137960
  0
VERTEX
  8
0
  6
CONTINUOUS
 10
4.702280
 20
2.137960
  0
SEQEND
  8
0
  0
POLYLINE
  8
0
  6
CONTINUOUS
 66
     1
 40
0.000000
 41
0.000000
  0
VERTEX
  8
0
  6
CONTINUOUS
 10
4.702280
 20
2.137960
  0
VERTEX
  8
0
  6
CONTINUOUS
 10
5.448520
 20
2.137960
  0
VERTEX
  8
0
  6
CONTINUOUS
 10
5.448520
 20
1.881880
  0
VERTEX
  8
0
  6
CONTINUOUS
 10
5.553240
 20
1.882320
  0
VERTEX
  8
0
  6
CONTINUOUS
 10
5.580080
 20
1.942600
  0
VERTEX
  8
0
  6
CONTINUOUS
 10
5.610880
 20
1.993640
  0
VERTEX
  8
0
  6
CONTINUOUS
 10
5.645200
 20
2.036760
  0
VERTEX
  8
0
  6
CONTINUOUS
 10
5.682160
 20
2.071080
  0
VERTEX
  8
0
  6
CONTINUOUS
 10
5.722640
 20
2.098360
  0
VERTEX
  8
0
  6
CONTINUOUS
 10
5.764880
 20
2.117720
  0
VERTEX
  8
0
  6
CONTINUOUS
 10
5.809760
 20
2.130920
  0
VERTEX
  8
0
  6
CONTINUOUS
 10
5.855960
 20
2.137080
  0
VERTEX
  8
0
  6
CONTINUOUS
 10
5.903920
 20
2.137520
  0
VERTEX
  8
0
  6
CONTINUOUS
 10
5.953200
 20
2.132680
  0
VERTEX
  8
0
  6
CONTINUOUS
 10
6.053080
 20
2.107600
  0
VERTEX
  8
0
  6
CONTINUOUS
 10
6.153840
 20
2.065360
  0
VERTEX
  8
0
  6
CONTINUOUS
 10
6.251960
 20
2.009480
  0
VERTEX
  8
0
  6
CONTINUOUS
 10
6.352280
 20
1.954920
  0
VERTEX
  8
0
  6
CONTINUOUS
 10
6.456560
 20
1.912680
  0
VERTEX
  8
0
  6
CONTINUOUS
 10
6.560840
 20
1.881000
  0
VERTEX
  8
0
  6
CONTINUOUS
 10
6.661600
 20
1.858560
  0
VERTEX
  8
0
  6
CONTINUOUS
 10
6.754000
 20
1.844040
  0
VERTEX
  8
0
  6
CONTINUOUS
 10
6.834520
 20
1.835240
  0
VERTEX
  8
0
  6
CONTINUOUS
 10
6.923400
 20
1.830400
  0
VERTEX
  8
0
  6
CONTINUOUS
 10
6.942320
 20
1.830400
  0
VERTEX
  8
0
  6
CONTINUOUS
 10
6.942760
 20
1.729200
  0
VERTEX
  8
0
  6
CONTINUOUS
 10
7.062440
 20
1.729640
  0
VERTEX
  8
0
  6
CONTINUOUS
 10
7.062440
 20
1.606000
  0
VERTEX
  8
0
  6
CONTINUOUS
 10
7.110840
 20
1.605120
  0
VERTEX
  8
0
  6
CONTINUOUS
 10
7.154400
 20
1.602480
  0
VERTEX
  8
0
  6
CONTINUOUS
 10
7.193560
 20
1.597640
  0
VERTEX
  8
0
  6
CONTINUOUS
 10
7.227880
 20
1.591040
  0
VERTEX
  8
0
  6
CONTINUOUS
 10
7.284200
 20
1.574760
  0
VERTEX
  8
0
  6
CONTINUOUS
 10
7.326880
 20
1.554960
  0
VERTEX
  8
0
  6
CONTINUOUS
 10
7.358120
 20
1.533840
  0
VERTEX
  8
0
  6
CONTINUOUS
 10
7.393320
 20
1.499520
  0
VERTEX
  8
0
  6
CONTINUOUS
 10
7.440400
 20
1.451120
  0
VERTEX
  8
0
  6
CONTINUOUS
 10
7.463720
 20
1.431760
  0
VERTEX
  8
0
  6
CONTINUOUS
 10
7.494080
 20
1.411520
  0
VERTEX
  8
0
  6
CONTINUOUS
 10
7.532360
 20
1.393040
  0
VERTEX
  8
0
  6
CONTINUOUS
 10
7.579440
 20
1.377200
  0
VERTEX
  8
0
  6
CONTINUOUS
 10
7.636640
 20
1.366640
  0
VERTEX
  8
0
  6
CONTINUOUS
 10
7.704840
 20
1.362680
  0
VERTEX
  8
0
  6
CONTINUOUS
 10
7.704840
 20
1.142680
  0
VERTEX
  8
0
  6
CONTINUOUS
 10
4.702280
 20
1.142680
  0
VERTEX
  8
0
  6
CONTINUOUS
 10
4.702280
 20
2.137960
  0
SEQEND
  8
0
  0
TEXT
  8
0
 10
5.809760
 20
0.871200
 40
0.137973
  1
BA  1117
 41
1.000000
  7
SN0
 71
     0
 72
     5
 11
6.492184
 21
0.871200
  0
TEXT
  8
0
 10
5.912720
 20
0.679800
 40
0.137973
  1
1" x 3"
 41
1.000000
  7
SN0
 71
     0
 72
     5
 11
6.390384
 21
0.679800
  0
POLYLINE
  8
0
  6
CONTINUOUS
 66
     1
 40
0.014080
 41
0.014080
  0
VERTEX
  8
0
  6
CONTINUOUS
 10
4.836040
 20
4.356880
  0
VERTEX
  8
0
  6
CONTINUOUS
 10
5.581840
 20
4.356880
  0
VERTEX
  8
0
  6
CONTINUOUS
 10
5.581840
 20
4.100800
  0
VERTEX
  8
0
  6
CONTINUOUS
 10
5.687000
 20
4.100800
  0
VERTEX
  8
0
  6
CONTINUOUS
 10
5.706800
 20
4.147000
  0
VERTEX
  8
0
  6
CONTINUOUS
 10
5.728800
 20
4.187920
  0
VERTEX
  8
0
  6
CONTINUOUS
 10
5.744640
 20
4.212560
  0
VERTEX
  8
0
  6
CONTINUOUS
 10
5.761360
 20
4.235000
  0
VERTEX
  8
0
  6
CONTINUOUS
 10
5.797000
 20
4.273720
  0
VERTEX
  8
0
  6
CONTINUOUS
 10
5.815920
 20
4.290000
  0
VERTEX
  8
0
  6
CONTINUOUS
 10
5.835720
 20
4.304520
  0
VERTEX
  8
0
  6
CONTINUOUS
 10
5.877080
 20
4.327840
  0
VERTEX
  8
0
  6
CONTINUOUS
 10
5.898640
 20
4.336640
  0
VERTEX
  8
0
  6
CONTINUOUS
 10
5.943080
 20
4.349400
  0
VERTEX
  8
0
  6
CONTINUOUS
 10
5.989720
 20
4.356000
  0
VERTEX
  8
0
  6
CONTINUOUS
 10
6.037680
 20
4.356440
  0
VERTEX
  8
0
  6
CONTINUOUS
 10
6.086520
 20
4.351160
  0
VERTEX
  8
0
  6
CONTINUOUS
 10
6.136240
 20
4.341040
  0
VERTEX
  8
0
  6
CONTINUOUS
 10
6.186840
 20
4.326080
  0
VERTEX
  8
0
  6
CONTINUOUS
 10
6.237000
 20
4.307160
  0
VERTEX
  8
0
  6
CONTINUOUS
 10
6.312240
 20
4.271080
  0
VERTEX
  8
0
  6
CONTINUOUS
 10
6.361520
 20
4.243360
  0
VERTEX
  8
0
  6
CONTINUOUS
 10
6.435000
 20
4.199360
  0
VERTEX
  8
0
  6
CONTINUOUS
 10
6.511560
 20
4.161960
  0
VERTEX
  8
0
  6
CONTINUOUS
 10
6.563480
 20
4.140840
  0
VERTEX
  8
0
  6
CONTINUOUS
 10
6.642240
 20
4.114440
  0
VERTEX
  8
0
  6
CONTINUOUS
 10
6.720120
 20
4.093760
  0
VERTEX
  8
0
  6
CONTINUOUS
 10
6.794920
 20
4.077480
  0
VERTEX
  8
0
  6
CONTINUOUS
 10
6.887320
 20
4.062960
  0
VERTEX
  8
0
  6
CONTINUOUS
 10
6.985440
 20
4.052840
  0
VERTEX
  8
0
  6
CONTINUOUS
 10
7.056720
 20
4.049320
  0
VERTEX
  8
0
  6
CONTINUOUS
 10
7.075640
 20
4.049320
  0
VERTEX
  8
0
  6
CONTINUOUS
 10
7.076080
 20
3.948120
  0
VERTEX
  8
0
  6
CONTINUOUS
 10
7.195760
 20
3.948120
  0
VERTEX
  8
0
  6
CONTINUOUS
 10
7.195760
 20
3.824920
  0
VERTEX
  8
0
  6
CONTINUOUS
 10
7.244600
 20
3.824040
  0
VERTEX
  8
0
  6
CONTINUOUS
 10
7.307960
 20
3.818760
  0
VERTEX
  8
0
  6
CONTINUOUS
 10
7.344480
 20
3.813480
  0
VERTEX
  8
0
  6
CONTINUOUS
 10
7.391560
 20
3.802480
  0
VERTEX
  8
0
  6
CONTINUOUS
 10
7.429840
 20
3.788840
  0
VERTEX
  8
0
  6
CONTINUOUS
 10
7.460640
 20
3.773880
  0
VERTEX
  8
0
  6
CONTINUOUS
 10
7.491880
 20
3.752760
  0
VERTEX
  8
0
  6
CONTINUOUS
 10
7.523120
 20
3.722840
  0
VERTEX
  8
0
  6
CONTINUOUS
 10
7.549080
 20
3.694680
  0
VERTEX
  8
0
  6
CONTINUOUS
 10
7.585160
 20
3.660360
  0
VERTEX
  8
0
  6
CONTINUOUS
 10
7.612000
 20
3.640120
  0
VERTEX
  8
0
  6
CONTINUOUS
 10
7.645880
 20
3.620760
  0
VERTEX
  8
0
  6
CONTINUOUS
 10
7.688560
 20
3.603160
  0
VERTEX
  8
0
  6
CONTINUOUS
 10
7.726400
 20
3.592600
  0
VERTEX
  8
0
  6
CONTINUOUS
 10
7.770400
 20
3.585120
  0
VERTEX
  8
0
  6
CONTINUOUS
 10
7.802960
 20
3.582040
  0
VERTEX
  8
0
  6
CONTINUOUS
 10
7.838600
 20
3.581160
  0
VERTEX
  8
0
  6
CONTINUOUS
 10
7.838600
 20
3.361160
  0
VERTEX
  8
0
  6
CONTINUOUS
 10
7.838600
 20
3.361600
  0
VERTEX
  8
0
  6
CONTINUOUS
 10
4.836040
 20
3.361600
  0
VERTEX
  8
0
  6
CONTINUOUS
 10
4.836040
 20
4.356880
  0
SEQEND
  8
0
  0
TEXT
  8
0
 10
5.941320
 20
3.690280
 40
0.137973
  1
BA  1117
 41
1.000000
  7
SN0
 71
     0
 72
     5
 11
6.623744
 21
3.690280
  0
TEXT
  8
0
 10
6.044280
 20
3.498440
 40
0.137973
  1
1" x 3"
 41
1.000000
  7
SN0
 71
     0
 72
     5
 11
6.521944
 21
3.498440
  0
TEXT
  8
0
 10
1.877480
 20
3.595240
 40
0.526116
  1
casing
 41
1.000000
  7
SN0
 71
     0
 72
     5
 11
3.705767
 21
3.595240
  0
ENDSEC
  0
EOF
