  0
SECTION
  2
HEADER
  9
$ACADVER
  1
AC1006
  9
$EXTMIN
 10
2.182840
 20
2.709080
  9
$EXTMAX
 10
6.549840
 20
6.851240
  9
$LTSCALE
 40
0.044000
  9
$PDMODE
 70
    35
  9
$PDSIZE
 40
0.035200
  0
ENDSEC
  0
SECTION
  2
TABLES
  0
TABLE
  2
LTYPE
 70
     9
  0
LTYPE
  2
CONTINUOUS
 70
    64
  3
Solid line
 72
    65
 73
     0
 40
0.000000
  0
LTYPE
  2
DASHED
 70
    64
  3
__ __ __ __ __ __ __ __ __ __ __ __ __ __ __
 72
    65
 73
     2
 40
0.000330
 49
0.000220
 49
-0.000110
  0
LTYPE
  2
HIDDEN
 70
    64
  3
 _ _ _ _ _ _ _ _ _ _ _ _ _ _ _ _ _ _ _ _ _ _
 72
    65
 73
     2
 40
0.000165
 49
0.000110
 49
-0.000055
  0
LTYPE
  2
CENTER
 70
    64
  3
____ _ ____ _ ____ _ ____ _ ____ _ ____ _ ____
 72
    65
 73
     4
 40
0.000880
 49
0.000550
 49
-0.000110
 49
0.000110
 49
-0.000110
  0
LTYPE
  2
PHANTOM
 70
    64
  3
_____ _ _ _____ _ _ _____ _ _ _____ _ _ ____
 72
    65
 73
     6
 40
0.001100
 49
0.000550
 49
-0.000110
 49
0.000110
 49
-0.000110
 49
0.000110
 49
-0.000110
  0
LTYPE
  2
DOT
 70
    64
  3
...............................................
 72
    65
 73
     2
 40
0.000110
 49
0.000000
 49
-0.000110
  0
LTYPE
  2
DASHDOT
 70
    64
  3
__ . __ . __ . __ . __ . __ . __ . __ . __ . __
 72
    65
 73
     4
 40
0.000440
 49
0.000220
 49
-0.000110
 49
0.000000
 49
-0.000110
  0
LTYPE
  2
BORDER
 70
    64
  3
__ __ . __ __ . __ __ . __ __ . __ __ . __ __
 72
    65
 73
     6
 40
0.000770
 49
0.000220
 49
-0.000110
 49
0.000220
 49
-0.000110
 49
0.000000
 49
-0.000110
  0
LTYPE
  2
DIVIDE
 70
    64
  3
__ . . __ . . __ . . __ . . __ . . __ . . __
 72
    65
 73
     6
 40
0.000550
 49
0.000220
 49
-0.000110
 49
0.000000
 49
-0.000110
 49
0.000000
 49
-0.000110
  0
LTYPE
  2
DOTDOT
 70
    64
  3
 . .  . .  . .  . .  . .  . . 
 72
    65
 73
     5
 40
0.000242
 49
-0.000110
 49
0.000000
 49
-0.000110
 49
0.000000
 49
-0.000110
  0
ENDTAB
  0
TABLE
  2
STYLE
 70
     2
  0
STYLE
 70
     0
  2
SN0
 40
0.000000
 41
0.000440
 50
0.000000
 71
     0
 42
0.000000
  3
ROMAND
  0
STYLE
 70
    68
  2
SV0
 40
0.000000
 41
0.000440
 50
0.000000
 71
     0
 42
0.000000
  3
ROMAND
  0
ENDTAB
  0
TABLE
  2
LAYER
 70
     3
  0
LAYER
  2
FOREGROUND
 70
    64
 62
     7
  6
CONTINUOUS
  0
LAYER
  2
BACKGROUND
 70
    65
 62
    -7
  6
CONTINUOUS
  0
LAYER
  2
0
 70
    64
 62
     7
  6
CONTINUOUS
  0
ENDTAB
  0
ENDSEC
  0
SECTION
  2
ENTITIES
  0
POLYLINE
  8
FOREGROUND
  6
CONTINUOUS
 66
     1
 40
0.000000
 41
0.000000
  0
VERTEX
  8
FOREGROUND
  6
CONTINUOUS
 10
0.000000
 20
9.560320
  0
VERTEX
  8
FOREGROUND
  6
CONTINUOUS
 10
8.499920
 20
9.560320
  0
VERTEX
  8
FOREGROUND
  6
CONTINUOUS
 10
8.499920
 20
-1.439680
  0
VERTEX
  8
FOREGROUND
  6
CONTINUOUS
 10
0.000000
 20
-1.439680
  0
VERTEX
  8
FOREGROUND
  6
CONTINUOUS
 10
0.000000
 20
9.560320
  0
SEQEND
  8
0
  0
POLYLINE
  8
FOREGROUND
  6
CONTINUOUS
 66
     1
 40
0.000000
 41
0.000000
  0
VERTEX
  8
FOREGROUND
  6
CONTINUOUS
 10
0.000000
 20
9.560320
  0
VERTEX
  8
FOREGROUND
  6
CONTINUOUS
 10
8.499920
 20
9.560320
  0
VERTEX
  8
FOREGROUND
  6
CONTINUOUS
 10
8.499920
 20
-1.439680
  0
VERTEX
  8
FOREGROUND
  6
CONTINUOUS
 10
0.000000
 20
-1.439680
  0
VERTEX
  8
FOREGROUND
  6
CONTINUOUS
 10
0.000000
 20
9.560320
  0
SEQEND
  8
0
  0
POLYLINE
  8
0
  6
CONTINUOUS
 66
     1
 40
0.000000
 41
0.000000
  0
VERTEX
  8
0
  6
CONTINUOUS
 10
6.317960
 20
3.340920
  0
VERTEX
  8
0
  6
CONTINUOUS
 10
6.297720
 20
3.379200
  0
VERTEX
  8
0
  6
CONTINUOUS
 10
6.274400
 20
3.412640
  0
VERTEX
  8
0
  6
CONTINUOUS
 10
6.257680
 20
3.432000
  0
VERTEX
  8
0
  6
CONTINUOUS
 10
6.239640
 20
3.449160
  0
VERTEX
  8
0
  6
CONTINUOUS
 10
6.220720
 20
3.464120
  0
VERTEX
  8
0
  6
CONTINUOUS
 10
6.180680
 20
3.487880
  0
VERTEX
  8
0
  6
CONTINUOUS
 10
6.159560
 20
3.497120
  0
VERTEX
  8
0
  6
CONTINUOUS
 10
6.116000
 20
3.509000
  0
VERTEX
  8
0
  6
CONTINUOUS
 10
6.093560
 20
3.512080
  0
VERTEX
  8
0
  6
CONTINUOUS
 10
6.070680
 20
3.513400
  0
VERTEX
  8
0
  6
CONTINUOUS
 10
6.047800
 20
3.512960
  0
VERTEX
  8
0
  6
CONTINUOUS
 10
6.002040
 20
3.506360
  0
VERTEX
  8
0
  6
CONTINUOUS
 10
5.979600
 20
3.500640
  0
VERTEX
  8
0
  6
CONTINUOUS
 10
5.934720
 20
3.484360
  0
VERTEX
  8
0
  6
CONTINUOUS
 10
5.891600
 20
3.461480
  0
VERTEX
  8
0
  6
CONTINUOUS
 10
5.851120
 20
3.432880
  0
VERTEX
  8
0
  6
CONTINUOUS
 10
5.813720
 20
3.398560
  0
VERTEX
  8
0
  6
CONTINUOUS
 10
5.780280
 20
3.358520
  0
VERTEX
  8
0
  6
CONTINUOUS
 10
5.751680
 20
3.314080
  0
VERTEX
  8
0
  6
CONTINUOUS
 10
5.728360
 20
3.264360
  0
VERTEX
  8
0
  6
CONTINUOUS
 10
5.719120
 20
3.237960
  0
VERTEX
  8
0
  6
CONTINUOUS
 10
5.639920
 20
3.237960
  0
VERTEX
  8
0
  6
CONTINUOUS
 10
5.623640
 20
3.197040
  0
VERTEX
  8
0
  6
CONTINUOUS
 10
5.608680
 20
3.171520
  0
VERTEX
  8
0
  6
CONTINUOUS
 10
5.589760
 20
3.148200
  0
VERTEX
  8
0
  6
CONTINUOUS
 10
5.566880
 20
3.128400
  0
VERTEX
  8
0
  6
CONTINUOUS
 10
5.553680
 20
3.119600
  0
VERTEX
  8
0
  6
CONTINUOUS
 10
5.523760
 20
3.105520
  0
VERTEX
  8
0
  6
CONTINUOUS
 10
5.488560
 20
3.096720
  0
VERTEX
  8
0
  6
CONTINUOUS
 10
5.469200
 20
3.094520
  0
VERTEX
  8
0
  6
CONTINUOUS
 10
5.448080
 20
3.093640
  0
VERTEX
  8
0
  6
CONTINUOUS
 10
5.000160
 20
3.093640
  0
VERTEX
  8
0
  6
CONTINUOUS
 10
4.987840
 20
3.092760
  0
VERTEX
  8
0
  6
CONTINUOUS
 10
4.963200
 20
3.085280
  0
VERTEX
  8
0
  6
CONTINUOUS
 10
4.939440
 20
3.071200
  0
VERTEX
  8
0
  6
CONTINUOUS
 10
4.917440
 20
3.053160
  0
VERTEX
  8
0
  6
CONTINUOUS
 10
4.898520
 20
3.032040
  0
VERTEX
  8
0
  6
CONTINUOUS
 10
4.882680
 20
3.009160
  0
VERTEX
  8
0
  6
CONTINUOUS
 10
4.867720
 20
2.975280
  0
VERTEX
  8
0
  6
CONTINUOUS
 10
4.864640
 20
2.955040
  0
VERTEX
  8
0
  6
CONTINUOUS
 10
4.832520
 20
2.955040
  0
VERTEX
  8
0
  6
CONTINUOUS
 10
4.828120
 20
2.975720
  0
VERTEX
  8
0
  6
CONTINUOUS
 10
4.815800
 20
3.004320
  0
VERTEX
  8
0
  6
CONTINUOUS
 10
4.798640
 20
3.028520
  0
VERTEX
  8
0
  6
CONTINUOUS
 10
4.777960
 20
3.047880
  0
VERTEX
  8
0
  6
CONTINUOUS
 10
4.754200
 20
3.061080
  0
VERTEX
  8
0
  6
CONTINUOUS
 10
4.729120
 20
3.067240
  0
VERTEX
  8
0
  6
CONTINUOUS
 10
4.711960
 20
3.067240
  0
VERTEX
  8
0
  6
CONTINUOUS
 10
4.695680
 20
3.063720
  0
VERTEX
  8
0
  6
CONTINUOUS
 10
4.679400
 20
3.055800
  0
VERTEX
  8
0
  6
CONTINUOUS
 10
4.664440
 20
3.043920
  0
VERTEX
  8
0
  6
CONTINUOUS
 10
4.650360
 20
3.027200
  0
VERTEX
  8
0
  6
CONTINUOUS
 10
4.638480
 20
3.006080
  0
VERTEX
  8
0
  6
CONTINUOUS
 10
4.628360
 20
2.979680
  0
VERTEX
  8
0
  6
CONTINUOUS
 10
4.624400
 20
2.964280
  0
VERTEX
  8
0
  6
CONTINUOUS
 10
4.558840
 20
2.964280
  0
VERTEX
  8
0
  6
CONTINUOUS
 10
4.544760
 20
2.922040
  0
VERTEX
  8
0
  6
CONTINUOUS
 10
4.533760
 20
2.900920
  0
VERTEX
  8
0
  6
CONTINUOUS
 10
4.518800
 20
2.880680
  0
VERTEX
  8
0
  6
CONTINUOUS
 10
4.499000
 20
2.863080
  0
VERTEX
  8
0
  6
CONTINUOUS
 10
4.486680
 20
2.855600
  0
VERTEX
  8
0
  6
CONTINUOUS
 10
4.457640
 20
2.844160
  0
VERTEX
  8
0
  6
CONTINUOUS
 10
4.430360
 20
2.838440
  0
VERTEX
  8
0
  6
CONTINUOUS
 10
4.399120
 20
2.836680
  0
VERTEX
  8
0
  6
CONTINUOUS
 10
4.399120
 20
2.709520
  0
VERTEX
  8
0
  6
CONTINUOUS
 10
6.378680
 20
2.709520
  0
VERTEX
  8
0
  6
CONTINUOUS
 10
6.378680
 20
3.340040
  0
VERTEX
  8
0
  6
CONTINUOUS
 10
6.317960
 20
3.340040
  0
VERTEX
  8
0
  6
CONTINUOUS
 10
6.317960
 20
3.340920
  0
SEQEND
  8
0
  0
POLYLINE
  8
0
  6
CONTINUOUS
 66
     1
 40
0.000000
 41
0.000000
  0
VERTEX
  8
0
  6
CONTINUOUS
 10
4.432560
 20
4.642440
  0
VERTEX
  8
0
  6
CONTINUOUS
 10
4.452800
 20
4.680720
  0
VERTEX
  8
0
  6
CONTINUOUS
 10
4.476120
 20
4.714160
  0
VERTEX
  8
0
  6
CONTINUOUS
 10
4.492840
 20
4.733520
  0
VERTEX
  8
0
  6
CONTINUOUS
 10
4.510880
 20
4.750680
  0
VERTEX
  8
0
  6
CONTINUOUS
 10
4.529800
 20
4.765640
  0
VERTEX
  8
0
  6
CONTINUOUS
 10
4.569840
 20
4.789400
  0
VERTEX
  8
0
  6
CONTINUOUS
 10
4.590960
 20
4.798640
  0
VERTEX
  8
0
  6
CONTINUOUS
 10
4.634520
 20
4.810520
  0
VERTEX
  8
0
  6
CONTINUOUS
 10
4.656960
 20
4.813600
  0
VERTEX
  8
0
  6
CONTINUOUS
 10
4.679840
 20
4.814920
  0
VERTEX
  8
0
  6
CONTINUOUS
 10
4.725600
 20
4.811840
  0
VERTEX
  8
0
  6
CONTINUOUS
 10
4.748480
 20
4.807880
  0
VERTEX
  8
0
  6
CONTINUOUS
 10
4.770920
 20
4.802160
  0
VERTEX
  8
0
  6
CONTINUOUS
 10
4.815800
 20
4.785880
  0
VERTEX
  8
0
  6
CONTINUOUS
 10
4.858920
 20
4.763000
  0
VERTEX
  8
0
  6
CONTINUOUS
 10
4.899400
 20
4.734400
  0
VERTEX
  8
0
  6
CONTINUOUS
 10
4.918760
 20
4.717680
  0
VERTEX
  8
0
  6
CONTINUOUS
 10
4.953960
 20
4.680720
  0
VERTEX
  8
0
  6
CONTINUOUS
 10
4.970240
 20
4.660040
  0
VERTEX
  8
0
  6
CONTINUOUS
 10
4.998840
 20
4.615160
  0
VERTEX
  8
0
  6
CONTINUOUS
 10
5.011160
 20
4.590960
  0
VERTEX
  8
0
  6
CONTINUOUS
 10
5.022160
 20
4.565440
  0
VERTEX
  8
0
  6
CONTINUOUS
 10
5.031400
 20
4.539040
  0
VERTEX
  8
0
  6
CONTINUOUS
 10
5.110600
 20
4.539040
  0
VERTEX
  8
0
  6
CONTINUOUS
 10
5.126880
 20
4.498120
  0
VERTEX
  8
0
  6
CONTINUOUS
 10
5.141840
 20
4.472600
  0
VERTEX
  8
0
  6
CONTINUOUS
 10
5.160760
 20
4.449720
  0
VERTEX
  8
0
  6
CONTINUOUS
 10
5.183640
 20
4.429480
  0
VERTEX
  8
0
  6
CONTINUOUS
 10
5.211360
 20
4.413640
  0
VERTEX
  8
0
  6
CONTINUOUS
 10
5.226760
 20
4.407040
  0
VERTEX
  8
0
  6
CONTINUOUS
 10
5.261960
 20
4.398240
  0
VERTEX
  8
0
  6
CONTINUOUS
 10
5.281320
 20
4.396040
  0
VERTEX
  8
0
  6
CONTINUOUS
 10
5.302440
 20
4.395160
  0
VERTEX
  8
0
  6
CONTINUOUS
 10
5.750360
 20
4.395160
  0
VERTEX
  8
0
  6
CONTINUOUS
 10
5.762680
 20
4.394280
  0
VERTEX
  8
0
  6
CONTINUOUS
 10
5.787320
 20
4.386800
  0
VERTEX
  8
0
  6
CONTINUOUS
 10
5.811080
 20
4.372720
  0
VERTEX
  8
0
  6
CONTINUOUS
 10
5.833080
 20
4.354680
  0
VERTEX
  8
0
  6
CONTINUOUS
 10
5.860360
 20
4.322120
  0
VERTEX
  8
0
  6
CONTINUOUS
 10
5.874000
 20
4.298800
  0
VERTEX
  8
0
  6
CONTINUOUS
 10
5.882800
 20
4.276360
  0
VERTEX
  8
0
  6
CONTINUOUS
 10
5.885880
 20
4.256120
  0
VERTEX
  8
0
  6
CONTINUOUS
 10
5.918000
 20
4.256120
  0
VERTEX
  8
0
  6
CONTINUOUS
 10
5.922400
 20
4.276800
  0
VERTEX
  8
0
  6
CONTINUOUS
 10
5.934720
 20
4.305400
  0
VERTEX
  8
0
  6
CONTINUOUS
 10
5.951880
 20
4.329600
  0
VERTEX
  8
0
  6
CONTINUOUS
 10
5.972560
 20
4.348960
  0
VERTEX
  8
0
  6
CONTINUOUS
 10
5.996320
 20
4.362600
  0
VERTEX
  8
0
  6
CONTINUOUS
 10
6.021400
 20
4.368760
  0
VERTEX
  8
0
  6
CONTINUOUS
 10
6.038560
 20
4.368760
  0
VERTEX
  8
0
  6
CONTINUOUS
 10
6.054840
 20
4.365240
  0
VERTEX
  8
0
  6
CONTINUOUS
 10
6.071120
 20
4.357320
  0
VERTEX
  8
0
  6
CONTINUOUS
 10
6.086080
 20
4.345440
  0
VERTEX
  8
0
  6
CONTINUOUS
 10
6.100160
 20
4.328720
  0
VERTEX
  8
0
  6
CONTINUOUS
 10
6.112040
 20
4.307600
  0
VERTEX
  8
0
  6
CONTINUOUS
 10
6.122160
 20
4.281200
  0
VERTEX
  8
0
  6
CONTINUOUS
 10
6.126120
 20
4.265800
  0
VERTEX
  8
0
  6
CONTINUOUS
 10
6.191680
 20
4.265800
  0
VERTEX
  8
0
  6
CONTINUOUS
 10
6.205760
 20
4.223560
  0
VERTEX
  8
0
  6
CONTINUOUS
 10
6.223360
 20
4.191880
  0
VERTEX
  8
0
  6
CONTINUOUS
 10
6.240960
 20
4.172960
  0
VERTEX
  8
0
  6
CONTINUOUS
 10
6.263840
 20
4.157120
  0
VERTEX
  8
0
  6
CONTINUOUS
 10
6.277480
 20
4.150520
  0
VERTEX
  8
0
  6
CONTINUOUS
 10
6.292880
 20
4.145240
  0
VERTEX
  8
0
  6
CONTINUOUS
 10
6.320160
 20
4.139520
  0
VERTEX
  8
0
  6
CONTINUOUS
 10
6.351400
 20
4.137760
  0
VERTEX
  8
0
  6
CONTINUOUS
 10
6.351400
 20
4.010600
  0
VERTEX
  8
0
  6
CONTINUOUS
 10
4.371840
 20
4.010600
  0
VERTEX
  8
0
  6
CONTINUOUS
 10
4.371840
 20
4.641560
  0
VERTEX
  8
0
  6
CONTINUOUS
 10
4.432560
 20
4.641560
  0
VERTEX
  8
0
  6
CONTINUOUS
 10
4.432560
 20
4.642440
  0
SEQEND
  8
0
  0
SOLID
  8
0
 62
    15
 10
2.536600
 20
5.957600
 11
3.165360
 21
6.321480
 12
2.552880
 22
5.934720
 13
3.181640
 23
6.298600
  0
POLYLINE
  8
0
  6
CONTINUOUS
 66
     1
 40
0.000000
 41
0.000000
  0
VERTEX
  8
0
  6
CONTINUOUS
 10
2.536600
 20
5.957600
  0
VERTEX
  8
0
  6
CONTINUOUS
 10
3.165360
 20
6.321480
  0
VERTEX
  8
0
  6
CONTINUOUS
 10
3.181640
 20
6.298600
  0
VERTEX
  8
0
  6
CONTINUOUS
 10
2.552880
 20
5.934720
  0
VERTEX
  8
0
  6
CONTINUOUS
 10
2.536600
 20
5.957600
  0
SEQEND
  8
0
  0
SOLID
  8
0
 62
    15
 10
2.183280
 20
6.486920
 11
2.812040
 21
6.850800
 12
2.310440
 22
6.486920
 13
2.939200
 23
6.850800
  0
POLYLINE
  8
0
  6
CONTINUOUS
 66
     1
 40
0.000000
 41
0.000000
  0
VERTEX
  8
0
  6
CONTINUOUS
 10
2.183280
 20
6.486920
  0
VERTEX
  8
0
  6
CONTINUOUS
 10
2.812040
 20
6.850800
  0
VERTEX
  8
0
  6
CONTINUOUS
 10
2.939200
 20
6.850800
  0
VERTEX
  8
0
  6
CONTINUOUS
 10
2.310440
 20
6.486920
  0
VERTEX
  8
0
  6
CONTINUOUS
 10
2.183280
 20
6.486920
  0
SEQEND
  8
0
  0
SOLID
  8
0
 62
    15
 10
2.310440
 20
6.486920
 11
2.939200
 21
6.850800
 12
2.313960
 22
6.446000
 13
2.942720
 23
6.809880
  0
POLYLINE
  8
0
  6
CONTINUOUS
 66
     1
 40
0.000000
 41
0.000000
  0
VERTEX
  8
0
  6
CONTINUOUS
 10
2.310440
 20
6.486920
  0
VERTEX
  8
0
  6
CONTINUOUS
 10
2.939200
 20
6.850800
  0
VERTEX
  8
0
  6
CONTINUOUS
 10
2.942720
 20
6.809880
  0
VERTEX
  8
0
  6
CONTINUOUS
 10
2.313960
 20
6.446000
  0
VERTEX
  8
0
  6
CONTINUOUS
 10
2.310440
 20
6.486920
  0
SEQEND
  8
0
  0
SOLID
  8
0
 62
    15
 10
2.313960
 20
6.446000
 11
2.942720
 21
6.809880
 12
2.323200
 22
6.413000
 13
2.951960
 23
6.776880
  0
POLYLINE
  8
0
  6
CONTINUOUS
 66
     1
 40
0.000000
 41
0.000000
  0
VERTEX
  8
0
  6
CONTINUOUS
 10
2.313960
 20
6.446000
  0
VERTEX
  8
0
  6
CONTINUOUS
 10
2.942720
 20
6.809880
  0
VERTEX
  8
0
  6
CONTINUOUS
 10
2.951960
 20
6.776880
  0
VERTEX
  8
0
  6
CONTINUOUS
 10
2.323200
 20
6.413000
  0
VERTEX
  8
0
  6
CONTINUOUS
 10
2.313960
 20
6.446000
  0
SEQEND
  8
0
  0
SOLID
  8
0
 62
    15
 10
2.323200
 20
6.413000
 11
2.951960
 21
6.776880
 12
2.337280
 22
6.387040
 13
2.966040
 23
6.750920
  0
POLYLINE
  8
0
  6
CONTINUOUS
 66
     1
 40
0.000000
 41
0.000000
  0
VERTEX
  8
0
  6
CONTINUOUS
 10
2.323200
 20
6.413000
  0
VERTEX
  8
0
  6
CONTINUOUS
 10
2.951960
 20
6.776880
  0
VERTEX
  8
0
  6
CONTINUOUS
 10
2.966040
 20
6.750920
  0
VERTEX
  8
0
  6
CONTINUOUS
 10
2.337280
 20
6.387040
  0
VERTEX
  8
0
  6
CONTINUOUS
 10
2.323200
 20
6.413000
  0
SEQEND
  8
0
  0
SOLID
  8
0
 62
    15
 10
2.337280
 20
6.387040
 11
2.966040
 21
6.750920
 12
2.354880
 22
6.367240
 13
2.983640
 23
6.730680
  0
POLYLINE
  8
0
  6
CONTINUOUS
 66
     1
 40
0.000000
 41
0.000000
  0
VERTEX
  8
0
  6
CONTINUOUS
 10
2.337280
 20
6.387040
  0
VERTEX
  8
0
  6
CONTINUOUS
 10
2.966040
 20
6.750920
  0
VERTEX
  8
0
  6
CONTINUOUS
 10
2.983640
 20
6.730680
  0
VERTEX
  8
0
  6
CONTINUOUS
 10
2.354880
 20
6.367240
  0
VERTEX
  8
0
  6
CONTINUOUS
 10
2.337280
 20
6.387040
  0
SEQEND
  8
0
  0
SOLID
  8
0
 62
    15
 10
2.354880
 20
6.367240
 11
2.983640
 21
6.730680
 12
2.375120
 22
6.352280
 13
3.003440
 23
6.715720
  0
POLYLINE
  8
0
  6
CONTINUOUS
 66
     1
 40
0.000000
 41
0.000000
  0
VERTEX
  8
0
  6
CONTINUOUS
 10
2.354880
 20
6.367240
  0
VERTEX
  8
0
  6
CONTINUOUS
 10
2.983640
 20
6.730680
  0
VERTEX
  8
0
  6
CONTINUOUS
 10
3.003440
 20
6.715720
  0
VERTEX
  8
0
  6
CONTINUOUS
 10
2.375120
 20
6.352280
  0
VERTEX
  8
0
  6
CONTINUOUS
 10
2.354880
 20
6.367240
  0
SEQEND
  8
0
  0
SOLID
  8
0
 62
    15
 10
2.375120
 20
6.352280
 11
3.003440
 21
6.715720
 12
2.396240
 22
6.341280
 13
3.025000
 23
6.704720
  0
POLYLINE
  8
0
  6
CONTINUOUS
 66
     1
 40
0.000000
 41
0.000000
  0
VERTEX
  8
0
  6
CONTINUOUS
 10
2.375120
 20
6.352280
  0
VERTEX
  8
0
  6
CONTINUOUS
 10
3.003440
 20
6.715720
  0
VERTEX
  8
0
  6
CONTINUOUS
 10
3.025000
 20
6.704720
  0
VERTEX
  8
0
  6
CONTINUOUS
 10
2.396240
 20
6.341280
  0
VERTEX
  8
0
  6
CONTINUOUS
 10
2.375120
 20
6.352280
  0
SEQEND
  8
0
  0
SOLID
  8
0
 62
    15
 10
2.396240
 20
6.341280
 11
3.025000
 21
6.704720
 12
2.438480
 22
6.327200
 13
3.067240
 23
6.691080
  0
POLYLINE
  8
0
  6
CONTINUOUS
 66
     1
 40
0.000000
 41
0.000000
  0
VERTEX
  8
0
  6
CONTINUOUS
 10
2.396240
 20
6.341280
  0
VERTEX
  8
0
  6
CONTINUOUS
 10
3.025000
 20
6.704720
  0
VERTEX
  8
0
  6
CONTINUOUS
 10
3.067240
 20
6.691080
  0
VERTEX
  8
0
  6
CONTINUOUS
 10
2.438480
 20
6.327200
  0
VERTEX
  8
0
  6
CONTINUOUS
 10
2.396240
 20
6.341280
  0
SEQEND
  8
0
  0
SOLID
  8
0
 62
    15
 10
2.438480
 20
6.327200
 11
3.067240
 21
6.691080
 12
2.438480
 22
6.261640
 13
3.067240
 23
6.625520
  0
POLYLINE
  8
0
  6
CONTINUOUS
 66
     1
 40
0.000000
 41
0.000000
  0
VERTEX
  8
0
  6
CONTINUOUS
 10
2.438480
 20
6.327200
  0
VERTEX
  8
0
  6
CONTINUOUS
 10
3.067240
 20
6.691080
  0
VERTEX
  8
0
  6
CONTINUOUS
 10
3.067240
 20
6.625520
  0
VERTEX
  8
0
  6
CONTINUOUS
 10
2.438480
 20
6.261640
  0
VERTEX
  8
0
  6
CONTINUOUS
 10
2.438480
 20
6.327200
  0
SEQEND
  8
0
  0
SOLID
  8
0
 62
    15
 10
2.438480
 20
6.261640
 11
3.067240
 21
6.625520
 12
2.467520
 22
6.252840
 13
3.096280
 23
6.616720
  0
POLYLINE
  8
0
  6
CONTINUOUS
 66
     1
 40
0.000000
 41
0.000000
  0
VERTEX
  8
0
  6
CONTINUOUS
 10
2.438480
 20
6.261640
  0
VERTEX
  8
0
  6
CONTINUOUS
 10
3.067240
 20
6.625520
  0
VERTEX
  8
0
  6
CONTINUOUS
 10
3.096280
 20
6.616720
  0
VERTEX
  8
0
  6
CONTINUOUS
 10
2.467520
 20
6.252840
  0
VERTEX
  8
0
  6
CONTINUOUS
 10
2.438480
 20
6.261640
  0
SEQEND
  8
0
  0
SOLID
  8
0
 62
    15
 10
2.467520
 20
6.252840
 11
3.096280
 21
6.616720
 12
2.491280
 22
6.241840
 13
3.120040
 23
6.605720
  0
POLYLINE
  8
0
  6
CONTINUOUS
 66
     1
 40
0.000000
 41
0.000000
  0
VERTEX
  8
0
  6
CONTINUOUS
 10
2.467520
 20
6.252840
  0
VERTEX
  8
0
  6
CONTINUOUS
 10
3.096280
 20
6.616720
  0
VERTEX
  8
0
  6
CONTINUOUS
 10
3.120040
 20
6.605720
  0
VERTEX
  8
0
  6
CONTINUOUS
 10
2.491280
 20
6.241840
  0
VERTEX
  8
0
  6
CONTINUOUS
 10
2.467520
 20
6.252840
  0
SEQEND
  8
0
  0
SOLID
  8
0
 62
    15
 10
2.491280
 20
6.241840
 11
3.120040
 21
6.605720
 12
2.510200
 22
6.229080
 13
3.138960
 23
6.592520
  0
POLYLINE
  8
0
  6
CONTINUOUS
 66
     1
 40
0.000000
 41
0.000000
  0
VERTEX
  8
0
  6
CONTINUOUS
 10
2.491280
 20
6.241840
  0
VERTEX
  8
0
  6
CONTINUOUS
 10
3.120040
 20
6.605720
  0
VERTEX
  8
0
  6
CONTINUOUS
 10
3.138960
 20
6.592520
  0
VERTEX
  8
0
  6
CONTINUOUS
 10
2.510200
 20
6.229080
  0
VERTEX
  8
0
  6
CONTINUOUS
 10
2.491280
 20
6.241840
  0
SEQEND
  8
0
  0
SOLID
  8
0
 62
    15
 10
2.510200
 20
6.229080
 11
3.138960
 21
6.592520
 12
2.524720
 22
6.214560
 13
3.153480
 23
6.578000
  0
POLYLINE
  8
0
  6
CONTINUOUS
 66
     1
 40
0.000000
 41
0.000000
  0
VERTEX
  8
0
  6
CONTINUOUS
 10
2.510200
 20
6.229080
  0
VERTEX
  8
0
  6
CONTINUOUS
 10
3.138960
 20
6.592520
  0
VERTEX
  8
0
  6
CONTINUOUS
 10
3.153480
 20
6.578000
  0
VERTEX
  8
0
  6
CONTINUOUS
 10
2.524720
 20
6.214560
  0
VERTEX
  8
0
  6
CONTINUOUS
 10
2.510200
 20
6.229080
  0
SEQEND
  8
0
  0
SOLID
  8
0
 62
    15
 10
2.524720
 20
6.214560
 11
3.153480
 21
6.578000
 12
2.534400
 22
6.198720
 13
3.163160
 23
6.562600
  0
POLYLINE
  8
0
  6
CONTINUOUS
 66
     1
 40
0.000000
 41
0.000000
  0
VERTEX
  8
0
  6
CONTINUOUS
 10
2.524720
 20
6.214560
  0
VERTEX
  8
0
  6
CONTINUOUS
 10
3.153480
 20
6.578000
  0
VERTEX
  8
0
  6
CONTINUOUS
 10
3.163160
 20
6.562600
  0
VERTEX
  8
0
  6
CONTINUOUS
 10
2.534400
 20
6.198720
  0
VERTEX
  8
0
  6
CONTINUOUS
 10
2.524720
 20
6.214560
  0
SEQEND
  8
0
  0
SOLID
  8
0
 62
    15
 10
2.534400
 20
6.198720
 11
3.163160
 21
6.562600
 12
2.540120
 22
6.182440
 13
3.168880
 23
6.546320
  0
POLYLINE
  8
0
  6
CONTINUOUS
 66
     1
 40
0.000000
 41
0.000000
  0
VERTEX
  8
0
  6
CONTINUOUS
 10
2.534400
 20
6.198720
  0
VERTEX
  8
0
  6
CONTINUOUS
 10
3.163160
 20
6.562600
  0
VERTEX
  8
0
  6
CONTINUOUS
 10
3.168880
 20
6.546320
  0
VERTEX
  8
0
  6
CONTINUOUS
 10
2.540120
 20
6.182440
  0
VERTEX
  8
0
  6
CONTINUOUS
 10
2.534400
 20
6.198720
  0
SEQEND
  8
0
  0
SOLID
  8
0
 62
    15
 10
2.540120
 20
6.182440
 11
3.168880
 21
6.546320
 12
2.540120
 22
6.148560
 13
3.168880
 23
6.512440
  0
POLYLINE
  8
0
  6
CONTINUOUS
 66
     1
 40
0.000000
 41
0.000000
  0
VERTEX
  8
0
  6
CONTINUOUS
 10
2.540120
 20
6.182440
  0
VERTEX
  8
0
  6
CONTINUOUS
 10
3.168880
 20
6.546320
  0
VERTEX
  8
0
  6
CONTINUOUS
 10
3.168880
 20
6.512440
  0
VERTEX
  8
0
  6
CONTINUOUS
 10
2.540120
 20
6.148560
  0
VERTEX
  8
0
  6
CONTINUOUS
 10
2.540120
 20
6.182440
  0
SEQEND
  8
0
  0
SOLID
  8
0
 62
    15
 10
2.540120
 20
6.148560
 11
3.168880
 21
6.512440
 12
2.526920
 22
6.116000
 13
3.155680
 23
6.479880
  0
POLYLINE
  8
0
  6
CONTINUOUS
 66
     1
 40
0.000000
 41
0.000000
  0
VERTEX
  8
0
  6
CONTINUOUS
 10
2.540120
 20
6.148560
  0
VERTEX
  8
0
  6
CONTINUOUS
 10
3.168880
 20
6.512440
  0
VERTEX
  8
0
  6
CONTINUOUS
 10
3.155680
 20
6.479880
  0
VERTEX
  8
0
  6
CONTINUOUS
 10
2.526920
 20
6.116000
  0
VERTEX
  8
0
  6
CONTINUOUS
 10
2.540120
 20
6.148560
  0
SEQEND
  8
0
  0
SOLID
  8
0
 62
    15
 10
2.428800
 20
6.053520
 11
3.057560
 21
6.417400
 12
2.428800
 22
6.021400
 13
3.057560
 23
6.385280
  0
POLYLINE
  8
0
  6
CONTINUOUS
 66
     1
 40
0.000000
 41
0.000000
  0
VERTEX
  8
0
  6
CONTINUOUS
 10
2.428800
 20
6.053520
  0
VERTEX
  8
0
  6
CONTINUOUS
 10
3.057560
 20
6.417400
  0
VERTEX
  8
0
  6
CONTINUOUS
 10
3.057560
 20
6.385280
  0
VERTEX
  8
0
  6
CONTINUOUS
 10
2.428800
 20
6.021400
  0
VERTEX
  8
0
  6
CONTINUOUS
 10
2.428800
 20
6.053520
  0
SEQEND
  8
0
  0
SOLID
  8
0
 62
    15
 10
2.502280
 20
6.087400
 11
3.131040
 21
6.450840
 12
2.468840
 22
6.065400
 13
3.097600
 23
6.429280
  0
POLYLINE
  8
0
  6
CONTINUOUS
 66
     1
 40
0.000000
 41
0.000000
  0
VERTEX
  8
0
  6
CONTINUOUS
 10
2.502280
 20
6.087400
  0
VERTEX
  8
0
  6
CONTINUOUS
 10
3.131040
 20
6.450840
  0
VERTEX
  8
0
  6
CONTINUOUS
 10
3.097600
 20
6.429280
  0
VERTEX
  8
0
  6
CONTINUOUS
 10
2.468840
 20
6.065400
  0
VERTEX
  8
0
  6
CONTINUOUS
 10
2.502280
 20
6.087400
  0
SEQEND
  8
0
  0
SOLID
  8
0
 62
    15
 10
2.526920
 20
6.116000
 11
3.155680
 21
6.479880
 12
2.502280
 22
6.087400
 13
3.131040
 23
6.450840
  0
POLYLINE
  8
0
  6
CONTINUOUS
 66
     1
 40
0.000000
 41
0.000000
  0
VERTEX
  8
0
  6
CONTINUOUS
 10
2.526920
 20
6.116000
  0
VERTEX
  8
0
  6
CONTINUOUS
 10
3.155680
 20
6.479880
  0
VERTEX
  8
0
  6
CONTINUOUS
 10
3.131040
 20
6.450840
  0
VERTEX
  8
0
  6
CONTINUOUS
 10
2.502280
 20
6.087400
  0
VERTEX
  8
0
  6
CONTINUOUS
 10
2.526920
 20
6.116000
  0
SEQEND
  8
0
  0
SOLID
  8
0
 62
    15
 10
2.428800
 20
6.021400
 11
3.057560
 21
6.385280
 12
2.449040
 22
6.018320
 13
3.077800
 23
6.382200
  0
POLYLINE
  8
0
  6
CONTINUOUS
 66
     1
 40
0.000000
 41
0.000000
  0
VERTEX
  8
0
  6
CONTINUOUS
 10
2.428800
 20
6.021400
  0
VERTEX
  8
0
  6
CONTINUOUS
 10
3.057560
 20
6.385280
  0
VERTEX
  8
0
  6
CONTINUOUS
 10
3.077800
 20
6.382200
  0
VERTEX
  8
0
  6
CONTINUOUS
 10
2.449040
 20
6.018320
  0
VERTEX
  8
0
  6
CONTINUOUS
 10
2.428800
 20
6.021400
  0
SEQEND
  8
0
  0
SOLID
  8
0
 62
    15
 10
2.449040
 20
6.018320
 11
3.077800
 21
6.382200
 12
2.471480
 22
6.009520
 13
3.100240
 23
6.373400
  0
POLYLINE
  8
0
  6
CONTINUOUS
 66
     1
 40
0.000000
 41
0.000000
  0
VERTEX
  8
0
  6
CONTINUOUS
 10
2.449040
 20
6.018320
  0
VERTEX
  8
0
  6
CONTINUOUS
 10
3.077800
 20
6.382200
  0
VERTEX
  8
0
  6
CONTINUOUS
 10
3.100240
 20
6.373400
  0
VERTEX
  8
0
  6
CONTINUOUS
 10
2.471480
 20
6.009520
  0
VERTEX
  8
0
  6
CONTINUOUS
 10
2.449040
 20
6.018320
  0
SEQEND
  8
0
  0
SOLID
  8
0
 62
    15
 10
2.471480
 20
6.009520
 11
3.100240
 21
6.373400
 12
2.494360
 22
5.995880
 13
3.123120
 23
6.359760
  0
POLYLINE
  8
0
  6
CONTINUOUS
 66
     1
 40
0.000000
 41
0.000000
  0
VERTEX
  8
0
  6
CONTINUOUS
 10
2.471480
 20
6.009520
  0
VERTEX
  8
0
  6
CONTINUOUS
 10
3.100240
 20
6.373400
  0
VERTEX
  8
0
  6
CONTINUOUS
 10
3.123120
 20
6.359760
  0
VERTEX
  8
0
  6
CONTINUOUS
 10
2.494360
 20
5.995880
  0
VERTEX
  8
0
  6
CONTINUOUS
 10
2.471480
 20
6.009520
  0
SEQEND
  8
0
  0
SOLID
  8
0
 62
    15
 10
2.494360
 20
5.995880
 11
3.123120
 21
6.359760
 12
2.516800
 22
5.978280
 13
3.145560
 23
6.342160
  0
POLYLINE
  8
0
  6
CONTINUOUS
 66
     1
 40
0.000000
 41
0.000000
  0
VERTEX
  8
0
  6
CONTINUOUS
 10
2.494360
 20
5.995880
  0
VERTEX
  8
0
  6
CONTINUOUS
 10
3.123120
 20
6.359760
  0
VERTEX
  8
0
  6
CONTINUOUS
 10
3.145560
 20
6.342160
  0
VERTEX
  8
0
  6
CONTINUOUS
 10
2.516800
 20
5.978280
  0
VERTEX
  8
0
  6
CONTINUOUS
 10
2.494360
 20
5.995880
  0
SEQEND
  8
0
  0
SOLID
  8
0
 62
    15
 10
2.516800
 20
5.978280
 11
3.145560
 21
6.342160
 12
2.536600
 22
5.957600
 13
3.165360
 23
6.321480
  0
POLYLINE
  8
0
  6
CONTINUOUS
 66
     1
 40
0.000000
 41
0.000000
  0
VERTEX
  8
0
  6
CONTINUOUS
 10
2.516800
 20
5.978280
  0
VERTEX
  8
0
  6
CONTINUOUS
 10
3.145560
 20
6.342160
  0
VERTEX
  8
0
  6
CONTINUOUS
 10
3.165360
 20
6.321480
  0
VERTEX
  8
0
  6
CONTINUOUS
 10
2.536600
 20
5.957600
  0
VERTEX
  8
0
  6
CONTINUOUS
 10
2.516800
 20
5.978280
  0
SEQEND
  8
0
  0
SOLID
  8
0
 62
    15
 10
2.814240
 20
4.568080
 11
3.443000
 21
4.931960
 12
2.814240
 22
4.507800
 13
3.443000
 23
4.871240
  0
POLYLINE
  8
0
  6
CONTINUOUS
 66
     1
 40
0.000000
 41
0.000000
  0
VERTEX
  8
0
  6
CONTINUOUS
 10
2.814240
 20
4.568080
  0
VERTEX
  8
0
  6
CONTINUOUS
 10
3.443000
 20
4.931960
  0
VERTEX
  8
0
  6
CONTINUOUS
 10
3.443000
 20
4.871240
  0
VERTEX
  8
0
  6
CONTINUOUS
 10
2.814240
 20
4.507800
  0
VERTEX
  8
0
  6
CONTINUOUS
 10
2.814240
 20
4.568080
  0
SEQEND
  8
0
  0
SOLID
  8
0
 62
    15
 10
2.552880
 20
5.934720
 11
3.181640
 21
6.298600
 12
2.563880
 22
5.910520
 13
3.192200
 23
6.274400
  0
POLYLINE
  8
0
  6
CONTINUOUS
 66
     1
 40
0.000000
 41
0.000000
  0
VERTEX
  8
0
  6
CONTINUOUS
 10
2.552880
 20
5.934720
  0
VERTEX
  8
0
  6
CONTINUOUS
 10
3.181640
 20
6.298600
  0
VERTEX
  8
0
  6
CONTINUOUS
 10
3.192200
 20
6.274400
  0
VERTEX
  8
0
  6
CONTINUOUS
 10
2.563880
 20
5.910520
  0
VERTEX
  8
0
  6
CONTINUOUS
 10
2.552880
 20
5.934720
  0
SEQEND
  8
0
  0
SOLID
  8
0
 62
    15
 10
2.563880
 20
5.910520
 11
3.192200
 21
6.274400
 12
2.567840
 22
5.885880
 13
3.196160
 23
6.249320
  0
POLYLINE
  8
0
  6
CONTINUOUS
 66
     1
 40
0.000000
 41
0.000000
  0
VERTEX
  8
0
  6
CONTINUOUS
 10
2.563880
 20
5.910520
  0
VERTEX
  8
0
  6
CONTINUOUS
 10
3.192200
 20
6.274400
  0
VERTEX
  8
0
  6
CONTINUOUS
 10
3.196160
 20
6.249320
  0
VERTEX
  8
0
  6
CONTINUOUS
 10
2.567840
 20
5.885880
  0
VERTEX
  8
0
  6
CONTINUOUS
 10
2.563880
 20
5.910520
  0
SEQEND
  8
0
  0
SOLID
  8
0
 62
    15
 10
2.567840
 20
5.885880
 11
3.196160
 21
6.249320
 12
2.567840
 22
5.437960
 13
3.196160
 23
5.801400
  0
POLYLINE
  8
0
  6
CONTINUOUS
 66
     1
 40
0.000000
 41
0.000000
  0
VERTEX
  8
0
  6
CONTINUOUS
 10
2.567840
 20
5.885880
  0
VERTEX
  8
0
  6
CONTINUOUS
 10
3.196160
 20
6.249320
  0
VERTEX
  8
0
  6
CONTINUOUS
 10
3.196160
 20
5.801400
  0
VERTEX
  8
0
  6
CONTINUOUS
 10
2.567840
 20
5.437960
  0
VERTEX
  8
0
  6
CONTINUOUS
 10
2.567840
 20
5.885880
  0
SEQEND
  8
0
  0
SOLID
  8
0
 62
    15
 10
2.567840
 20
5.437960
 11
3.196160
 21
5.801400
 12
2.570920
 22
5.397040
 13
3.199680
 23
5.760920
  0
POLYLINE
  8
0
  6
CONTINUOUS
 66
     1
 40
0.000000
 41
0.000000
  0
VERTEX
  8
0
  6
CONTINUOUS
 10
2.567840
 20
5.437960
  0
VERTEX
  8
0
  6
CONTINUOUS
 10
3.196160
 20
5.801400
  0
VERTEX
  8
0
  6
CONTINUOUS
 10
3.199680
 20
5.760920
  0
VERTEX
  8
0
  6
CONTINUOUS
 10
2.570920
 20
5.397040
  0
VERTEX
  8
0
  6
CONTINUOUS
 10
2.567840
 20
5.437960
  0
SEQEND
  8
0
  0
SOLID
  8
0
 62
    15
 10
2.570920
 20
5.397040
 11
3.199680
 21
5.760920
 12
2.579720
 22
5.362280
 13
3.208480
 23
5.725720
  0
POLYLINE
  8
0
  6
CONTINUOUS
 66
     1
 40
0.000000
 41
0.000000
  0
VERTEX
  8
0
  6
CONTINUOUS
 10
2.570920
 20
5.397040
  0
VERTEX
  8
0
  6
CONTINUOUS
 10
3.199680
 20
5.760920
  0
VERTEX
  8
0
  6
CONTINUOUS
 10
3.208480
 20
5.725720
  0
VERTEX
  8
0
  6
CONTINUOUS
 10
2.579720
 20
5.362280
  0
VERTEX
  8
0
  6
CONTINUOUS
 10
2.570920
 20
5.397040
  0
SEQEND
  8
0
  0
SOLID
  8
0
 62
    15
 10
2.579720
 20
5.362280
 11
3.208480
 21
5.725720
 12
2.593800
 22
5.332360
 13
3.222120
 23
5.695800
  0
POLYLINE
  8
0
  6
CONTINUOUS
 66
     1
 40
0.000000
 41
0.000000
  0
VERTEX
  8
0
  6
CONTINUOUS
 10
2.579720
 20
5.362280
  0
VERTEX
  8
0
  6
CONTINUOUS
 10
3.208480
 20
5.725720
  0
VERTEX
  8
0
  6
CONTINUOUS
 10
3.222120
 20
5.695800
  0
VERTEX
  8
0
  6
CONTINUOUS
 10
2.593800
 20
5.332360
  0
VERTEX
  8
0
  6
CONTINUOUS
 10
2.579720
 20
5.362280
  0
SEQEND
  8
0
  0
SOLID
  8
0
 62
    15
 10
2.593800
 20
5.332360
 11
3.222120
 21
5.695800
 12
2.611840
 22
5.307280
 13
3.240600
 23
5.670720
  0
POLYLINE
  8
0
  6
CONTINUOUS
 66
     1
 40
0.000000
 41
0.000000
  0
VERTEX
  8
0
  6
CONTINUOUS
 10
2.593800
 20
5.332360
  0
VERTEX
  8
0
  6
CONTINUOUS
 10
3.222120
 20
5.695800
  0
VERTEX
  8
0
  6
CONTINUOUS
 10
3.240600
 20
5.670720
  0
VERTEX
  8
0
  6
CONTINUOUS
 10
2.611840
 20
5.307280
  0
VERTEX
  8
0
  6
CONTINUOUS
 10
2.593800
 20
5.332360
  0
SEQEND
  8
0
  0
SOLID
  8
0
 62
    15
 10
2.611840
 20
5.307280
 11
3.240600
 21
5.670720
 12
2.633400
 22
5.286600
 13
3.262160
 23
5.650040
  0
POLYLINE
  8
0
  6
CONTINUOUS
 66
     1
 40
0.000000
 41
0.000000
  0
VERTEX
  8
0
  6
CONTINUOUS
 10
2.611840
 20
5.307280
  0
VERTEX
  8
0
  6
CONTINUOUS
 10
3.240600
 20
5.670720
  0
VERTEX
  8
0
  6
CONTINUOUS
 10
3.262160
 20
5.650040
  0
VERTEX
  8
0
  6
CONTINUOUS
 10
2.633400
 20
5.286600
  0
VERTEX
  8
0
  6
CONTINUOUS
 10
2.611840
 20
5.307280
  0
SEQEND
  8
0
  0
SOLID
  8
0
 62
    15
 10
2.633400
 20
5.286600
 11
3.262160
 21
5.650040
 12
2.658040
 22
5.269440
 13
3.286360
 23
5.633320
  0
POLYLINE
  8
0
  6
CONTINUOUS
 66
     1
 40
0.000000
 41
0.000000
  0
VERTEX
  8
0
  6
CONTINUOUS
 10
2.633400
 20
5.286600
  0
VERTEX
  8
0
  6
CONTINUOUS
 10
3.262160
 20
5.650040
  0
VERTEX
  8
0
  6
CONTINUOUS
 10
3.286360
 20
5.633320
  0
VERTEX
  8
0
  6
CONTINUOUS
 10
2.658040
 20
5.269440
  0
VERTEX
  8
0
  6
CONTINUOUS
 10
2.633400
 20
5.286600
  0
SEQEND
  8
0
  0
SOLID
  8
0
 62
    15
 10
2.658040
 20
5.269440
 11
3.286360
 21
5.633320
 12
2.711720
 22
5.246120
 13
3.340480
 23
5.610000
  0
POLYLINE
  8
0
  6
CONTINUOUS
 66
     1
 40
0.000000
 41
0.000000
  0
VERTEX
  8
0
  6
CONTINUOUS
 10
2.658040
 20
5.269440
  0
VERTEX
  8
0
  6
CONTINUOUS
 10
3.286360
 20
5.633320
  0
VERTEX
  8
0
  6
CONTINUOUS
 10
3.340480
 20
5.610000
  0
VERTEX
  8
0
  6
CONTINUOUS
 10
2.711720
 20
5.246120
  0
VERTEX
  8
0
  6
CONTINUOUS
 10
2.658040
 20
5.269440
  0
SEQEND
  8
0
  0
SOLID
  8
0
 62
    15
 10
2.711720
 20
5.246120
 11
3.340480
 21
5.610000
 12
2.711720
 22
5.166920
 13
3.340480
 23
5.530360
  0
POLYLINE
  8
0
  6
CONTINUOUS
 66
     1
 40
0.000000
 41
0.000000
  0
VERTEX
  8
0
  6
CONTINUOUS
 10
2.711720
 20
5.246120
  0
VERTEX
  8
0
  6
CONTINUOUS
 10
3.340480
 20
5.610000
  0
VERTEX
  8
0
  6
CONTINUOUS
 10
3.340480
 20
5.530360
  0
VERTEX
  8
0
  6
CONTINUOUS
 10
2.711720
 20
5.166920
  0
VERTEX
  8
0
  6
CONTINUOUS
 10
2.711720
 20
5.246120
  0
SEQEND
  8
0
  0
SOLID
  8
0
 62
    15
 10
2.711720
 20
5.166920
 11
3.340480
 21
5.530360
 12
2.763640
 22
5.146680
 13
3.392400
 23
5.510560
  0
POLYLINE
  8
0
  6
CONTINUOUS
 66
     1
 40
0.000000
 41
0.000000
  0
VERTEX
  8
0
  6
CONTINUOUS
 10
2.711720
 20
5.166920
  0
VERTEX
  8
0
  6
CONTINUOUS
 10
3.340480
 20
5.530360
  0
VERTEX
  8
0
  6
CONTINUOUS
 10
3.392400
 20
5.510560
  0
VERTEX
  8
0
  6
CONTINUOUS
 10
2.763640
 20
5.146680
  0
VERTEX
  8
0
  6
CONTINUOUS
 10
2.711720
 20
5.166920
  0
SEQEND
  8
0
  0
SOLID
  8
0
 62
    15
 10
2.763640
 20
5.146680
 11
3.392400
 21
5.510560
 12
2.810720
 22
5.120720
 13
3.439480
 23
5.484600
  0
POLYLINE
  8
0
  6
CONTINUOUS
 66
     1
 40
0.000000
 41
0.000000
  0
VERTEX
  8
0
  6
CONTINUOUS
 10
2.763640
 20
5.146680
  0
VERTEX
  8
0
  6
CONTINUOUS
 10
3.392400
 20
5.510560
  0
VERTEX
  8
0
  6
CONTINUOUS
 10
3.439480
 20
5.484600
  0
VERTEX
  8
0
  6
CONTINUOUS
 10
2.810720
 20
5.120720
  0
VERTEX
  8
0
  6
CONTINUOUS
 10
2.763640
 20
5.146680
  0
SEQEND
  8
0
  0
SOLID
  8
0
 62
    15
 10
2.810720
 20
5.120720
 11
3.439480
 21
5.484600
 12
2.853400
 22
5.089480
 13
3.481720
 23
5.453360
  0
POLYLINE
  8
0
  6
CONTINUOUS
 66
     1
 40
0.000000
 41
0.000000
  0
VERTEX
  8
0
  6
CONTINUOUS
 10
2.810720
 20
5.120720
  0
VERTEX
  8
0
  6
CONTINUOUS
 10
3.439480
 20
5.484600
  0
VERTEX
  8
0
  6
CONTINUOUS
 10
3.481720
 20
5.453360
  0
VERTEX
  8
0
  6
CONTINUOUS
 10
2.853400
 20
5.089480
  0
VERTEX
  8
0
  6
CONTINUOUS
 10
2.810720
 20
5.120720
  0
SEQEND
  8
0
  0
SOLID
  8
0
 62
    15
 10
2.853400
 20
5.089480
 11
3.481720
 21
5.453360
 12
2.890360
 22
5.054280
 13
3.519120
 23
5.417720
  0
POLYLINE
  8
0
  6
CONTINUOUS
 66
     1
 40
0.000000
 41
0.000000
  0
VERTEX
  8
0
  6
CONTINUOUS
 10
2.853400
 20
5.089480
  0
VERTEX
  8
0
  6
CONTINUOUS
 10
3.481720
 20
5.453360
  0
VERTEX
  8
0
  6
CONTINUOUS
 10
3.519120
 20
5.417720
  0
VERTEX
  8
0
  6
CONTINUOUS
 10
2.890360
 20
5.054280
  0
VERTEX
  8
0
  6
CONTINUOUS
 10
2.853400
 20
5.089480
  0
SEQEND
  8
0
  0
SOLID
  8
0
 62
    15
 10
2.890360
 20
5.054280
 11
3.519120
 21
5.417720
 12
2.922040
 22
5.015120
 13
3.550800
 23
5.378560
  0
POLYLINE
  8
0
  6
CONTINUOUS
 66
     1
 40
0.000000
 41
0.000000
  0
VERTEX
  8
0
  6
CONTINUOUS
 10
2.890360
 20
5.054280
  0
VERTEX
  8
0
  6
CONTINUOUS
 10
3.519120
 20
5.417720
  0
VERTEX
  8
0
  6
CONTINUOUS
 10
3.550800
 20
5.378560
  0
VERTEX
  8
0
  6
CONTINUOUS
 10
2.922040
 20
5.015120
  0
VERTEX
  8
0
  6
CONTINUOUS
 10
2.890360
 20
5.054280
  0
SEQEND
  8
0
  0
SOLID
  8
0
 62
    15
 10
2.922040
 20
5.015120
 11
3.550800
 21
5.378560
 12
2.947560
 22
4.972880
 13
3.576320
 23
5.336760
  0
POLYLINE
  8
0
  6
CONTINUOUS
 66
     1
 40
0.000000
 41
0.000000
  0
VERTEX
  8
0
  6
CONTINUOUS
 10
2.922040
 20
5.015120
  0
VERTEX
  8
0
  6
CONTINUOUS
 10
3.550800
 20
5.378560
  0
VERTEX
  8
0
  6
CONTINUOUS
 10
3.576320
 20
5.336760
  0
VERTEX
  8
0
  6
CONTINUOUS
 10
2.947560
 20
4.972880
  0
VERTEX
  8
0
  6
CONTINUOUS
 10
2.922040
 20
5.015120
  0
SEQEND
  8
0
  0
SOLID
  8
0
 62
    15
 10
2.947560
 20
4.972880
 11
3.576320
 21
5.336760
 12
2.967360
 22
4.928880
 13
3.596120
 23
5.292760
  0
POLYLINE
  8
0
  6
CONTINUOUS
 66
     1
 40
0.000000
 41
0.000000
  0
VERTEX
  8
0
  6
CONTINUOUS
 10
2.947560
 20
4.972880
  0
VERTEX
  8
0
  6
CONTINUOUS
 10
3.576320
 20
5.336760
  0
VERTEX
  8
0
  6
CONTINUOUS
 10
3.596120
 20
5.292760
  0
VERTEX
  8
0
  6
CONTINUOUS
 10
2.967360
 20
4.928880
  0
VERTEX
  8
0
  6
CONTINUOUS
 10
2.947560
 20
4.972880
  0
SEQEND
  8
0
  0
SOLID
  8
0
 62
    15
 10
2.967360
 20
4.928880
 11
3.596120
 21
5.292760
 12
2.980560
 22
4.884000
 13
3.609320
 23
5.247440
  0
POLYLINE
  8
0
  6
CONTINUOUS
 66
     1
 40
0.000000
 41
0.000000
  0
VERTEX
  8
0
  6
CONTINUOUS
 10
2.967360
 20
4.928880
  0
VERTEX
  8
0
  6
CONTINUOUS
 10
3.596120
 20
5.292760
  0
VERTEX
  8
0
  6
CONTINUOUS
 10
3.609320
 20
5.247440
  0
VERTEX
  8
0
  6
CONTINUOUS
 10
2.980560
 20
4.884000
  0
VERTEX
  8
0
  6
CONTINUOUS
 10
2.967360
 20
4.928880
  0
SEQEND
  8
0
  0
SOLID
  8
0
 62
    15
 10
2.980560
 20
4.884000
 11
3.609320
 21
5.247440
 12
2.986720
 22
4.838240
 13
3.615480
 23
5.201680
  0
POLYLINE
  8
0
  6
CONTINUOUS
 66
     1
 40
0.000000
 41
0.000000
  0
VERTEX
  8
0
  6
CONTINUOUS
 10
2.980560
 20
4.884000
  0
VERTEX
  8
0
  6
CONTINUOUS
 10
3.609320
 20
5.247440
  0
VERTEX
  8
0
  6
CONTINUOUS
 10
3.615480
 20
5.201680
  0
VERTEX
  8
0
  6
CONTINUOUS
 10
2.986720
 20
4.838240
  0
VERTEX
  8
0
  6
CONTINUOUS
 10
2.980560
 20
4.884000
  0
SEQEND
  8
0
  0
SOLID
  8
0
 62
    15
 10
2.986720
 20
4.838240
 11
3.615480
 21
5.201680
 12
2.986280
 22
4.792480
 13
3.615040
 23
5.156360
  0
POLYLINE
  8
0
  6
CONTINUOUS
 66
     1
 40
0.000000
 41
0.000000
  0
VERTEX
  8
0
  6
CONTINUOUS
 10
2.986720
 20
4.838240
  0
VERTEX
  8
0
  6
CONTINUOUS
 10
3.615480
 20
5.201680
  0
VERTEX
  8
0
  6
CONTINUOUS
 10
3.615040
 20
5.156360
  0
VERTEX
  8
0
  6
CONTINUOUS
 10
2.986280
 20
4.792480
  0
VERTEX
  8
0
  6
CONTINUOUS
 10
2.986720
 20
4.838240
  0
SEQEND
  8
0
  0
SOLID
  8
0
 62
    15
 10
2.986280
 20
4.792480
 11
3.615040
 21
5.156360
 12
2.977920
 22
4.748040
 13
3.606680
 23
5.111920
  0
POLYLINE
  8
0
  6
CONTINUOUS
 66
     1
 40
0.000000
 41
0.000000
  0
VERTEX
  8
0
  6
CONTINUOUS
 10
2.986280
 20
4.792480
  0
VERTEX
  8
0
  6
CONTINUOUS
 10
3.615040
 20
5.156360
  0
VERTEX
  8
0
  6
CONTINUOUS
 10
3.606680
 20
5.111920
  0
VERTEX
  8
0
  6
CONTINUOUS
 10
2.977920
 20
4.748040
  0
VERTEX
  8
0
  6
CONTINUOUS
 10
2.986280
 20
4.792480
  0
SEQEND
  8
0
  0
SOLID
  8
0
 62
    15
 10
2.977920
 20
4.748040
 11
3.606680
 21
5.111920
 12
2.962080
 22
4.705360
 13
3.590840
 23
5.069240
  0
POLYLINE
  8
0
  6
CONTINUOUS
 66
     1
 40
0.000000
 41
0.000000
  0
VERTEX
  8
0
  6
CONTINUOUS
 10
2.977920
 20
4.748040
  0
VERTEX
  8
0
  6
CONTINUOUS
 10
3.606680
 20
5.111920
  0
VERTEX
  8
0
  6
CONTINUOUS
 10
3.590840
 20
5.069240
  0
VERTEX
  8
0
  6
CONTINUOUS
 10
2.962080
 20
4.705360
  0
VERTEX
  8
0
  6
CONTINUOUS
 10
2.977920
 20
4.748040
  0
SEQEND
  8
0
  0
SOLID
  8
0
 62
    15
 10
2.962080
 20
4.705360
 11
3.590840
 21
5.069240
 12
2.938320
 22
4.665320
 13
3.567080
 23
5.029200
  0
POLYLINE
  8
0
  6
CONTINUOUS
 66
     1
 40
0.000000
 41
0.000000
  0
VERTEX
  8
0
  6
CONTINUOUS
 10
2.962080
 20
4.705360
  0
VERTEX
  8
0
  6
CONTINUOUS
 10
3.590840
 20
5.069240
  0
VERTEX
  8
0
  6
CONTINUOUS
 10
3.567080
 20
5.029200
  0
VERTEX
  8
0
  6
CONTINUOUS
 10
2.938320
 20
4.665320
  0
VERTEX
  8
0
  6
CONTINUOUS
 10
2.962080
 20
4.705360
  0
SEQEND
  8
0
  0
SOLID
  8
0
 62
    15
 10
2.938320
 20
4.665320
 11
3.567080
 21
5.029200
 12
2.905760
 22
4.628800
 13
3.534520
 23
4.992240
  0
POLYLINE
  8
0
  6
CONTINUOUS
 66
     1
 40
0.000000
 41
0.000000
  0
VERTEX
  8
0
  6
CONTINUOUS
 10
2.938320
 20
4.665320
  0
VERTEX
  8
0
  6
CONTINUOUS
 10
3.567080
 20
5.029200
  0
VERTEX
  8
0
  6
CONTINUOUS
 10
3.534520
 20
4.992240
  0
VERTEX
  8
0
  6
CONTINUOUS
 10
2.905760
 20
4.628800
  0
VERTEX
  8
0
  6
CONTINUOUS
 10
2.938320
 20
4.665320
  0
SEQEND
  8
0
  0
SOLID
  8
0
 62
    15
 10
2.905760
 20
4.628800
 11
3.534520
 21
4.992240
 12
2.864840
 22
4.595800
 13
3.493600
 23
4.959680
  0
POLYLINE
  8
0
  6
CONTINUOUS
 66
     1
 40
0.000000
 41
0.000000
  0
VERTEX
  8
0
  6
CONTINUOUS
 10
2.905760
 20
4.628800
  0
VERTEX
  8
0
  6
CONTINUOUS
 10
3.534520
 20
4.992240
  0
VERTEX
  8
0
  6
CONTINUOUS
 10
3.493600
 20
4.959680
  0
VERTEX
  8
0
  6
CONTINUOUS
 10
2.864840
 20
4.595800
  0
VERTEX
  8
0
  6
CONTINUOUS
 10
2.905760
 20
4.628800
  0
SEQEND
  8
0
  0
POLYLINE
  8
0
  6
CONTINUOUS
 66
     1
 40
0.000000
 41
0.000000
  0
VERTEX
  8
0
  6
CONTINUOUS
 10
2.814240
 20
4.568080
  0
VERTEX
  8
0
  6
CONTINUOUS
 10
2.814240
 20
4.507800
  0
VERTEX
  8
0
  6
CONTINUOUS
 10
2.183280
 20
4.507800
  0
VERTEX
  8
0
  6
CONTINUOUS
 10
2.183280
 20
6.486920
  0
VERTEX
  8
0
  6
CONTINUOUS
 10
2.310440
 20
6.486920
  0
VERTEX
  8
0
  6
CONTINUOUS
 10
2.313960
 20
6.446000
  0
VERTEX
  8
0
  6
CONTINUOUS
 10
2.323200
 20
6.413000
  0
VERTEX
  8
0
  6
CONTINUOUS
 10
2.337280
 20
6.387040
  0
VERTEX
  8
0
  6
CONTINUOUS
 10
2.354880
 20
6.367240
  0
VERTEX
  8
0
  6
CONTINUOUS
 10
2.375120
 20
6.352280
  0
VERTEX
  8
0
  6
CONTINUOUS
 10
2.396240
 20
6.341280
  0
VERTEX
  8
0
  6
CONTINUOUS
 10
2.438480
 20
6.327200
  0
VERTEX
  8
0
  6
CONTINUOUS
 10
2.438480
 20
6.261640
  0
VERTEX
  8
0
  6
CONTINUOUS
 10
2.467520
 20
6.252840
  0
VERTEX
  8
0
  6
CONTINUOUS
 10
2.491280
 20
6.241840
  0
VERTEX
  8
0
  6
CONTINUOUS
 10
2.510200
 20
6.229080
  0
VERTEX
  8
0
  6
CONTINUOUS
 10
2.524720
 20
6.214560
  0
VERTEX
  8
0
  6
CONTINUOUS
 10
2.534400
 20
6.198720
  0
VERTEX
  8
0
  6
CONTINUOUS
 10
2.540120
 20
6.182440
  0
VERTEX
  8
0
  6
CONTINUOUS
 10
2.540120
 20
6.148560
  0
VERTEX
  8
0
  6
CONTINUOUS
 10
2.526920
 20
6.116000
  0
VERTEX
  8
0
  6
CONTINUOUS
 10
2.502280
 20
6.087400
  0
VERTEX
  8
0
  6
CONTINUOUS
 10
2.468840
 20
6.065400
  0
VERTEX
  8
0
  6
CONTINUOUS
 10
2.428800
 20
6.053520
  0
VERTEX
  8
0
  6
CONTINUOUS
 10
2.428800
 20
6.021400
  0
VERTEX
  8
0
  6
CONTINUOUS
 10
2.449040
 20
6.018320
  0
VERTEX
  8
0
  6
CONTINUOUS
 10
2.471480
 20
6.009520
  0
VERTEX
  8
0
  6
CONTINUOUS
 10
2.494360
 20
5.995880
  0
VERTEX
  8
0
  6
CONTINUOUS
 10
2.516800
 20
5.978280
  0
VERTEX
  8
0
  6
CONTINUOUS
 10
2.536600
 20
5.957600
  0
VERTEX
  8
0
  6
CONTINUOUS
 10
2.552880
 20
5.934720
  0
VERTEX
  8
0
  6
CONTINUOUS
 10
2.563880
 20
5.910520
  0
VERTEX
  8
0
  6
CONTINUOUS
 10
2.567840
 20
5.885880
  0
VERTEX
  8
0
  6
CONTINUOUS
 10
2.567840
 20
5.437960
  0
VERTEX
  8
0
  6
CONTINUOUS
 10
2.570920
 20
5.397040
  0
VERTEX
  8
0
  6
CONTINUOUS
 10
2.579720
 20
5.362280
  0
VERTEX
  8
0
  6
CONTINUOUS
 10
2.593800
 20
5.332360
  0
VERTEX
  8
0
  6
CONTINUOUS
 10
2.611840
 20
5.307280
  0
VERTEX
  8
0
  6
CONTINUOUS
 10
2.633400
 20
5.286600
  0
VERTEX
  8
0
  6
CONTINUOUS
 10
2.658040
 20
5.269440
  0
VERTEX
  8
0
  6
CONTINUOUS
 10
2.711720
 20
5.246120
  0
VERTEX
  8
0
  6
CONTINUOUS
 10
2.711720
 20
5.166920
  0
VERTEX
  8
0
  6
CONTINUOUS
 10
2.763640
 20
5.146680
  0
VERTEX
  8
0
  6
CONTINUOUS
 10
2.810720
 20
5.120720
  0
VERTEX
  8
0
  6
CONTINUOUS
 10
2.853400
 20
5.089480
  0
VERTEX
  8
0
  6
CONTINUOUS
 10
2.890360
 20
5.054280
  0
VERTEX
  8
0
  6
CONTINUOUS
 10
2.922040
 20
5.015120
  0
VERTEX
  8
0
  6
CONTINUOUS
 10
2.947560
 20
4.972880
  0
VERTEX
  8
0
  6
CONTINUOUS
 10
2.967360
 20
4.928880
  0
VERTEX
  8
0
  6
CONTINUOUS
 10
2.980560
 20
4.884000
  0
VERTEX
  8
0
  6
CONTINUOUS
 10
2.986720
 20
4.838240
  0
VERTEX
  8
0
  6
CONTINUOUS
 10
2.986280
 20
4.792480
  0
VERTEX
  8
0
  6
CONTINUOUS
 10
2.977920
 20
4.748040
  0
VERTEX
  8
0
  6
CONTINUOUS
 10
2.962080
 20
4.705360
  0
VERTEX
  8
0
  6
CONTINUOUS
 10
2.938320
 20
4.665320
  0
VERTEX
  8
0
  6
CONTINUOUS
 10
2.905760
 20
4.628800
  0
VERTEX
  8
0
  6
CONTINUOUS
 10
2.864840
 20
4.595800
  0
VERTEX
  8
0
  6
CONTINUOUS
 10
2.814240
 20
4.568080
  0
SEQEND
  8
0
  0
TEXT
  8
0
 10
2.556840
 20
4.259640
 40
0.138111
  1
BA  1115
 41
1.000000
  7
SN0
 71
     0
 72
     5
 11
3.238529
 21
4.259640
  0
TEXT
  8
0
 10
2.497880
 20
4.067800
 40
0.138111
  1
13/16" x 2"
 41
1.000000
  7
SN0
 71
     0
 72
     5
 11
3.296386
 21
4.067800
  0
POLYLINE
  8
0
  6
CONTINUOUS
 66
     1
 40
0.014080
 41
0.014080
  0
VERTEX
  8
0
  6
CONTINUOUS
 10
4.623520
 20
6.661160
  0
VERTEX
  8
0
  6
CONTINUOUS
 10
4.643760
 20
6.699440
  0
VERTEX
  8
0
  6
CONTINUOUS
 10
4.667080
 20
6.732880
  0
VERTEX
  8
0
  6
CONTINUOUS
 10
4.683800
 20
6.752240
  0
VERTEX
  8
0
  6
CONTINUOUS
 10
4.701840
 20
6.769400
  0
VERTEX
  8
0
  6
CONTINUOUS
 10
4.720760
 20
6.784360
  0
VERTEX
  8
0
  6
CONTINUOUS
 10
4.760800
 20
6.808120
  0
VERTEX
  8
0
  6
CONTINUOUS
 10
4.781920
 20
6.817360
  0
VERTEX
  8
0
  6
CONTINUOUS
 10
4.825480
 20
6.829240
  0
VERTEX
  8
0
  6
CONTINUOUS
 10
4.847920
 20
6.832320
  0
VERTEX
  8
0
  6
CONTINUOUS
 10
4.870800
 20
6.833640
  0
VERTEX
  8
0
  6
CONTINUOUS
 10
4.893680
 20
6.833200
  0
VERTEX
  8
0
  6
CONTINUOUS
 10
4.939440
 20
6.826600
  0
VERTEX
  8
0
  6
CONTINUOUS
 10
4.961880
 20
6.820880
  0
VERTEX
  8
0
  6
CONTINUOUS
 10
5.006760
 20
6.804600
  0
VERTEX
  8
0
  6
CONTINUOUS
 10
5.049880
 20
6.781720
  0
VERTEX
  8
0
  6
CONTINUOUS
 10
5.090360
 20
6.753120
  0
VERTEX
  8
0
  6
CONTINUOUS
 10
5.127760
 20
6.718800
  0
VERTEX
  8
0
  6
CONTINUOUS
 10
5.161200
 20
6.678760
  0
VERTEX
  8
0
  6
CONTINUOUS
 10
5.176160
 20
6.657200
  0
VERTEX
  8
0
  6
CONTINUOUS
 10
5.189800
 20
6.634320
  0
VERTEX
  8
0
  6
CONTINUOUS
 10
5.202120
 20
6.610120
  0
VERTEX
  8
0
  6
CONTINUOUS
 10
5.213120
 20
6.584600
  0
VERTEX
  8
0
  6
CONTINUOUS
 10
5.222360
 20
6.558200
  0
VERTEX
  8
0
  6
CONTINUOUS
 10
5.301560
 20
6.558200
  0
VERTEX
  8
0
  6
CONTINUOUS
 10
5.317840
 20
6.517280
  0
VERTEX
  8
0
  6
CONTINUOUS
 10
5.332800
 20
6.491760
  0
VERTEX
  8
0
  6
CONTINUOUS
 10
5.351720
 20
6.468440
  0
VERTEX
  8
0
  6
CONTINUOUS
 10
5.374600
 20
6.448640
  0
VERTEX
  8
0
  6
CONTINUOUS
 10
5.402320
 20
6.432360
  0
VERTEX
  8
0
  6
CONTINUOUS
 10
5.417720
 20
6.425760
  0
VERTEX
  8
0
  6
CONTINUOUS
 10
5.452920
 20
6.416960
  0
VERTEX
  8
0
  6
CONTINUOUS
 10
5.472280
 20
6.414760
  0
VERTEX
  8
0
  6
CONTINUOUS
 10
5.493400
 20
6.413880
  0
VERTEX
  8
0
  6
CONTINUOUS
 10
5.941320
 20
6.413880
  0
VERTEX
  8
0
  6
CONTINUOUS
 10
5.953640
 20
6.413000
  0
VERTEX
  8
0
  6
CONTINUOUS
 10
5.978280
 20
6.405520
  0
VERTEX
  8
0
  6
CONTINUOUS
 10
6.002040
 20
6.391440
  0
VERTEX
  8
0
  6
CONTINUOUS
 10
6.024040
 20
6.373400
  0
VERTEX
  8
0
  6
CONTINUOUS
 10
6.042960
 20
6.352280
  0
VERTEX
  8
0
  6
CONTINUOUS
 10
6.058800
 20
6.329400
  0
VERTEX
  8
0
  6
CONTINUOUS
 10
6.073760
 20
6.295520
  0
VERTEX
  8
0
  6
CONTINUOUS
 10
6.076840
 20
6.275280
  0
VERTEX
  8
0
  6
CONTINUOUS
 10
6.108960
 20
6.275280
  0
VERTEX
  8
0
  6
CONTINUOUS
 10
6.110720
 20
6.285840
  0
VERTEX
  8
0
  6
CONTINUOUS
 10
6.120840
 20
6.315320
  0
VERTEX
  8
0
  6
CONTINUOUS
 10
6.136680
 20
6.341280
  0
VERTEX
  8
0
  6
CONTINUOUS
 10
6.156480
 20
6.361960
  0
VERTEX
  8
0
  6
CONTINUOUS
 10
6.171440
 20
6.372960
  0
VERTEX
  8
0
  6
CONTINUOUS
 10
6.187280
 20
6.381320
  0
VERTEX
  8
0
  6
CONTINUOUS
 10
6.212360
 20
6.387480
  0
VERTEX
  8
0
  6
CONTINUOUS
 10
6.229520
 20
6.387480
  0
VERTEX
  8
0
  6
CONTINUOUS
 10
6.246240
 20
6.383960
  0
VERTEX
  8
0
  6
CONTINUOUS
 10
6.270000
 20
6.370760
  0
VERTEX
  8
0
  6
CONTINUOUS
 10
6.284080
 20
6.356680
  0
VERTEX
  8
0
  6
CONTINUOUS
 10
6.297280
 20
6.337760
  0
VERTEX
  8
0
  6
CONTINUOUS
 10
6.313120
 20
6.299920
  0
VERTEX
  8
0
  6
CONTINUOUS
 10
6.317080
 20
6.284520
  0
VERTEX
  8
0
  6
CONTINUOUS
 10
6.382640
 20
6.284520
  0
VERTEX
  8
0
  6
CONTINUOUS
 10
6.396720
 20
6.242280
  0
VERTEX
  8
0
  6
CONTINUOUS
 10
6.414320
 20
6.210600
  0
VERTEX
  8
0
  6
CONTINUOUS
 10
6.431920
 20
6.191680
  0
VERTEX
  8
0
  6
CONTINUOUS
 10
6.454800
 20
6.175840
  0
VERTEX
  8
0
  6
CONTINUOUS
 10
6.468440
 20
6.169240
  0
VERTEX
  8
0
  6
CONTINUOUS
 10
6.483840
 20
6.163960
  0
VERTEX
  8
0
  6
CONTINUOUS
 10
6.511120
 20
6.158240
  0
VERTEX
  8
0
  6
CONTINUOUS
 10
6.542360
 20
6.156480
  0
VERTEX
  8
0
  6
CONTINUOUS
 10
6.542360
 20
6.029760
  0
VERTEX
  8
0
  6
CONTINUOUS
 10
4.563240
 20
6.029760
  0
VERTEX
  8
0
  6
CONTINUOUS
 10
4.563240
 20
6.660280
  0
VERTEX
  8
0
  6
CONTINUOUS
 10
4.623520
 20
6.660280
  0
VERTEX
  8
0
  6
CONTINUOUS
 10
4.623520
 20
6.661160
  0
SEQEND
  8
0
  0
TEXT
  8
0
 10
5.181880
 20
5.756080
 40
0.138111
  1
BA  1115
 41
1.000000
  7
SN0
 71
     0
 72
     5
 11
5.863569
 21
5.756080
  0
TEXT
  8
0
 10
5.122920
 20
5.564240
 40
0.138111
  1
13/16" x 2"
 41
1.000000
  7
SN0
 71
     0
 72
     5
 11
5.921426
 21
5.564240
  0
ENDSEC
  0
EOF
