  0
SECTION
  2
HEADER
  9
$ACADVER
  1
AC1006
  9
$EXTMIN
 10
3.896200
 20
3.364240
  9
$EXTMAX
 10
6.237880
 20
5.111920
  9
$LTSCALE
 40
0.044000
  9
$PDMODE
 70
    35
  9
$PDSIZE
 40
0.035200
  0
ENDSEC
  0
SECTION
  2
TABLES
  0
TABLE
  2
LTYPE
 70
     9
  0
LTYPE
  2
CONTINUOUS
 70
    64
  3
Solid line
 72
    65
 73
     0
 40
0.000000
  0
LTYPE
  2
DASHED
 70
    64
  3
__ __ __ __ __ __ __ __ __ __ __ __ __ __ __
 72
    65
 73
     2
 40
0.000330
 49
0.000220
 49
-0.000110
  0
LTYPE
  2
HIDDEN
 70
    64
  3
 _ _ _ _ _ _ _ _ _ _ _ _ _ _ _ _ _ _ _ _ _ _
 72
    65
 73
     2
 40
0.000165
 49
0.000110
 49
-0.000055
  0
LTYPE
  2
CENTER
 70
    64
  3
____ _ ____ _ ____ _ ____ _ ____ _ ____ _ ____
 72
    65
 73
     4
 40
0.000880
 49
0.000550
 49
-0.000110
 49
0.000110
 49
-0.000110
  0
LTYPE
  2
PHANTOM
 70
    64
  3
_____ _ _ _____ _ _ _____ _ _ _____ _ _ ____
 72
    65
 73
     6
 40
0.001100
 49
0.000550
 49
-0.000110
 49
0.000110
 49
-0.000110
 49
0.000110
 49
-0.000110
  0
LTYPE
  2
DOT
 70
    64
  3
...............................................
 72
    65
 73
     2
 40
0.000110
 49
0.000000
 49
-0.000110
  0
LTYPE
  2
DASHDOT
 70
    64
  3
__ . __ . __ . __ . __ . __ . __ . __ . __ . __
 72
    65
 73
     4
 40
0.000440
 49
0.000220
 49
-0.000110
 49
0.000000
 49
-0.000110
  0
LTYPE
  2
BORDER
 70
    64
  3
__ __ . __ __ . __ __ . __ __ . __ __ . __ __
 72
    65
 73
     6
 40
0.000770
 49
0.000220
 49
-0.000110
 49
0.000220
 49
-0.000110
 49
0.000000
 49
-0.000110
  0
LTYPE
  2
DIVIDE
 70
    64
  3
__ . . __ . . __ . . __ . . __ . . __ . . __
 72
    65
 73
     6
 40
0.000550
 49
0.000220
 49
-0.000110
 49
0.000000
 49
-0.000110
 49
0.000000
 49
-0.000110
  0
LTYPE
  2
DOTDOT
 70
    64
  3
 . .  . .  . .  . .  . .  . . 
 72
    65
 73
     5
 40
0.000242
 49
-0.000110
 49
0.000000
 49
-0.000110
 49
0.000000
 49
-0.000110
  0
ENDTAB
  0
TABLE
  2
STYLE
 70
     2
  0
STYLE
 70
     0
  2
SN0
 40
0.000000
 41
0.000440
 50
0.000000
 71
     0
 42
0.000000
  3
ROMAND
  0
STYLE
 70
    68
  2
SV0
 40
0.000000
 41
0.000440
 50
0.000000
 71
     0
 42
0.000000
  3
ROMAND
  0
ENDTAB
  0
TABLE
  2
LAYER
 70
     3
  0
LAYER
  2
FOREGROUND
 70
    64
 62
     7
  6
CONTINUOUS
  0
LAYER
  2
BACKGROUND
 70
    65
 62
    -7
  6
CONTINUOUS
  0
LAYER
  2
0
 70
    64
 62
     7
  6
CONTINUOUS
  0
ENDTAB
  0
ENDSEC
  0
SECTION
  2
ENTITIES
  0
POLYLINE
  8
FOREGROUND
  6
CONTINUOUS
 66
     1
 40
0.000000
 41
0.000000
  0
VERTEX
  8
FOREGROUND
  6
CONTINUOUS
 10
0.000000
 20
8.476160
  0
VERTEX
  8
FOREGROUND
  6
CONTINUOUS
 10
8.499920
 20
8.476160
  0
VERTEX
  8
FOREGROUND
  6
CONTINUOUS
 10
8.499920
 20
-2.523840
  0
VERTEX
  8
FOREGROUND
  6
CONTINUOUS
 10
0.000000
 20
-2.523840
  0
VERTEX
  8
FOREGROUND
  6
CONTINUOUS
 10
0.000000
 20
8.476160
  0
SEQEND
  8
0
  0
POLYLINE
  8
FOREGROUND
  6
CONTINUOUS
 66
     1
 40
0.000000
 41
0.000000
  0
VERTEX
  8
FOREGROUND
  6
CONTINUOUS
 10
0.000000
 20
8.476160
  0
VERTEX
  8
FOREGROUND
  6
CONTINUOUS
 10
8.499920
 20
8.476160
  0
VERTEX
  8
FOREGROUND
  6
CONTINUOUS
 10
8.499920
 20
-2.523840
  0
VERTEX
  8
FOREGROUND
  6
CONTINUOUS
 10
0.000000
 20
-2.523840
  0
VERTEX
  8
FOREGROUND
  6
CONTINUOUS
 10
0.000000
 20
8.476160
  0
SEQEND
  8
0
  0
SOLID
  8
0
 62
    15
 10
4.519240
 20
4.126320
 11
4.523640
 21
4.879160
 12
4.533320
 22
4.136880
 13
4.537720
 23
4.889280
  0
POLYLINE
  8
0
  6
CONTINUOUS
 66
     1
 40
0.000000
 41
0.000000
  0
VERTEX
  8
0
  6
CONTINUOUS
 10
4.519240
 20
4.126320
  0
VERTEX
  8
0
  6
CONTINUOUS
 10
4.523640
 20
4.879160
  0
VERTEX
  8
0
  6
CONTINUOUS
 10
4.537720
 20
4.889280
  0
VERTEX
  8
0
  6
CONTINUOUS
 10
4.533320
 20
4.136880
  0
VERTEX
  8
0
  6
CONTINUOUS
 10
4.519240
 20
4.126320
  0
SEQEND
  8
0
  0
SOLID
  8
0
 62
    15
 10
3.976720
 20
4.263160
 11
3.980680
 21
5.015560
 12
3.992120
 22
4.288680
 13
3.996520
 23
5.041520
  0
POLYLINE
  8
0
  6
CONTINUOUS
 66
     1
 40
0.000000
 41
0.000000
  0
VERTEX
  8
0
  6
CONTINUOUS
 10
3.976720
 20
4.263160
  0
VERTEX
  8
0
  6
CONTINUOUS
 10
3.980680
 20
5.015560
  0
VERTEX
  8
0
  6
CONTINUOUS
 10
3.996520
 20
5.041520
  0
VERTEX
  8
0
  6
CONTINUOUS
 10
3.992120
 20
4.288680
  0
VERTEX
  8
0
  6
CONTINUOUS
 10
3.976720
 20
4.263160
  0
SEQEND
  8
0
  0
SOLID
  8
0
 62
    15
 10
3.992120
 20
4.288680
 11
3.996520
 21
5.041520
 12
4.011480
 22
4.311120
 13
4.015880
 23
5.063960
  0
POLYLINE
  8
0
  6
CONTINUOUS
 66
     1
 40
0.000000
 41
0.000000
  0
VERTEX
  8
0
  6
CONTINUOUS
 10
3.992120
 20
4.288680
  0
VERTEX
  8
0
  6
CONTINUOUS
 10
3.996520
 20
5.041520
  0
VERTEX
  8
0
  6
CONTINUOUS
 10
4.015880
 20
5.063960
  0
VERTEX
  8
0
  6
CONTINUOUS
 10
4.011480
 20
4.311120
  0
VERTEX
  8
0
  6
CONTINUOUS
 10
3.992120
 20
4.288680
  0
SEQEND
  8
0
  0
SOLID
  8
0
 62
    15
 10
4.011480
 20
4.311120
 11
4.015880
 21
5.063960
 12
4.034360
 22
4.329600
 13
4.038760
 23
5.082440
  0
POLYLINE
  8
0
  6
CONTINUOUS
 66
     1
 40
0.000000
 41
0.000000
  0
VERTEX
  8
0
  6
CONTINUOUS
 10
4.011480
 20
4.311120
  0
VERTEX
  8
0
  6
CONTINUOUS
 10
4.015880
 20
5.063960
  0
VERTEX
  8
0
  6
CONTINUOUS
 10
4.038760
 20
5.082440
  0
VERTEX
  8
0
  6
CONTINUOUS
 10
4.034360
 20
4.329600
  0
VERTEX
  8
0
  6
CONTINUOUS
 10
4.011480
 20
4.311120
  0
SEQEND
  8
0
  0
SOLID
  8
0
 62
    15
 10
4.034360
 20
4.329600
 11
4.038760
 21
5.082440
 12
4.060320
 22
4.344120
 13
4.064280
 23
5.096520
  0
POLYLINE
  8
0
  6
CONTINUOUS
 66
     1
 40
0.000000
 41
0.000000
  0
VERTEX
  8
0
  6
CONTINUOUS
 10
4.034360
 20
4.329600
  0
VERTEX
  8
0
  6
CONTINUOUS
 10
4.038760
 20
5.082440
  0
VERTEX
  8
0
  6
CONTINUOUS
 10
4.064280
 20
5.096520
  0
VERTEX
  8
0
  6
CONTINUOUS
 10
4.060320
 20
4.344120
  0
VERTEX
  8
0
  6
CONTINUOUS
 10
4.034360
 20
4.329600
  0
SEQEND
  8
0
  0
SOLID
  8
0
 62
    15
 10
4.060320
 20
4.344120
 11
4.064280
 21
5.096520
 12
4.088920
 22
4.353800
 13
4.092880
 23
5.106200
  0
POLYLINE
  8
0
  6
CONTINUOUS
 66
     1
 40
0.000000
 41
0.000000
  0
VERTEX
  8
0
  6
CONTINUOUS
 10
4.060320
 20
4.344120
  0
VERTEX
  8
0
  6
CONTINUOUS
 10
4.064280
 20
5.096520
  0
VERTEX
  8
0
  6
CONTINUOUS
 10
4.092880
 20
5.106200
  0
VERTEX
  8
0
  6
CONTINUOUS
 10
4.088920
 20
4.353800
  0
VERTEX
  8
0
  6
CONTINUOUS
 10
4.060320
 20
4.344120
  0
SEQEND
  8
0
  0
SOLID
  8
0
 62
    15
 10
4.088920
 20
4.353800
 11
4.092880
 21
5.106200
 12
4.119280
 22
4.358200
 13
4.123680
 23
5.111040
  0
POLYLINE
  8
0
  6
CONTINUOUS
 66
     1
 40
0.000000
 41
0.000000
  0
VERTEX
  8
0
  6
CONTINUOUS
 10
4.088920
 20
4.353800
  0
VERTEX
  8
0
  6
CONTINUOUS
 10
4.092880
 20
5.106200
  0
VERTEX
  8
0
  6
CONTINUOUS
 10
4.123680
 20
5.111040
  0
VERTEX
  8
0
  6
CONTINUOUS
 10
4.119280
 20
4.358200
  0
VERTEX
  8
0
  6
CONTINUOUS
 10
4.088920
 20
4.353800
  0
SEQEND
  8
0
  0
SOLID
  8
0
 62
    15
 10
4.119280
 20
4.358200
 11
4.123680
 21
5.111040
 12
4.151840
 22
4.357760
 13
4.155800
 23
5.110600
  0
POLYLINE
  8
0
  6
CONTINUOUS
 66
     1
 40
0.000000
 41
0.000000
  0
VERTEX
  8
0
  6
CONTINUOUS
 10
4.119280
 20
4.358200
  0
VERTEX
  8
0
  6
CONTINUOUS
 10
4.123680
 20
5.111040
  0
VERTEX
  8
0
  6
CONTINUOUS
 10
4.155800
 20
5.110600
  0
VERTEX
  8
0
  6
CONTINUOUS
 10
4.151840
 20
4.357760
  0
VERTEX
  8
0
  6
CONTINUOUS
 10
4.119280
 20
4.358200
  0
SEQEND
  8
0
  0
SOLID
  8
0
 62
    15
 10
4.151840
 20
4.357760
 11
4.155800
 21
5.110600
 12
4.185720
 22
4.351600
 13
4.189680
 23
5.104440
  0
POLYLINE
  8
0
  6
CONTINUOUS
 66
     1
 40
0.000000
 41
0.000000
  0
VERTEX
  8
0
  6
CONTINUOUS
 10
4.151840
 20
4.357760
  0
VERTEX
  8
0
  6
CONTINUOUS
 10
4.155800
 20
5.110600
  0
VERTEX
  8
0
  6
CONTINUOUS
 10
4.189680
 20
5.104440
  0
VERTEX
  8
0
  6
CONTINUOUS
 10
4.185720
 20
4.351600
  0
VERTEX
  8
0
  6
CONTINUOUS
 10
4.151840
 20
4.357760
  0
SEQEND
  8
0
  0
SOLID
  8
0
 62
    15
 10
4.185720
 20
4.351600
 11
4.189680
 21
5.104440
 12
4.220480
 22
4.339280
 13
4.224440
 23
5.092120
  0
POLYLINE
  8
0
  6
CONTINUOUS
 66
     1
 40
0.000000
 41
0.000000
  0
VERTEX
  8
0
  6
CONTINUOUS
 10
4.185720
 20
4.351600
  0
VERTEX
  8
0
  6
CONTINUOUS
 10
4.189680
 20
5.104440
  0
VERTEX
  8
0
  6
CONTINUOUS
 10
4.224440
 20
5.092120
  0
VERTEX
  8
0
  6
CONTINUOUS
 10
4.220480
 20
4.339280
  0
VERTEX
  8
0
  6
CONTINUOUS
 10
4.185720
 20
4.351600
  0
SEQEND
  8
0
  0
SOLID
  8
0
 62
    15
 10
4.220480
 20
4.339280
 11
4.224440
 21
5.092120
 12
4.255680
 22
4.320360
 13
4.259640
 23
5.073200
  0
POLYLINE
  8
0
  6
CONTINUOUS
 66
     1
 40
0.000000
 41
0.000000
  0
VERTEX
  8
0
  6
CONTINUOUS
 10
4.220480
 20
4.339280
  0
VERTEX
  8
0
  6
CONTINUOUS
 10
4.224440
 20
5.092120
  0
VERTEX
  8
0
  6
CONTINUOUS
 10
4.259640
 20
5.073200
  0
VERTEX
  8
0
  6
CONTINUOUS
 10
4.255680
 20
4.320360
  0
VERTEX
  8
0
  6
CONTINUOUS
 10
4.220480
 20
4.339280
  0
SEQEND
  8
0
  0
SOLID
  8
0
 62
    15
 10
4.255680
 20
4.320360
 11
4.259640
 21
5.073200
 12
4.291320
 22
4.294840
 13
4.295280
 23
5.047680
  0
POLYLINE
  8
0
  6
CONTINUOUS
 66
     1
 40
0.000000
 41
0.000000
  0
VERTEX
  8
0
  6
CONTINUOUS
 10
4.255680
 20
4.320360
  0
VERTEX
  8
0
  6
CONTINUOUS
 10
4.259640
 20
5.073200
  0
VERTEX
  8
0
  6
CONTINUOUS
 10
4.295280
 20
5.047680
  0
VERTEX
  8
0
  6
CONTINUOUS
 10
4.291320
 20
4.294840
  0
VERTEX
  8
0
  6
CONTINUOUS
 10
4.255680
 20
4.320360
  0
SEQEND
  8
0
  0
SOLID
  8
0
 62
    15
 10
4.291320
 20
4.294840
 11
4.295280
 21
5.047680
 12
4.326080
 22
4.262280
 13
4.330480
 23
5.015120
  0
POLYLINE
  8
0
  6
CONTINUOUS
 66
     1
 40
0.000000
 41
0.000000
  0
VERTEX
  8
0
  6
CONTINUOUS
 10
4.291320
 20
4.294840
  0
VERTEX
  8
0
  6
CONTINUOUS
 10
4.295280
 20
5.047680
  0
VERTEX
  8
0
  6
CONTINUOUS
 10
4.330480
 20
5.015120
  0
VERTEX
  8
0
  6
CONTINUOUS
 10
4.326080
 20
4.262280
  0
VERTEX
  8
0
  6
CONTINUOUS
 10
4.291320
 20
4.294840
  0
SEQEND
  8
0
  0
SOLID
  8
0
 62
    15
 10
4.326080
 20
4.262280
 11
4.330480
 21
5.015120
 12
4.360840
 22
4.222240
 13
4.364800
 23
4.974640
  0
POLYLINE
  8
0
  6
CONTINUOUS
 66
     1
 40
0.000000
 41
0.000000
  0
VERTEX
  8
0
  6
CONTINUOUS
 10
4.326080
 20
4.262280
  0
VERTEX
  8
0
  6
CONTINUOUS
 10
4.330480
 20
5.015120
  0
VERTEX
  8
0
  6
CONTINUOUS
 10
4.364800
 20
4.974640
  0
VERTEX
  8
0
  6
CONTINUOUS
 10
4.360840
 20
4.222240
  0
VERTEX
  8
0
  6
CONTINUOUS
 10
4.326080
 20
4.262280
  0
SEQEND
  8
0
  0
SOLID
  8
0
 62
    15
 10
4.360840
 20
4.222240
 11
4.364800
 21
4.974640
 12
4.394280
 22
4.173840
 13
4.398240
 23
4.926680
  0
POLYLINE
  8
0
  6
CONTINUOUS
 66
     1
 40
0.000000
 41
0.000000
  0
VERTEX
  8
0
  6
CONTINUOUS
 10
4.360840
 20
4.222240
  0
VERTEX
  8
0
  6
CONTINUOUS
 10
4.364800
 20
4.974640
  0
VERTEX
  8
0
  6
CONTINUOUS
 10
4.398240
 20
4.926680
  0
VERTEX
  8
0
  6
CONTINUOUS
 10
4.394280
 20
4.173840
  0
VERTEX
  8
0
  6
CONTINUOUS
 10
4.360840
 20
4.222240
  0
SEQEND
  8
0
  0
SOLID
  8
0
 62
    15
 10
4.394280
 20
4.173840
 11
4.398240
 21
4.926680
 12
4.425960
 22
4.117520
 13
4.429920
 23
4.870360
  0
POLYLINE
  8
0
  6
CONTINUOUS
 66
     1
 40
0.000000
 41
0.000000
  0
VERTEX
  8
0
  6
CONTINUOUS
 10
4.394280
 20
4.173840
  0
VERTEX
  8
0
  6
CONTINUOUS
 10
4.398240
 20
4.926680
  0
VERTEX
  8
0
  6
CONTINUOUS
 10
4.429920
 20
4.870360
  0
VERTEX
  8
0
  6
CONTINUOUS
 10
4.425960
 20
4.117520
  0
VERTEX
  8
0
  6
CONTINUOUS
 10
4.394280
 20
4.173840
  0
SEQEND
  8
0
  0
SOLID
  8
0
 62
    15
 10
4.425960
 20
4.117520
 11
4.429920
 21
4.870360
 12
4.455880
 22
4.052400
 13
4.459840
 23
4.805240
  0
POLYLINE
  8
0
  6
CONTINUOUS
 66
     1
 40
0.000000
 41
0.000000
  0
VERTEX
  8
0
  6
CONTINUOUS
 10
4.425960
 20
4.117520
  0
VERTEX
  8
0
  6
CONTINUOUS
 10
4.429920
 20
4.870360
  0
VERTEX
  8
0
  6
CONTINUOUS
 10
4.459840
 20
4.805240
  0
VERTEX
  8
0
  6
CONTINUOUS
 10
4.455880
 20
4.052400
  0
VERTEX
  8
0
  6
CONTINUOUS
 10
4.425960
 20
4.117520
  0
SEQEND
  8
0
  0
SOLID
  8
0
 62
    15
 10
4.455880
 20
4.052400
 11
4.459840
 21
4.805240
 12
4.473480
 22
4.052400
 13
4.477440
 23
4.805240
  0
POLYLINE
  8
0
  6
CONTINUOUS
 66
     1
 40
0.000000
 41
0.000000
  0
VERTEX
  8
0
  6
CONTINUOUS
 10
4.455880
 20
4.052400
  0
VERTEX
  8
0
  6
CONTINUOUS
 10
4.459840
 20
4.805240
  0
VERTEX
  8
0
  6
CONTINUOUS
 10
4.477440
 20
4.805240
  0
VERTEX
  8
0
  6
CONTINUOUS
 10
4.473480
 20
4.052400
  0
VERTEX
  8
0
  6
CONTINUOUS
 10
4.455880
 20
4.052400
  0
SEQEND
  8
0
  0
SOLID
  8
0
 62
    15
 10
4.473480
 20
4.052400
 11
4.477440
 21
4.805240
 12
4.483160
 22
4.075720
 13
4.487120
 23
4.828560
  0
POLYLINE
  8
0
  6
CONTINUOUS
 66
     1
 40
0.000000
 41
0.000000
  0
VERTEX
  8
0
  6
CONTINUOUS
 10
4.473480
 20
4.052400
  0
VERTEX
  8
0
  6
CONTINUOUS
 10
4.477440
 20
4.805240
  0
VERTEX
  8
0
  6
CONTINUOUS
 10
4.487120
 20
4.828560
  0
VERTEX
  8
0
  6
CONTINUOUS
 10
4.483160
 20
4.075720
  0
VERTEX
  8
0
  6
CONTINUOUS
 10
4.473480
 20
4.052400
  0
SEQEND
  8
0
  0
SOLID
  8
0
 62
    15
 10
4.483160
 20
4.075720
 11
4.487120
 21
4.828560
 12
4.494160
 22
4.095960
 13
4.498120
 23
4.848360
  0
POLYLINE
  8
0
  6
CONTINUOUS
 66
     1
 40
0.000000
 41
0.000000
  0
VERTEX
  8
0
  6
CONTINUOUS
 10
4.483160
 20
4.075720
  0
VERTEX
  8
0
  6
CONTINUOUS
 10
4.487120
 20
4.828560
  0
VERTEX
  8
0
  6
CONTINUOUS
 10
4.498120
 20
4.848360
  0
VERTEX
  8
0
  6
CONTINUOUS
 10
4.494160
 20
4.095960
  0
VERTEX
  8
0
  6
CONTINUOUS
 10
4.483160
 20
4.075720
  0
SEQEND
  8
0
  0
SOLID
  8
0
 62
    15
 10
4.494160
 20
4.095960
 11
4.498120
 21
4.848360
 12
4.506480
 22
4.112680
 13
4.510440
 23
4.865520
  0
POLYLINE
  8
0
  6
CONTINUOUS
 66
     1
 40
0.000000
 41
0.000000
  0
VERTEX
  8
0
  6
CONTINUOUS
 10
4.494160
 20
4.095960
  0
VERTEX
  8
0
  6
CONTINUOUS
 10
4.498120
 20
4.848360
  0
VERTEX
  8
0
  6
CONTINUOUS
 10
4.510440
 20
4.865520
  0
VERTEX
  8
0
  6
CONTINUOUS
 10
4.506480
 20
4.112680
  0
VERTEX
  8
0
  6
CONTINUOUS
 10
4.494160
 20
4.095960
  0
SEQEND
  8
0
  0
SOLID
  8
0
 62
    15
 10
4.506480
 20
4.112680
 11
4.510440
 21
4.865520
 12
4.519240
 22
4.126320
 13
4.523640
 23
4.879160
  0
POLYLINE
  8
0
  6
CONTINUOUS
 66
     1
 40
0.000000
 41
0.000000
  0
VERTEX
  8
0
  6
CONTINUOUS
 10
4.506480
 20
4.112680
  0
VERTEX
  8
0
  6
CONTINUOUS
 10
4.510440
 20
4.865520
  0
VERTEX
  8
0
  6
CONTINUOUS
 10
4.523640
 20
4.879160
  0
VERTEX
  8
0
  6
CONTINUOUS
 10
4.519240
 20
4.126320
  0
VERTEX
  8
0
  6
CONTINUOUS
 10
4.506480
 20
4.112680
  0
SEQEND
  8
0
  0
SOLID
  8
0
 62
    15
 10
3.896640
 20
4.263160
 11
3.901040
 21
5.015560
 12
3.976720
 22
4.263160
 13
3.980680
 23
5.015560
  0
POLYLINE
  8
0
  6
CONTINUOUS
 66
     1
 40
0.000000
 41
0.000000
  0
VERTEX
  8
0
  6
CONTINUOUS
 10
3.896640
 20
4.263160
  0
VERTEX
  8
0
  6
CONTINUOUS
 10
3.901040
 20
5.015560
  0
VERTEX
  8
0
  6
CONTINUOUS
 10
3.980680
 20
5.015560
  0
VERTEX
  8
0
  6
CONTINUOUS
 10
3.976720
 20
4.263160
  0
VERTEX
  8
0
  6
CONTINUOUS
 10
3.896640
 20
4.263160
  0
SEQEND
  8
0
  0
SOLID
  8
0
 62
    15
 10
4.533320
 20
4.136880
 11
4.537720
 21
4.889280
 12
4.547840
 22
4.143920
 13
4.552240
 23
4.896760
  0
POLYLINE
  8
0
  6
CONTINUOUS
 66
     1
 40
0.000000
 41
0.000000
  0
VERTEX
  8
0
  6
CONTINUOUS
 10
4.533320
 20
4.136880
  0
VERTEX
  8
0
  6
CONTINUOUS
 10
4.537720
 20
4.889280
  0
VERTEX
  8
0
  6
CONTINUOUS
 10
4.552240
 20
4.896760
  0
VERTEX
  8
0
  6
CONTINUOUS
 10
4.547840
 20
4.143920
  0
VERTEX
  8
0
  6
CONTINUOUS
 10
4.533320
 20
4.136880
  0
SEQEND
  8
0
  0
SOLID
  8
0
 62
    15
 10
4.547840
 20
4.143920
 11
4.552240
 21
4.896760
 12
4.562800
 22
4.147880
 13
4.566760
 23
4.900280
  0
POLYLINE
  8
0
  6
CONTINUOUS
 66
     1
 40
0.000000
 41
0.000000
  0
VERTEX
  8
0
  6
CONTINUOUS
 10
4.547840
 20
4.143920
  0
VERTEX
  8
0
  6
CONTINUOUS
 10
4.552240
 20
4.896760
  0
VERTEX
  8
0
  6
CONTINUOUS
 10
4.566760
 20
4.900280
  0
VERTEX
  8
0
  6
CONTINUOUS
 10
4.562800
 20
4.147880
  0
VERTEX
  8
0
  6
CONTINUOUS
 10
4.547840
 20
4.143920
  0
SEQEND
  8
0
  0
SOLID
  8
0
 62
    15
 10
4.562800
 20
4.147880
 11
4.566760
 21
4.900280
 12
4.577760
 22
4.148760
 13
4.582160
 23
4.901160
  0
POLYLINE
  8
0
  6
CONTINUOUS
 66
     1
 40
0.000000
 41
0.000000
  0
VERTEX
  8
0
  6
CONTINUOUS
 10
4.562800
 20
4.147880
  0
VERTEX
  8
0
  6
CONTINUOUS
 10
4.566760
 20
4.900280
  0
VERTEX
  8
0
  6
CONTINUOUS
 10
4.582160
 20
4.901160
  0
VERTEX
  8
0
  6
CONTINUOUS
 10
4.577760
 20
4.148760
  0
VERTEX
  8
0
  6
CONTINUOUS
 10
4.562800
 20
4.147880
  0
SEQEND
  8
0
  0
SOLID
  8
0
 62
    15
 10
4.577760
 20
4.148760
 11
4.582160
 21
4.901160
 12
4.593160
 22
4.146120
 13
4.597120
 23
4.898960
  0
POLYLINE
  8
0
  6
CONTINUOUS
 66
     1
 40
0.000000
 41
0.000000
  0
VERTEX
  8
0
  6
CONTINUOUS
 10
4.577760
 20
4.148760
  0
VERTEX
  8
0
  6
CONTINUOUS
 10
4.582160
 20
4.901160
  0
VERTEX
  8
0
  6
CONTINUOUS
 10
4.597120
 20
4.898960
  0
VERTEX
  8
0
  6
CONTINUOUS
 10
4.593160
 20
4.146120
  0
VERTEX
  8
0
  6
CONTINUOUS
 10
4.577760
 20
4.148760
  0
SEQEND
  8
0
  0
SOLID
  8
0
 62
    15
 10
4.593160
 20
4.146120
 11
4.597120
 21
4.898960
 12
4.607680
 22
4.140400
 13
4.612080
 23
4.892800
  0
POLYLINE
  8
0
  6
CONTINUOUS
 66
     1
 40
0.000000
 41
0.000000
  0
VERTEX
  8
0
  6
CONTINUOUS
 10
4.593160
 20
4.146120
  0
VERTEX
  8
0
  6
CONTINUOUS
 10
4.597120
 20
4.898960
  0
VERTEX
  8
0
  6
CONTINUOUS
 10
4.612080
 20
4.892800
  0
VERTEX
  8
0
  6
CONTINUOUS
 10
4.607680
 20
4.140400
  0
VERTEX
  8
0
  6
CONTINUOUS
 10
4.593160
 20
4.146120
  0
SEQEND
  8
0
  0
SOLID
  8
0
 62
    15
 10
4.607680
 20
4.140400
 11
4.612080
 21
4.892800
 12
4.622200
 22
4.131600
 13
4.626160
 23
4.884000
  0
POLYLINE
  8
0
  6
CONTINUOUS
 66
     1
 40
0.000000
 41
0.000000
  0
VERTEX
  8
0
  6
CONTINUOUS
 10
4.607680
 20
4.140400
  0
VERTEX
  8
0
  6
CONTINUOUS
 10
4.612080
 20
4.892800
  0
VERTEX
  8
0
  6
CONTINUOUS
 10
4.626160
 20
4.884000
  0
VERTEX
  8
0
  6
CONTINUOUS
 10
4.622200
 20
4.131600
  0
VERTEX
  8
0
  6
CONTINUOUS
 10
4.607680
 20
4.140400
  0
SEQEND
  8
0
  0
SOLID
  8
0
 62
    15
 10
4.622200
 20
4.131600
 11
4.626160
 21
4.884000
 12
4.635840
 22
4.119280
 13
4.640240
 23
4.871680
  0
POLYLINE
  8
0
  6
CONTINUOUS
 66
     1
 40
0.000000
 41
0.000000
  0
VERTEX
  8
0
  6
CONTINUOUS
 10
4.622200
 20
4.131600
  0
VERTEX
  8
0
  6
CONTINUOUS
 10
4.626160
 20
4.884000
  0
VERTEX
  8
0
  6
CONTINUOUS
 10
4.640240
 20
4.871680
  0
VERTEX
  8
0
  6
CONTINUOUS
 10
4.635840
 20
4.119280
  0
VERTEX
  8
0
  6
CONTINUOUS
 10
4.622200
 20
4.131600
  0
SEQEND
  8
0
  0
SOLID
  8
0
 62
    15
 10
4.635840
 20
4.119280
 11
4.640240
 21
4.871680
 12
4.649040
 22
4.103880
 13
4.653000
 23
4.856280
  0
POLYLINE
  8
0
  6
CONTINUOUS
 66
     1
 40
0.000000
 41
0.000000
  0
VERTEX
  8
0
  6
CONTINUOUS
 10
4.635840
 20
4.119280
  0
VERTEX
  8
0
  6
CONTINUOUS
 10
4.640240
 20
4.871680
  0
VERTEX
  8
0
  6
CONTINUOUS
 10
4.653000
 20
4.856280
  0
VERTEX
  8
0
  6
CONTINUOUS
 10
4.649040
 20
4.103880
  0
VERTEX
  8
0
  6
CONTINUOUS
 10
4.635840
 20
4.119280
  0
SEQEND
  8
0
  0
SOLID
  8
0
 62
    15
 10
4.649040
 20
4.103880
 11
4.653000
 21
4.856280
 12
4.660920
 22
4.084960
 13
4.664880
 23
4.837800
  0
POLYLINE
  8
0
  6
CONTINUOUS
 66
     1
 40
0.000000
 41
0.000000
  0
VERTEX
  8
0
  6
CONTINUOUS
 10
4.649040
 20
4.103880
  0
VERTEX
  8
0
  6
CONTINUOUS
 10
4.653000
 20
4.856280
  0
VERTEX
  8
0
  6
CONTINUOUS
 10
4.664880
 20
4.837800
  0
VERTEX
  8
0
  6
CONTINUOUS
 10
4.660920
 20
4.084960
  0
VERTEX
  8
0
  6
CONTINUOUS
 10
4.649040
 20
4.103880
  0
SEQEND
  8
0
  0
SOLID
  8
0
 62
    15
 10
4.660920
 20
4.084960
 11
4.664880
 21
4.837800
 12
4.671480
 22
4.062960
 13
4.675880
 23
4.815800
  0
POLYLINE
  8
0
  6
CONTINUOUS
 66
     1
 40
0.000000
 41
0.000000
  0
VERTEX
  8
0
  6
CONTINUOUS
 10
4.660920
 20
4.084960
  0
VERTEX
  8
0
  6
CONTINUOUS
 10
4.664880
 20
4.837800
  0
VERTEX
  8
0
  6
CONTINUOUS
 10
4.675880
 20
4.815800
  0
VERTEX
  8
0
  6
CONTINUOUS
 10
4.671480
 20
4.062960
  0
VERTEX
  8
0
  6
CONTINUOUS
 10
4.660920
 20
4.084960
  0
SEQEND
  8
0
  0
SOLID
  8
0
 62
    15
 10
4.671480
 20
4.062960
 11
4.675880
 21
4.815800
 12
4.680720
 22
4.037880
 13
4.685120
 23
4.790720
  0
POLYLINE
  8
0
  6
CONTINUOUS
 66
     1
 40
0.000000
 41
0.000000
  0
VERTEX
  8
0
  6
CONTINUOUS
 10
4.671480
 20
4.062960
  0
VERTEX
  8
0
  6
CONTINUOUS
 10
4.675880
 20
4.815800
  0
VERTEX
  8
0
  6
CONTINUOUS
 10
4.685120
 20
4.790720
  0
VERTEX
  8
0
  6
CONTINUOUS
 10
4.680720
 20
4.037880
  0
VERTEX
  8
0
  6
CONTINUOUS
 10
4.671480
 20
4.062960
  0
SEQEND
  8
0
  0
SOLID
  8
0
 62
    15
 10
4.680720
 20
4.037880
 11
4.685120
 21
4.790720
 12
4.740120
 22
4.037880
 13
4.744080
 23
4.790720
  0
POLYLINE
  8
0
  6
CONTINUOUS
 66
     1
 40
0.000000
 41
0.000000
  0
VERTEX
  8
0
  6
CONTINUOUS
 10
4.680720
 20
4.037880
  0
VERTEX
  8
0
  6
CONTINUOUS
 10
4.685120
 20
4.790720
  0
VERTEX
  8
0
  6
CONTINUOUS
 10
4.744080
 20
4.790720
  0
VERTEX
  8
0
  6
CONTINUOUS
 10
4.740120
 20
4.037880
  0
VERTEX
  8
0
  6
CONTINUOUS
 10
4.680720
 20
4.037880
  0
SEQEND
  8
0
  0
SOLID
  8
0
 62
    15
 10
4.740120
 20
4.037880
 11
4.744080
 21
4.790720
 12
4.741440
 22
4.021160
 13
4.745400
 23
4.774000
  0
POLYLINE
  8
0
  6
CONTINUOUS
 66
     1
 40
0.000000
 41
0.000000
  0
VERTEX
  8
0
  6
CONTINUOUS
 10
4.740120
 20
4.037880
  0
VERTEX
  8
0
  6
CONTINUOUS
 10
4.744080
 20
4.790720
  0
VERTEX
  8
0
  6
CONTINUOUS
 10
4.745400
 20
4.774000
  0
VERTEX
  8
0
  6
CONTINUOUS
 10
4.741440
 20
4.021160
  0
VERTEX
  8
0
  6
CONTINUOUS
 10
4.740120
 20
4.037880
  0
SEQEND
  8
0
  0
SOLID
  8
0
 62
    15
 10
4.741440
 20
4.021160
 11
4.745400
 21
4.774000
 12
4.746280
 22
4.003120
 13
4.750240
 23
4.755520
  0
POLYLINE
  8
0
  6
CONTINUOUS
 66
     1
 40
0.000000
 41
0.000000
  0
VERTEX
  8
0
  6
CONTINUOUS
 10
4.741440
 20
4.021160
  0
VERTEX
  8
0
  6
CONTINUOUS
 10
4.745400
 20
4.774000
  0
VERTEX
  8
0
  6
CONTINUOUS
 10
4.750240
 20
4.755520
  0
VERTEX
  8
0
  6
CONTINUOUS
 10
4.746280
 20
4.003120
  0
VERTEX
  8
0
  6
CONTINUOUS
 10
4.741440
 20
4.021160
  0
SEQEND
  8
0
  0
SOLID
  8
0
 62
    15
 10
4.746280
 20
4.003120
 11
4.750240
 21
4.755520
 12
4.753760
 22
3.984200
 13
4.758160
 23
4.737040
  0
POLYLINE
  8
0
  6
CONTINUOUS
 66
     1
 40
0.000000
 41
0.000000
  0
VERTEX
  8
0
  6
CONTINUOUS
 10
4.746280
 20
4.003120
  0
VERTEX
  8
0
  6
CONTINUOUS
 10
4.750240
 20
4.755520
  0
VERTEX
  8
0
  6
CONTINUOUS
 10
4.758160
 20
4.737040
  0
VERTEX
  8
0
  6
CONTINUOUS
 10
4.753760
 20
3.984200
  0
VERTEX
  8
0
  6
CONTINUOUS
 10
4.746280
 20
4.003120
  0
SEQEND
  8
0
  0
SOLID
  8
0
 62
    15
 10
4.753760
 20
3.984200
 11
4.758160
 21
4.737040
 12
4.764760
 22
3.966160
 13
4.769160
 23
4.718560
  0
POLYLINE
  8
0
  6
CONTINUOUS
 66
     1
 40
0.000000
 41
0.000000
  0
VERTEX
  8
0
  6
CONTINUOUS
 10
4.753760
 20
3.984200
  0
VERTEX
  8
0
  6
CONTINUOUS
 10
4.758160
 20
4.737040
  0
VERTEX
  8
0
  6
CONTINUOUS
 10
4.769160
 20
4.718560
  0
VERTEX
  8
0
  6
CONTINUOUS
 10
4.764760
 20
3.966160
  0
VERTEX
  8
0
  6
CONTINUOUS
 10
4.753760
 20
3.984200
  0
SEQEND
  8
0
  0
SOLID
  8
0
 62
    15
 10
4.764760
 20
3.966160
 11
4.769160
 21
4.718560
 12
4.778840
 22
3.949000
 13
4.782800
 23
4.701400
  0
POLYLINE
  8
0
  6
CONTINUOUS
 66
     1
 40
0.000000
 41
0.000000
  0
VERTEX
  8
0
  6
CONTINUOUS
 10
4.764760
 20
3.966160
  0
VERTEX
  8
0
  6
CONTINUOUS
 10
4.769160
 20
4.718560
  0
VERTEX
  8
0
  6
CONTINUOUS
 10
4.782800
 20
4.701400
  0
VERTEX
  8
0
  6
CONTINUOUS
 10
4.778840
 20
3.949000
  0
VERTEX
  8
0
  6
CONTINUOUS
 10
4.764760
 20
3.966160
  0
SEQEND
  8
0
  0
SOLID
  8
0
 62
    15
 10
4.778840
 20
3.949000
 11
4.782800
 21
4.701400
 12
4.796000
 22
3.933600
 13
4.799960
 23
4.686440
  0
POLYLINE
  8
0
  6
CONTINUOUS
 66
     1
 40
0.000000
 41
0.000000
  0
VERTEX
  8
0
  6
CONTINUOUS
 10
4.778840
 20
3.949000
  0
VERTEX
  8
0
  6
CONTINUOUS
 10
4.782800
 20
4.701400
  0
VERTEX
  8
0
  6
CONTINUOUS
 10
4.799960
 20
4.686440
  0
VERTEX
  8
0
  6
CONTINUOUS
 10
4.796000
 20
3.933600
  0
VERTEX
  8
0
  6
CONTINUOUS
 10
4.778840
 20
3.949000
  0
SEQEND
  8
0
  0
SOLID
  8
0
 62
    15
 10
4.796000
 20
3.933600
 11
4.799960
 21
4.686440
 12
4.815800
 22
3.921280
 13
4.820200
 23
4.674120
  0
POLYLINE
  8
0
  6
CONTINUOUS
 66
     1
 40
0.000000
 41
0.000000
  0
VERTEX
  8
0
  6
CONTINUOUS
 10
4.796000
 20
3.933600
  0
VERTEX
  8
0
  6
CONTINUOUS
 10
4.799960
 20
4.686440
  0
VERTEX
  8
0
  6
CONTINUOUS
 10
4.820200
 20
4.674120
  0
VERTEX
  8
0
  6
CONTINUOUS
 10
4.815800
 20
3.921280
  0
VERTEX
  8
0
  6
CONTINUOUS
 10
4.796000
 20
3.933600
  0
SEQEND
  8
0
  0
SOLID
  8
0
 62
    15
 10
4.839120
 20
3.912920
 11
4.843080
 21
4.665320
 12
4.839120
 22
3.825800
 13
4.843080
 23
4.578640
  0
POLYLINE
  8
0
  6
CONTINUOUS
 66
     1
 40
0.000000
 41
0.000000
  0
VERTEX
  8
0
  6
CONTINUOUS
 10
4.839120
 20
3.912920
  0
VERTEX
  8
0
  6
CONTINUOUS
 10
4.843080
 20
4.665320
  0
VERTEX
  8
0
  6
CONTINUOUS
 10
4.843080
 20
4.578640
  0
VERTEX
  8
0
  6
CONTINUOUS
 10
4.839120
 20
3.825800
  0
VERTEX
  8
0
  6
CONTINUOUS
 10
4.839120
 20
3.912920
  0
SEQEND
  8
0
  0
SOLID
  8
0
 62
     7
 10
4.815800
 20
3.921280
 11
4.820200
 21
4.674120
 12
4.839120
 22
3.912920
 13
4.843080
 23
4.665320
  0
POLYLINE
  8
0
  6
CONTINUOUS
 66
     1
 40
0.000000
 41
0.000000
  0
VERTEX
  8
0
  6
CONTINUOUS
 10
4.815800
 20
3.921280
  0
VERTEX
  8
0
  6
CONTINUOUS
 10
4.820200
 20
4.674120
  0
VERTEX
  8
0
  6
CONTINUOUS
 10
4.843080
 20
4.665320
  0
VERTEX
  8
0
  6
CONTINUOUS
 10
4.839120
 20
3.912920
  0
VERTEX
  8
0
  6
CONTINUOUS
 10
4.815800
 20
3.921280
  0
SEQEND
  8
0
  0
SOLID
  8
0
 62
    15
 10
4.839120
 20
3.825800
 11
4.843080
 21
4.578640
 12
4.839120
 22
3.825360
 13
4.843080
 23
4.577760
  0
POLYLINE
  8
0
  6
CONTINUOUS
 66
     1
 40
0.000000
 41
0.000000
  0
VERTEX
  8
0
  6
CONTINUOUS
 10
4.839120
 20
3.825800
  0
VERTEX
  8
0
  6
CONTINUOUS
 10
4.843080
 20
4.578640
  0
VERTEX
  8
0
  6
CONTINUOUS
 10
4.843080
 20
4.577760
  0
VERTEX
  8
0
  6
CONTINUOUS
 10
4.839120
 20
3.825360
  0
VERTEX
  8
0
  6
CONTINUOUS
 10
4.839120
 20
3.825800
  0
SEQEND
  8
0
  0
POLYLINE
  8
0
  6
CONTINUOUS
 66
     1
 40
0.000000
 41
0.000000
  0
VERTEX
  8
0
  6
CONTINUOUS
 10
4.839120
 20
3.825360
  0
VERTEX
  8
0
  6
CONTINUOUS
 10
3.896640
 20
3.825360
  0
VERTEX
  8
0
  6
CONTINUOUS
 10
3.896640
 20
4.263160
  0
VERTEX
  8
0
  6
CONTINUOUS
 10
3.976720
 20
4.263160
  0
VERTEX
  8
0
  6
CONTINUOUS
 10
3.992120
 20
4.288680
  0
VERTEX
  8
0
  6
CONTINUOUS
 10
4.011480
 20
4.311120
  0
VERTEX
  8
0
  6
CONTINUOUS
 10
4.034360
 20
4.329600
  0
VERTEX
  8
0
  6
CONTINUOUS
 10
4.060320
 20
4.344120
  0
VERTEX
  8
0
  6
CONTINUOUS
 10
4.088920
 20
4.353800
  0
VERTEX
  8
0
  6
CONTINUOUS
 10
4.119280
 20
4.358200
  0
VERTEX
  8
0
  6
CONTINUOUS
 10
4.151840
 20
4.357760
  0
VERTEX
  8
0
  6
CONTINUOUS
 10
4.185720
 20
4.351600
  0
VERTEX
  8
0
  6
CONTINUOUS
 10
4.220480
 20
4.339280
  0
VERTEX
  8
0
  6
CONTINUOUS
 10
4.255680
 20
4.320360
  0
VERTEX
  8
0
  6
CONTINUOUS
 10
4.291320
 20
4.294840
  0
VERTEX
  8
0
  6
CONTINUOUS
 10
4.326080
 20
4.262280
  0
VERTEX
  8
0
  6
CONTINUOUS
 10
4.360840
 20
4.222240
  0
VERTEX
  8
0
  6
CONTINUOUS
 10
4.394280
 20
4.173840
  0
VERTEX
  8
0
  6
CONTINUOUS
 10
4.425960
 20
4.117520
  0
VERTEX
  8
0
  6
CONTINUOUS
 10
4.455880
 20
4.052400
  0
VERTEX
  8
0
  6
CONTINUOUS
 10
4.473480
 20
4.052400
  0
VERTEX
  8
0
  6
CONTINUOUS
 10
4.483160
 20
4.075720
  0
VERTEX
  8
0
  6
CONTINUOUS
 10
4.494160
 20
4.095960
  0
VERTEX
  8
0
  6
CONTINUOUS
 10
4.506480
 20
4.112680
  0
VERTEX
  8
0
  6
CONTINUOUS
 10
4.519240
 20
4.126320
  0
VERTEX
  8
0
  6
CONTINUOUS
 10
4.533320
 20
4.136880
  0
VERTEX
  8
0
  6
CONTINUOUS
 10
4.547840
 20
4.143920
  0
VERTEX
  8
0
  6
CONTINUOUS
 10
4.562800
 20
4.147880
  0
VERTEX
  8
0
  6
CONTINUOUS
 10
4.577760
 20
4.148760
  0
VERTEX
  8
0
  6
CONTINUOUS
 10
4.593160
 20
4.146120
  0
VERTEX
  8
0
  6
CONTINUOUS
 10
4.607680
 20
4.140400
  0
VERTEX
  8
0
  6
CONTINUOUS
 10
4.622200
 20
4.131600
  0
VERTEX
  8
0
  6
CONTINUOUS
 10
4.635840
 20
4.119280
  0
VERTEX
  8
0
  6
CONTINUOUS
 10
4.649040
 20
4.103880
  0
VERTEX
  8
0
  6
CONTINUOUS
 10
4.660920
 20
4.084960
  0
VERTEX
  8
0
  6
CONTINUOUS
 10
4.671480
 20
4.062960
  0
VERTEX
  8
0
  6
CONTINUOUS
 10
4.680720
 20
4.037880
  0
VERTEX
  8
0
  6
CONTINUOUS
 10
4.740120
 20
4.037880
  0
VERTEX
  8
0
  6
CONTINUOUS
 10
4.741440
 20
4.021160
  0
VERTEX
  8
0
  6
CONTINUOUS
 10
4.746280
 20
4.003120
  0
VERTEX
  8
0
  6
CONTINUOUS
 10
4.753760
 20
3.984200
  0
VERTEX
  8
0
  6
CONTINUOUS
 10
4.764760
 20
3.966160
  0
VERTEX
  8
0
  6
CONTINUOUS
 10
4.778840
 20
3.949000
  0
VERTEX
  8
0
  6
CONTINUOUS
 10
4.796000
 20
3.933600
  0
VERTEX
  8
0
  6
CONTINUOUS
 10
4.815800
 20
3.921280
  0
VERTEX
  8
0
  6
CONTINUOUS
 10
4.839120
 20
3.912920
  0
VERTEX
  8
0
  6
CONTINUOUS
 10
4.839120
 20
3.825800
  0
VERTEX
  8
0
  6
CONTINUOUS
 10
4.839120
 20
3.825360
  0
SEQEND
  8
0
  0
TEXT
  8
0
 10
4.027760
 20
3.599200
 40
0.138135
  1
BA  1114
 41
1.000000
  7
SN0
 71
     0
 72
     5
 11
4.710243
 21
3.599200
  0
TEXT
  8
0
 10
3.991680
 20
3.407360
 40
0.138135
  1
1/2" x 7/8"
 41
1.000000
  7
SN0
 71
     0
 72
     5
 11
4.745116
 21
3.407360
  0
POLYLINE
  8
0
  6
CONTINUOUS
 66
     1
 40
0.014080
 41
0.014080
  0
VERTEX
  8
0
  6
CONTINUOUS
 10
6.224240
 20
3.838560
  0
VERTEX
  8
0
  6
CONTINUOUS
 10
5.281760
 20
3.838560
  0
VERTEX
  8
0
  6
CONTINUOUS
 10
5.281760
 20
4.276360
  0
VERTEX
  8
0
  6
CONTINUOUS
 10
5.361840
 20
4.276360
  0
VERTEX
  8
0
  6
CONTINUOUS
 10
5.377240
 20
4.302320
  0
VERTEX
  8
0
  6
CONTINUOUS
 10
5.396600
 20
4.324320
  0
VERTEX
  8
0
  6
CONTINUOUS
 10
5.419480
 20
4.342800
  0
VERTEX
  8
0
  6
CONTINUOUS
 10
5.445440
 20
4.357320
  0
VERTEX
  8
0
  6
CONTINUOUS
 10
5.474040
 20
4.367000
  0
VERTEX
  8
0
  6
CONTINUOUS
 10
5.504400
 20
4.371840
  0
VERTEX
  8
0
  6
CONTINUOUS
 10
5.520680
 20
4.372280
  0
VERTEX
  8
0
  6
CONTINUOUS
 10
5.553680
 20
4.368760
  0
VERTEX
  8
0
  6
CONTINUOUS
 10
5.588000
 20
4.359520
  0
VERTEX
  8
0
  6
CONTINUOUS
 10
5.623200
 20
4.344120
  0
VERTEX
  8
0
  6
CONTINUOUS
 10
5.658400
 20
4.322120
  0
VERTEX
  8
0
  6
CONTINUOUS
 10
5.694040
 20
4.293080
  0
VERTEX
  8
0
  6
CONTINUOUS
 10
5.728800
 20
4.256560
  0
VERTEX
  8
0
  6
CONTINUOUS
 10
5.762680
 20
4.212560
  0
VERTEX
  8
0
  6
CONTINUOUS
 10
5.779400
 20
4.187480
  0
VERTEX
  8
0
  6
CONTINUOUS
 10
5.811080
 20
4.131160
  0
VERTEX
  8
0
  6
CONTINUOUS
 10
5.841000
 20
4.066040
  0
VERTEX
  8
0
  6
CONTINUOUS
 10
5.858600
 20
4.066040
  0
VERTEX
  8
0
  6
CONTINUOUS
 10
5.873560
 20
4.099480
  0
VERTEX
  8
0
  6
CONTINUOUS
 10
5.891160
 20
4.126320
  0
VERTEX
  8
0
  6
CONTINUOUS
 10
5.904360
 20
4.139960
  0
VERTEX
  8
0
  6
CONTINUOUS
 10
5.925480
 20
4.154040
  0
VERTEX
  8
0
  6
CONTINUOUS
 10
5.940440
 20
4.159760
  0
VERTEX
  8
0
  6
CONTINUOUS
 10
5.955400
 20
4.161960
  0
VERTEX
  8
0
  6
CONTINUOUS
 10
5.970800
 20
4.161080
  0
VERTEX
  8
0
  6
CONTINUOUS
 10
5.985760
 20
4.157120
  0
VERTEX
  8
0
  6
CONTINUOUS
 10
6.007320
 20
4.144800
  0
VERTEX
  8
0
  6
CONTINUOUS
 10
6.027560
 20
4.125440
  0
VERTEX
  8
0
  6
CONTINUOUS
 10
6.040320
 20
4.108280
  0
VERTEX
  8
0
  6
CONTINUOUS
 10
6.056600
 20
4.076600
  0
VERTEX
  8
0
  6
CONTINUOUS
 10
6.065840
 20
4.051520
  0
VERTEX
  8
0
  6
CONTINUOUS
 10
6.125240
 20
4.051520
  0
VERTEX
  8
0
  6
CONTINUOUS
 10
6.128760
 20
4.025560
  0
VERTEX
  8
0
  6
CONTINUOUS
 10
6.139320
 20
3.997840
  0
VERTEX
  8
0
  6
CONTINUOUS
 10
6.150320
 20
3.979360
  0
VERTEX
  8
0
  6
CONTINUOUS
 10
6.163960
 20
3.962200
  0
VERTEX
  8
0
  6
CONTINUOUS
 10
6.181120
 20
3.947240
  0
VERTEX
  8
0
  6
CONTINUOUS
 10
6.201360
 20
3.934920
  0
VERTEX
  8
0
  6
CONTINUOUS
 10
6.224240
 20
3.926120
  0
VERTEX
  8
0
  6
CONTINUOUS
 10
6.224240
 20
3.839440
  0
SEQEND
  8
0
  0
TEXT
  8
0
 10
5.426080
 20
3.614160
 40
0.138135
  1
BA  1114
 41
1.000000
  7
SN0
 71
     0
 72
     5
 11
6.108563
 21
3.614160
  0
TEXT
  8
0
 10
5.390440
 20
3.422320
 40
0.138135
  1
1/2" x 7/8"
 41
1.000000
  7
SN0
 71
     0
 72
     5
 11
6.143876
 21
3.422320
  0
ENDSEC
  0
EOF
