  0
SECTION
  2
HEADER
  9
$ACADVER
  1
AC1006
  9
$EXTMIN
 10
3.635280
 20
0.505560
  9
$EXTMAX
 10
7.212920
 20
4.932400
  9
$LTSCALE
 40
0.044000
  9
$PDMODE
 70
    35
  9
$PDSIZE
 40
0.035200
  0
ENDSEC
  0
SECTION
  2
TABLES
  0
TABLE
  2
LTYPE
 70
     9
  0
LTYPE
  2
CONTINUOUS
 70
    64
  3
Solid line
 72
    65
 73
     0
 40
0.000000
  0
LTYPE
  2
DASHED
 70
    64
  3
__ __ __ __ __ __ __ __ __ __ __ __ __ __ __
 72
    65
 73
     2
 40
0.000330
 49
0.000220
 49
-0.000110
  0
LTYPE
  2
HIDDEN
 70
    64
  3
 _ _ _ _ _ _ _ _ _ _ _ _ _ _ _ _ _ _ _ _ _ _
 72
    65
 73
     2
 40
0.000165
 49
0.000110
 49
-0.000055
  0
LTYPE
  2
CENTER
 70
    64
  3
____ _ ____ _ ____ _ ____ _ ____ _ ____ _ ____
 72
    65
 73
     4
 40
0.000880
 49
0.000550
 49
-0.000110
 49
0.000110
 49
-0.000110
  0
LTYPE
  2
PHANTOM
 70
    64
  3
_____ _ _ _____ _ _ _____ _ _ _____ _ _ ____
 72
    65
 73
     6
 40
0.001100
 49
0.000550
 49
-0.000110
 49
0.000110
 49
-0.000110
 49
0.000110
 49
-0.000110
  0
LTYPE
  2
DOT
 70
    64
  3
...............................................
 72
    65
 73
     2
 40
0.000110
 49
0.000000
 49
-0.000110
  0
LTYPE
  2
DASHDOT
 70
    64
  3
__ . __ . __ . __ . __ . __ . __ . __ . __ . __
 72
    65
 73
     4
 40
0.000440
 49
0.000220
 49
-0.000110
 49
0.000000
 49
-0.000110
  0
LTYPE
  2
BORDER
 70
    64
  3
__ __ . __ __ . __ __ . __ __ . __ __ . __ __
 72
    65
 73
     6
 40
0.000770
 49
0.000220
 49
-0.000110
 49
0.000220
 49
-0.000110
 49
0.000000
 49
-0.000110
  0
LTYPE
  2
DIVIDE
 70
    64
  3
__ . . __ . . __ . . __ . . __ . . __ . . __
 72
    65
 73
     6
 40
0.000550
 49
0.000220
 49
-0.000110
 49
0.000000
 49
-0.000110
 49
0.000000
 49
-0.000110
  0
LTYPE
  2
DOTDOT
 70
    64
  3
 . .  . .  . .  . .  . .  . . 
 72
    65
 73
     5
 40
0.000242
 49
-0.000110
 49
0.000000
 49
-0.000110
 49
0.000000
 49
-0.000110
  0
ENDTAB
  0
TABLE
  2
STYLE
 70
     2
  0
STYLE
 70
     0
  2
SN0
 40
0.000000
 41
0.000440
 50
0.000000
 71
     0
 42
0.000000
  3
ROMAND
  0
STYLE
 70
    68
  2
SV0
 40
0.000000
 41
0.000440
 50
0.000000
 71
     0
 42
0.000000
  3
ROMAND
  0
ENDTAB
  0
TABLE
  2
LAYER
 70
     3
  0
LAYER
  2
FOREGROUND
 70
    64
 62
     7
  6
CONTINUOUS
  0
LAYER
  2
BACKGROUND
 70
    65
 62
    -7
  6
CONTINUOUS
  0
LAYER
  2
0
 70
    64
 62
     7
  6
CONTINUOUS
  0
ENDTAB
  0
ENDSEC
  0
SECTION
  2
ENTITIES
  0
POLYLINE
  8
FOREGROUND
  6
CONTINUOUS
 66
     1
 40
0.000000
 41
0.000000
  0
VERTEX
  8
FOREGROUND
  6
CONTINUOUS
 10
0.000000
 20
5.437960
  0
VERTEX
  8
FOREGROUND
  6
CONTINUOUS
 10
8.499920
 20
5.437960
  0
VERTEX
  8
FOREGROUND
  6
CONTINUOUS
 10
8.499920
 20
-5.562040
  0
VERTEX
  8
FOREGROUND
  6
CONTINUOUS
 10
0.000000
 20
-5.562040
  0
VERTEX
  8
FOREGROUND
  6
CONTINUOUS
 10
0.000000
 20
5.437960
  0
SEQEND
  8
0
  0
POLYLINE
  8
FOREGROUND
  6
CONTINUOUS
 66
     1
 40
0.000000
 41
0.000000
  0
VERTEX
  8
FOREGROUND
  6
CONTINUOUS
 10
0.000000
 20
5.437960
  0
VERTEX
  8
FOREGROUND
  6
CONTINUOUS
 10
8.499920
 20
5.437960
  0
VERTEX
  8
FOREGROUND
  6
CONTINUOUS
 10
8.499920
 20
-5.562040
  0
VERTEX
  8
FOREGROUND
  6
CONTINUOUS
 10
0.000000
 20
-5.562040
  0
VERTEX
  8
FOREGROUND
  6
CONTINUOUS
 10
0.000000
 20
5.437960
  0
SEQEND
  8
0
  0
POLYLINE
  8
0
  6
CONTINUOUS
 66
     1
 40
0.000000
 41
0.000000
  0
VERTEX
  8
0
  6
CONTINUOUS
 10
4.875640
 20
0.505560
  0
VERTEX
  8
0
  6
CONTINUOUS
 10
4.248640
 20
0.505560
  0
VERTEX
  8
0
  6
CONTINUOUS
 10
4.248640
 20
2.027080
  0
VERTEX
  8
0
  6
CONTINUOUS
 10
4.446640
 20
2.027080
  0
VERTEX
  8
0
  6
CONTINUOUS
 10
4.446640
 20
1.853280
  0
VERTEX
  8
0
  6
CONTINUOUS
 10
4.469080
 20
1.852400
  0
VERTEX
  8
0
  6
CONTINUOUS
 10
4.509560
 20
1.845800
  0
VERTEX
  8
0
  6
CONTINUOUS
 10
4.528040
 20
1.840520
  0
VERTEX
  8
0
  6
CONTINUOUS
 10
4.545200
 20
1.833920
  0
VERTEX
  8
0
  6
CONTINUOUS
 10
4.575120
 20
1.816760
  0
VERTEX
  8
0
  6
CONTINUOUS
 10
4.600200
 20
1.795200
  0
VERTEX
  8
0
  6
CONTINUOUS
 10
4.620000
 20
1.770560
  0
VERTEX
  8
0
  6
CONTINUOUS
 10
4.634520
 20
1.743720
  0
VERTEX
  8
0
  6
CONTINUOUS
 10
4.643760
 20
1.714680
  0
VERTEX
  8
0
  6
CONTINUOUS
 10
4.646400
 20
1.699720
  0
VERTEX
  8
0
  6
CONTINUOUS
 10
4.647280
 20
1.669800
  0
VERTEX
  8
0
  6
CONTINUOUS
 10
4.645960
 20
1.654840
  0
VERTEX
  8
0
  6
CONTINUOUS
 10
4.638920
 20
1.625360
  0
VERTEX
  8
0
  6
CONTINUOUS
 10
4.626600
 20
1.597200
  0
VERTEX
  8
0
  6
CONTINUOUS
 10
4.608560
 20
1.571680
  0
VERTEX
  8
0
  6
CONTINUOUS
 10
4.585240
 20
1.548800
  0
VERTEX
  8
0
  6
CONTINUOUS
 10
4.571600
 20
1.538680
  0
VERTEX
  8
0
  6
CONTINUOUS
 10
4.539920
 20
1.522400
  0
VERTEX
  8
0
  6
CONTINUOUS
 10
4.521880
 20
1.515800
  0
VERTEX
  8
0
  6
CONTINUOUS
 10
4.502520
 20
1.510520
  0
VERTEX
  8
0
  6
CONTINUOUS
 10
4.498560
 20
1.441000
  0
VERTEX
  8
0
  6
CONTINUOUS
 10
4.499880
 20
1.406680
  0
VERTEX
  8
0
  6
CONTINUOUS
 10
4.502960
 20
1.372800
  0
VERTEX
  8
0
  6
CONTINUOUS
 10
4.511760
 20
1.323520
  0
VERTEX
  8
0
  6
CONTINUOUS
 10
4.525840
 20
1.276000
  0
VERTEX
  8
0
  6
CONTINUOUS
 10
4.545640
 20
1.232000
  0
VERTEX
  8
0
  6
CONTINUOUS
 10
4.561920
 20
1.204720
  0
VERTEX
  8
0
  6
CONTINUOUS
 10
4.591400
 20
1.167760
  0
VERTEX
  8
0
  6
CONTINUOUS
 10
4.614280
 20
1.145760
  0
VERTEX
  8
0
  6
CONTINUOUS
 10
4.640240
 20
1.126400
  0
VERTEX
  8
0
  6
CONTINUOUS
 10
4.669280
 20
1.109680
  0
VERTEX
  8
0
  6
CONTINUOUS
 10
4.700960
 20
1.095600
  0
VERTEX
  8
0
  6
CONTINUOUS
 10
4.736160
 20
1.085040
  0
VERTEX
  8
0
  6
CONTINUOUS
 10
4.736160
 20
0.987800
  0
VERTEX
  8
0
  6
CONTINUOUS
 10
4.762120
 20
0.982080
  0
VERTEX
  8
0
  6
CONTINUOUS
 10
4.786760
 20
0.974600
  0
VERTEX
  8
0
  6
CONTINUOUS
 10
4.832520
 20
0.954800
  0
VERTEX
  8
0
  6
CONTINUOUS
 10
4.873880
 20
0.929280
  0
VERTEX
  8
0
  6
CONTINUOUS
 10
4.909960
 20
0.899360
  0
VERTEX
  8
0
  6
CONTINUOUS
 10
4.941200
 20
0.865920
  0
VERTEX
  8
0
  6
CONTINUOUS
 10
4.966720
 20
0.829840
  0
VERTEX
  8
0
  6
CONTINUOUS
 10
4.986960
 20
0.792000
  0
VERTEX
  8
0
  6
CONTINUOUS
 10
5.001040
 20
0.753720
  0
VERTEX
  8
0
  6
CONTINUOUS
 10
5.005880
 20
0.734360
  0
VERTEX
  8
0
  6
CONTINUOUS
 10
5.010720
 20
0.696960
  0
VERTEX
  8
0
  6
CONTINUOUS
 10
5.010720
 20
0.678920
  0
VERTEX
  8
0
  6
CONTINUOUS
 10
5.005880
 20
0.644600
  0
VERTEX
  8
0
  6
CONTINUOUS
 10
5.001040
 20
0.628760
  0
VERTEX
  8
0
  6
CONTINUOUS
 10
4.994000
 20
0.613360
  0
VERTEX
  8
0
  6
CONTINUOUS
 10
4.985640
 20
0.599720
  0
VERTEX
  8
0
  6
CONTINUOUS
 10
4.975520
 20
0.586960
  0
VERTEX
  8
0
  6
CONTINUOUS
 10
4.963640
 20
0.575520
  0
VERTEX
  8
0
  6
CONTINUOUS
 10
4.949560
 20
0.565400
  0
VERTEX
  8
0
  6
CONTINUOUS
 10
4.925360
 20
0.553520
  0
VERTEX
  8
0
  6
CONTINUOUS
 10
4.897200
 20
0.545600
  0
VERTEX
  8
0
  6
CONTINUOUS
 10
4.875640
 20
0.542520
  0
VERTEX
  8
0
  6
CONTINUOUS
 10
4.875640
 20
0.505560
  0
SEQEND
  8
0
  0
POLYLINE
  8
0
  6
CONTINUOUS
 66
     1
 40
0.000000
 41
0.000000
  0
VERTEX
  8
0
  6
CONTINUOUS
 10
5.766200
 20
0.560120
  0
VERTEX
  8
0
  6
CONTINUOUS
 10
6.393640
 20
0.560120
  0
VERTEX
  8
0
  6
CONTINUOUS
 10
6.393640
 20
2.081640
  0
VERTEX
  8
0
  6
CONTINUOUS
 10
6.195200
 20
2.081640
  0
VERTEX
  8
0
  6
CONTINUOUS
 10
6.195200
 20
1.907400
  0
VERTEX
  8
0
  6
CONTINUOUS
 10
6.173200
 20
1.906520
  0
VERTEX
  8
0
  6
CONTINUOUS
 10
6.132280
 20
1.899920
  0
VERTEX
  8
0
  6
CONTINUOUS
 10
6.097080
 20
1.888040
  0
VERTEX
  8
0
  6
CONTINUOUS
 10
6.066720
 20
1.870880
  0
VERTEX
  8
0
  6
CONTINUOUS
 10
6.041640
 20
1.849320
  0
VERTEX
  8
0
  6
CONTINUOUS
 10
6.022280
 20
1.824680
  0
VERTEX
  8
0
  6
CONTINUOUS
 10
6.007760
 20
1.797840
  0
VERTEX
  8
0
  6
CONTINUOUS
 10
5.998520
 20
1.768800
  0
VERTEX
  8
0
  6
CONTINUOUS
 10
5.994560
 20
1.738880
  0
VERTEX
  8
0
  6
CONTINUOUS
 10
5.996320
 20
1.708960
  0
VERTEX
  8
0
  6
CONTINUOUS
 10
5.998960
 20
1.694000
  0
VERTEX
  8
0
  6
CONTINUOUS
 10
6.008640
 20
1.665400
  0
VERTEX
  8
0
  6
CONTINUOUS
 10
6.024040
 20
1.638120
  0
VERTEX
  8
0
  6
CONTINUOUS
 10
6.044720
 20
1.613920
  0
VERTEX
  8
0
  6
CONTINUOUS
 10
6.070680
 20
1.592800
  0
VERTEX
  8
0
  6
CONTINUOUS
 10
6.085640
 20
1.584000
  0
VERTEX
  8
0
  6
CONTINUOUS
 10
6.119960
 20
1.569920
  0
VERTEX
  8
0
  6
CONTINUOUS
 10
6.139320
 20
1.564640
  0
VERTEX
  8
0
  6
CONTINUOUS
 10
6.142400
 20
1.529880
  0
VERTEX
  8
0
  6
CONTINUOUS
 10
6.143280
 20
1.495120
  0
VERTEX
  8
0
  6
CONTINUOUS
 10
6.141960
 20
1.460800
  0
VERTEX
  8
0
  6
CONTINUOUS
 10
6.138880
 20
1.426920
  0
VERTEX
  8
0
  6
CONTINUOUS
 10
6.130080
 20
1.377640
  0
VERTEX
  8
0
  6
CONTINUOUS
 10
6.116000
 20
1.330560
  0
VERTEX
  8
0
  6
CONTINUOUS
 10
6.103680
 20
1.300640
  0
VERTEX
  8
0
  6
CONTINUOUS
 10
6.079920
 20
1.259280
  0
VERTEX
  8
0
  6
CONTINUOUS
 10
6.061000
 20
1.234200
  0
VERTEX
  8
0
  6
CONTINUOUS
 10
6.039440
 20
1.210880
  0
VERTEX
  8
0
  6
CONTINUOUS
 10
6.015240
 20
1.190200
  0
VERTEX
  8
0
  6
CONTINUOUS
 10
5.987520
 20
1.172160
  0
VERTEX
  8
0
  6
CONTINUOUS
 10
5.957160
 20
1.156760
  0
VERTEX
  8
0
  6
CONTINUOUS
 10
5.923720
 20
1.144440
  0
VERTEX
  8
0
  6
CONTINUOUS
 10
5.905680
 20
1.139600
  0
VERTEX
  8
0
  6
CONTINUOUS
 10
5.905680
 20
1.041920
  0
VERTEX
  8
0
  6
CONTINUOUS
 10
5.879720
 20
1.036200
  0
VERTEX
  8
0
  6
CONTINUOUS
 10
5.855080
 20
1.028720
  0
VERTEX
  8
0
  6
CONTINUOUS
 10
5.809320
 20
1.008920
  0
VERTEX
  8
0
  6
CONTINUOUS
 10
5.767960
 20
0.983840
  0
VERTEX
  8
0
  6
CONTINUOUS
 10
5.731880
 20
0.953920
  0
VERTEX
  8
0
  6
CONTINUOUS
 10
5.701080
 20
0.920040
  0
VERTEX
  8
0
  6
CONTINUOUS
 10
5.675120
 20
0.883960
  0
VERTEX
  8
0
  6
CONTINUOUS
 10
5.655320
 20
0.846120
  0
VERTEX
  8
0
  6
CONTINUOUS
 10
5.647400
 20
0.827200
  0
VERTEX
  8
0
  6
CONTINUOUS
 10
5.636400
 20
0.788920
  0
VERTEX
  8
0
  6
CONTINUOUS
 10
5.631560
 20
0.751080
  0
VERTEX
  8
0
  6
CONTINUOUS
 10
5.631560
 20
0.733040
  0
VERTEX
  8
0
  6
CONTINUOUS
 10
5.632880
 20
0.715440
  0
VERTEX
  8
0
  6
CONTINUOUS
 10
5.641240
 20
0.682880
  0
VERTEX
  8
0
  6
CONTINUOUS
 10
5.647840
 20
0.667920
  0
VERTEX
  8
0
  6
CONTINUOUS
 10
5.656200
 20
0.653840
  0
VERTEX
  8
0
  6
CONTINUOUS
 10
5.666320
 20
0.641080
  0
VERTEX
  8
0
  6
CONTINUOUS
 10
5.692280
 20
0.619520
  0
VERTEX
  8
0
  6
CONTINUOUS
 10
5.716480
 20
0.607640
  0
VERTEX
  8
0
  6
CONTINUOUS
 10
5.744640
 20
0.599720
  0
VERTEX
  8
0
  6
CONTINUOUS
 10
5.766200
 20
0.596640
  0
VERTEX
  8
0
  6
CONTINUOUS
 10
5.766200
 20
0.560120
  0
SEQEND
  8
0
  0
SOLID
  8
0
 62
     7
 10
3.978480
 20
3.696880
 11
4.601960
 21
4.072200
 12
4.001800
 22
3.674880
 13
4.624840
 23
4.050200
  0
POLYLINE
  8
0
  6
CONTINUOUS
 66
     1
 40
0.000000
 41
0.000000
  0
VERTEX
  8
0
  6
CONTINUOUS
 10
3.978480
 20
3.696880
  0
VERTEX
  8
0
  6
CONTINUOUS
 10
4.601960
 20
4.072200
  0
VERTEX
  8
0
  6
CONTINUOUS
 10
4.624840
 20
4.050200
  0
VERTEX
  8
0
  6
CONTINUOUS
 10
4.001800
 20
3.674880
  0
VERTEX
  8
0
  6
CONTINUOUS
 10
3.978480
 20
3.696880
  0
SEQEND
  8
0
  0
SOLID
  8
0
 62
    15
 10
3.834160
 20
4.556200
 11
4.457200
 21
4.931520
 12
3.834160
 22
4.382400
 13
4.457200
 23
4.757720
  0
POLYLINE
  8
0
  6
CONTINUOUS
 66
     1
 40
0.000000
 41
0.000000
  0
VERTEX
  8
0
  6
CONTINUOUS
 10
3.834160
 20
4.556200
  0
VERTEX
  8
0
  6
CONTINUOUS
 10
4.457200
 20
4.931520
  0
VERTEX
  8
0
  6
CONTINUOUS
 10
4.457200
 20
4.757720
  0
VERTEX
  8
0
  6
CONTINUOUS
 10
3.834160
 20
4.382400
  0
VERTEX
  8
0
  6
CONTINUOUS
 10
3.834160
 20
4.556200
  0
SEQEND
  8
0
  0
SOLID
  8
0
 62
    15
 10
3.834160
 20
4.382400
 11
4.457200
 21
4.757720
 12
3.877280
 22
4.378880
 13
4.500760
 23
4.754200
  0
POLYLINE
  8
0
  6
CONTINUOUS
 66
     1
 40
0.000000
 41
0.000000
  0
VERTEX
  8
0
  6
CONTINUOUS
 10
3.834160
 20
4.382400
  0
VERTEX
  8
0
  6
CONTINUOUS
 10
4.457200
 20
4.757720
  0
VERTEX
  8
0
  6
CONTINUOUS
 10
4.500760
 20
4.754200
  0
VERTEX
  8
0
  6
CONTINUOUS
 10
3.877280
 20
4.378880
  0
VERTEX
  8
0
  6
CONTINUOUS
 10
3.834160
 20
4.382400
  0
SEQEND
  8
0
  0
SOLID
  8
0
 62
    15
 10
3.877280
 20
4.378880
 11
4.500760
 21
4.754200
 12
3.915120
 22
4.369640
 13
4.538600
 23
4.744960
  0
POLYLINE
  8
0
  6
CONTINUOUS
 66
     1
 40
0.000000
 41
0.000000
  0
VERTEX
  8
0
  6
CONTINUOUS
 10
3.877280
 20
4.378880
  0
VERTEX
  8
0
  6
CONTINUOUS
 10
4.500760
 20
4.754200
  0
VERTEX
  8
0
  6
CONTINUOUS
 10
4.538600
 20
4.744960
  0
VERTEX
  8
0
  6
CONTINUOUS
 10
3.915120
 20
4.369640
  0
VERTEX
  8
0
  6
CONTINUOUS
 10
3.877280
 20
4.378880
  0
SEQEND
  8
0
  0
SOLID
  8
0
 62
    15
 10
3.915120
 20
4.369640
 11
4.538600
 21
4.744960
 12
3.948120
 22
4.354680
 13
4.571160
 23
4.730000
  0
POLYLINE
  8
0
  6
CONTINUOUS
 66
     1
 40
0.000000
 41
0.000000
  0
VERTEX
  8
0
  6
CONTINUOUS
 10
3.915120
 20
4.369640
  0
VERTEX
  8
0
  6
CONTINUOUS
 10
4.538600
 20
4.744960
  0
VERTEX
  8
0
  6
CONTINUOUS
 10
4.571160
 20
4.730000
  0
VERTEX
  8
0
  6
CONTINUOUS
 10
3.948120
 20
4.354680
  0
VERTEX
  8
0
  6
CONTINUOUS
 10
3.915120
 20
4.369640
  0
SEQEND
  8
0
  0
SOLID
  8
0
 62
    15
 10
3.948120
 20
4.354680
 11
4.571160
 21
4.730000
 12
3.975840
 22
4.335320
 13
4.598880
 23
4.710640
  0
POLYLINE
  8
0
  6
CONTINUOUS
 66
     1
 40
0.000000
 41
0.000000
  0
VERTEX
  8
0
  6
CONTINUOUS
 10
3.948120
 20
4.354680
  0
VERTEX
  8
0
  6
CONTINUOUS
 10
4.571160
 20
4.730000
  0
VERTEX
  8
0
  6
CONTINUOUS
 10
4.598880
 20
4.710640
  0
VERTEX
  8
0
  6
CONTINUOUS
 10
3.975840
 20
4.335320
  0
VERTEX
  8
0
  6
CONTINUOUS
 10
3.948120
 20
4.354680
  0
SEQEND
  8
0
  0
SOLID
  8
0
 62
    15
 10
3.975840
 20
4.335320
 11
4.598880
 21
4.710640
 12
3.997840
 22
4.312440
 13
4.621320
 23
4.687760
  0
POLYLINE
  8
0
  6
CONTINUOUS
 66
     1
 40
0.000000
 41
0.000000
  0
VERTEX
  8
0
  6
CONTINUOUS
 10
3.975840
 20
4.335320
  0
VERTEX
  8
0
  6
CONTINUOUS
 10
4.598880
 20
4.710640
  0
VERTEX
  8
0
  6
CONTINUOUS
 10
4.621320
 20
4.687760
  0
VERTEX
  8
0
  6
CONTINUOUS
 10
3.997840
 20
4.312440
  0
VERTEX
  8
0
  6
CONTINUOUS
 10
3.975840
 20
4.335320
  0
SEQEND
  8
0
  0
SOLID
  8
0
 62
     7
 10
3.997840
 20
4.312440
 11
4.621320
 21
4.687760
 12
4.015000
 22
4.286480
 13
4.638480
 23
4.661800
  0
POLYLINE
  8
0
  6
CONTINUOUS
 66
     1
 40
0.000000
 41
0.000000
  0
VERTEX
  8
0
  6
CONTINUOUS
 10
3.997840
 20
4.312440
  0
VERTEX
  8
0
  6
CONTINUOUS
 10
4.621320
 20
4.687760
  0
VERTEX
  8
0
  6
CONTINUOUS
 10
4.638480
 20
4.661800
  0
VERTEX
  8
0
  6
CONTINUOUS
 10
4.015000
 20
4.286480
  0
VERTEX
  8
0
  6
CONTINUOUS
 10
3.997840
 20
4.312440
  0
SEQEND
  8
0
  0
SOLID
  8
0
 62
     7
 10
4.015000
 20
4.286480
 11
4.638480
 21
4.661800
 12
4.026880
 22
4.258320
 13
4.650360
 23
4.633640
  0
POLYLINE
  8
0
  6
CONTINUOUS
 66
     1
 40
0.000000
 41
0.000000
  0
VERTEX
  8
0
  6
CONTINUOUS
 10
4.015000
 20
4.286480
  0
VERTEX
  8
0
  6
CONTINUOUS
 10
4.638480
 20
4.661800
  0
VERTEX
  8
0
  6
CONTINUOUS
 10
4.650360
 20
4.633640
  0
VERTEX
  8
0
  6
CONTINUOUS
 10
4.026880
 20
4.258320
  0
VERTEX
  8
0
  6
CONTINUOUS
 10
4.015000
 20
4.286480
  0
SEQEND
  8
0
  0
SOLID
  8
0
 62
    15
 10
4.026880
 20
4.258320
 11
4.650360
 21
4.633640
 12
4.033480
 22
4.228840
 13
4.656520
 23
4.604160
  0
POLYLINE
  8
0
  6
CONTINUOUS
 66
     1
 40
0.000000
 41
0.000000
  0
VERTEX
  8
0
  6
CONTINUOUS
 10
4.026880
 20
4.258320
  0
VERTEX
  8
0
  6
CONTINUOUS
 10
4.650360
 20
4.633640
  0
VERTEX
  8
0
  6
CONTINUOUS
 10
4.656520
 20
4.604160
  0
VERTEX
  8
0
  6
CONTINUOUS
 10
4.033480
 20
4.228840
  0
VERTEX
  8
0
  6
CONTINUOUS
 10
4.026880
 20
4.258320
  0
SEQEND
  8
0
  0
SOLID
  8
0
 62
    15
 10
4.033480
 20
4.228840
 11
4.656520
 21
4.604160
 12
4.034360
 22
4.198480
 13
4.657840
 23
4.573800
  0
POLYLINE
  8
0
  6
CONTINUOUS
 66
     1
 40
0.000000
 41
0.000000
  0
VERTEX
  8
0
  6
CONTINUOUS
 10
4.033480
 20
4.228840
  0
VERTEX
  8
0
  6
CONTINUOUS
 10
4.656520
 20
4.604160
  0
VERTEX
  8
0
  6
CONTINUOUS
 10
4.657840
 20
4.573800
  0
VERTEX
  8
0
  6
CONTINUOUS
 10
4.034360
 20
4.198480
  0
VERTEX
  8
0
  6
CONTINUOUS
 10
4.033480
 20
4.228840
  0
SEQEND
  8
0
  0
SOLID
  8
0
 62
    15
 10
4.034360
 20
4.198480
 11
4.657840
 21
4.573800
 12
4.030400
 22
4.169000
 13
4.653440
 23
4.544320
  0
POLYLINE
  8
0
  6
CONTINUOUS
 66
     1
 40
0.000000
 41
0.000000
  0
VERTEX
  8
0
  6
CONTINUOUS
 10
4.034360
 20
4.198480
  0
VERTEX
  8
0
  6
CONTINUOUS
 10
4.657840
 20
4.573800
  0
VERTEX
  8
0
  6
CONTINUOUS
 10
4.653440
 20
4.544320
  0
VERTEX
  8
0
  6
CONTINUOUS
 10
4.030400
 20
4.169000
  0
VERTEX
  8
0
  6
CONTINUOUS
 10
4.034360
 20
4.198480
  0
SEQEND
  8
0
  0
SOLID
  8
0
 62
    15
 10
4.030400
 20
4.169000
 11
4.653440
 21
4.544320
 12
4.020720
 22
4.139960
 13
4.643760
 23
4.515280
  0
POLYLINE
  8
0
  6
CONTINUOUS
 66
     1
 40
0.000000
 41
0.000000
  0
VERTEX
  8
0
  6
CONTINUOUS
 10
4.030400
 20
4.169000
  0
VERTEX
  8
0
  6
CONTINUOUS
 10
4.653440
 20
4.544320
  0
VERTEX
  8
0
  6
CONTINUOUS
 10
4.643760
 20
4.515280
  0
VERTEX
  8
0
  6
CONTINUOUS
 10
4.020720
 20
4.139960
  0
VERTEX
  8
0
  6
CONTINUOUS
 10
4.030400
 20
4.169000
  0
SEQEND
  8
0
  0
SOLID
  8
0
 62
    15
 10
4.020720
 20
4.139960
 11
4.643760
 21
4.515280
 12
4.005320
 22
4.113120
 13
4.628800
 23
4.488440
  0
POLYLINE
  8
0
  6
CONTINUOUS
 66
     1
 40
0.000000
 41
0.000000
  0
VERTEX
  8
0
  6
CONTINUOUS
 10
4.020720
 20
4.139960
  0
VERTEX
  8
0
  6
CONTINUOUS
 10
4.643760
 20
4.515280
  0
VERTEX
  8
0
  6
CONTINUOUS
 10
4.628800
 20
4.488440
  0
VERTEX
  8
0
  6
CONTINUOUS
 10
4.005320
 20
4.113120
  0
VERTEX
  8
0
  6
CONTINUOUS
 10
4.020720
 20
4.139960
  0
SEQEND
  8
0
  0
SOLID
  8
0
 62
    15
 10
3.890040
 20
4.039200
 11
4.513080
 21
4.414520
 12
3.886080
 22
3.970120
 13
4.509560
 23
4.345440
  0
POLYLINE
  8
0
  6
CONTINUOUS
 66
     1
 40
0.000000
 41
0.000000
  0
VERTEX
  8
0
  6
CONTINUOUS
 10
3.890040
 20
4.039200
  0
VERTEX
  8
0
  6
CONTINUOUS
 10
4.513080
 20
4.414520
  0
VERTEX
  8
0
  6
CONTINUOUS
 10
4.509560
 20
4.345440
  0
VERTEX
  8
0
  6
CONTINUOUS
 10
3.886080
 20
3.970120
  0
VERTEX
  8
0
  6
CONTINUOUS
 10
3.890040
 20
4.039200
  0
SEQEND
  8
0
  0
SOLID
  8
0
 62
    15
 10
3.984640
 20
4.088480
 11
4.608120
 21
4.464240
 12
3.958680
 22
4.067800
 13
4.582160
 23
4.443120
  0
POLYLINE
  8
0
  6
CONTINUOUS
 66
     1
 40
0.000000
 41
0.000000
  0
VERTEX
  8
0
  6
CONTINUOUS
 10
3.984640
 20
4.088480
  0
VERTEX
  8
0
  6
CONTINUOUS
 10
4.608120
 20
4.464240
  0
VERTEX
  8
0
  6
CONTINUOUS
 10
4.582160
 20
4.443120
  0
VERTEX
  8
0
  6
CONTINUOUS
 10
3.958680
 20
4.067800
  0
VERTEX
  8
0
  6
CONTINUOUS
 10
3.984640
 20
4.088480
  0
SEQEND
  8
0
  0
SOLID
  8
0
 62
    15
 10
4.005320
 20
4.113120
 11
4.628800
 21
4.488440
 12
3.984640
 22
4.088480
 13
4.608120
 23
4.464240
  0
POLYLINE
  8
0
  6
CONTINUOUS
 66
     1
 40
0.000000
 41
0.000000
  0
VERTEX
  8
0
  6
CONTINUOUS
 10
4.005320
 20
4.113120
  0
VERTEX
  8
0
  6
CONTINUOUS
 10
4.628800
 20
4.488440
  0
VERTEX
  8
0
  6
CONTINUOUS
 10
4.608120
 20
4.464240
  0
VERTEX
  8
0
  6
CONTINUOUS
 10
3.984640
 20
4.088480
  0
VERTEX
  8
0
  6
CONTINUOUS
 10
4.005320
 20
4.113120
  0
SEQEND
  8
0
  0
SOLID
  8
0
 62
    15
 10
3.886080
 20
3.970120
 11
4.509560
 21
4.345440
 12
3.890480
 22
3.901480
 13
4.513520
 23
4.276800
  0
POLYLINE
  8
0
  6
CONTINUOUS
 66
     1
 40
0.000000
 41
0.000000
  0
VERTEX
  8
0
  6
CONTINUOUS
 10
3.886080
 20
3.970120
  0
VERTEX
  8
0
  6
CONTINUOUS
 10
4.509560
 20
4.345440
  0
VERTEX
  8
0
  6
CONTINUOUS
 10
4.513520
 20
4.276800
  0
VERTEX
  8
0
  6
CONTINUOUS
 10
3.890480
 20
3.901480
  0
VERTEX
  8
0
  6
CONTINUOUS
 10
3.886080
 20
3.970120
  0
SEQEND
  8
0
  0
SOLID
  8
0
 62
     7
 10
3.890480
 20
3.901480
 11
4.513520
 21
4.276800
 12
3.903240
 22
3.836360
 13
4.526720
 23
4.211680
  0
POLYLINE
  8
0
  6
CONTINUOUS
 66
     1
 40
0.000000
 41
0.000000
  0
VERTEX
  8
0
  6
CONTINUOUS
 10
3.890480
 20
3.901480
  0
VERTEX
  8
0
  6
CONTINUOUS
 10
4.513520
 20
4.276800
  0
VERTEX
  8
0
  6
CONTINUOUS
 10
4.526720
 20
4.211680
  0
VERTEX
  8
0
  6
CONTINUOUS
 10
3.903240
 20
3.836360
  0
VERTEX
  8
0
  6
CONTINUOUS
 10
3.890480
 20
3.901480
  0
SEQEND
  8
0
  0
SOLID
  8
0
 62
     7
 10
3.903240
 20
3.836360
 11
4.526720
 21
4.211680
 12
3.925680
 22
3.775200
 13
4.549160
 23
4.150960
  0
POLYLINE
  8
0
  6
CONTINUOUS
 66
     1
 40
0.000000
 41
0.000000
  0
VERTEX
  8
0
  6
CONTINUOUS
 10
3.903240
 20
3.836360
  0
VERTEX
  8
0
  6
CONTINUOUS
 10
4.526720
 20
4.211680
  0
VERTEX
  8
0
  6
CONTINUOUS
 10
4.549160
 20
4.150960
  0
VERTEX
  8
0
  6
CONTINUOUS
 10
3.925680
 20
3.775200
  0
VERTEX
  8
0
  6
CONTINUOUS
 10
3.903240
 20
3.836360
  0
SEQEND
  8
0
  0
SOLID
  8
0
 62
     7
 10
3.925680
 20
3.775200
 11
4.549160
 21
4.150960
 12
3.958240
 22
3.721080
 13
4.581720
 23
4.096400
  0
POLYLINE
  8
0
  6
CONTINUOUS
 66
     1
 40
0.000000
 41
0.000000
  0
VERTEX
  8
0
  6
CONTINUOUS
 10
3.925680
 20
3.775200
  0
VERTEX
  8
0
  6
CONTINUOUS
 10
4.549160
 20
4.150960
  0
VERTEX
  8
0
  6
CONTINUOUS
 10
4.581720
 20
4.096400
  0
VERTEX
  8
0
  6
CONTINUOUS
 10
3.958240
 20
3.721080
  0
VERTEX
  8
0
  6
CONTINUOUS
 10
3.925680
 20
3.775200
  0
SEQEND
  8
0
  0
SOLID
  8
0
 62
     7
 10
3.958240
 20
3.721080
 11
4.581720
 21
4.096400
 12
3.978480
 22
3.696880
 13
4.601960
 23
4.072200
  0
POLYLINE
  8
0
  6
CONTINUOUS
 66
     1
 40
0.000000
 41
0.000000
  0
VERTEX
  8
0
  6
CONTINUOUS
 10
3.958240
 20
3.721080
  0
VERTEX
  8
0
  6
CONTINUOUS
 10
4.581720
 20
4.096400
  0
VERTEX
  8
0
  6
CONTINUOUS
 10
4.601960
 20
4.072200
  0
VERTEX
  8
0
  6
CONTINUOUS
 10
3.978480
 20
3.696880
  0
VERTEX
  8
0
  6
CONTINUOUS
 10
3.958240
 20
3.721080
  0
SEQEND
  8
0
  0
SOLID
  8
0
 62
    15
 10
3.635720
 20
4.556200
 11
4.259200
 21
4.931520
 12
3.834160
 22
4.556200
 13
4.457200
 23
4.931520
  0
POLYLINE
  8
0
  6
CONTINUOUS
 66
     1
 40
0.000000
 41
0.000000
  0
VERTEX
  8
0
  6
CONTINUOUS
 10
3.635720
 20
4.556200
  0
VERTEX
  8
0
  6
CONTINUOUS
 10
4.259200
 20
4.931520
  0
VERTEX
  8
0
  6
CONTINUOUS
 10
4.457200
 20
4.931520
  0
VERTEX
  8
0
  6
CONTINUOUS
 10
3.834160
 20
4.556200
  0
VERTEX
  8
0
  6
CONTINUOUS
 10
3.635720
 20
4.556200
  0
SEQEND
  8
0
  0
SOLID
  8
0
 62
    15
 10
4.001800
 20
3.674880
 11
4.624840
 21
4.050200
 12
4.027760
 22
3.655520
 13
4.650800
 23
4.030840
  0
POLYLINE
  8
0
  6
CONTINUOUS
 66
     1
 40
0.000000
 41
0.000000
  0
VERTEX
  8
0
  6
CONTINUOUS
 10
4.001800
 20
3.674880
  0
VERTEX
  8
0
  6
CONTINUOUS
 10
4.624840
 20
4.050200
  0
VERTEX
  8
0
  6
CONTINUOUS
 10
4.650800
 20
4.030840
  0
VERTEX
  8
0
  6
CONTINUOUS
 10
4.027760
 20
3.655520
  0
VERTEX
  8
0
  6
CONTINUOUS
 10
4.001800
 20
3.674880
  0
SEQEND
  8
0
  0
SOLID
  8
0
 62
    15
 10
4.027760
 20
3.655520
 11
4.650800
 21
4.030840
 12
4.056360
 22
3.638360
 13
4.679840
 23
4.014120
  0
POLYLINE
  8
0
  6
CONTINUOUS
 66
     1
 40
0.000000
 41
0.000000
  0
VERTEX
  8
0
  6
CONTINUOUS
 10
4.027760
 20
3.655520
  0
VERTEX
  8
0
  6
CONTINUOUS
 10
4.650800
 20
4.030840
  0
VERTEX
  8
0
  6
CONTINUOUS
 10
4.679840
 20
4.014120
  0
VERTEX
  8
0
  6
CONTINUOUS
 10
4.056360
 20
3.638360
  0
VERTEX
  8
0
  6
CONTINUOUS
 10
4.027760
 20
3.655520
  0
SEQEND
  8
0
  0
SOLID
  8
0
 62
    15
 10
4.056360
 20
3.638360
 11
4.679840
 21
4.014120
 12
4.088480
 22
3.624720
 13
4.711960
 23
4.000040
  0
POLYLINE
  8
0
  6
CONTINUOUS
 66
     1
 40
0.000000
 41
0.000000
  0
VERTEX
  8
0
  6
CONTINUOUS
 10
4.056360
 20
3.638360
  0
VERTEX
  8
0
  6
CONTINUOUS
 10
4.679840
 20
4.014120
  0
VERTEX
  8
0
  6
CONTINUOUS
 10
4.711960
 20
4.000040
  0
VERTEX
  8
0
  6
CONTINUOUS
 10
4.088480
 20
3.624720
  0
VERTEX
  8
0
  6
CONTINUOUS
 10
4.056360
 20
3.638360
  0
SEQEND
  8
0
  0
SOLID
  8
0
 62
    15
 10
4.088480
 20
3.624720
 11
4.711960
 21
4.000040
 12
4.123680
 22
3.614160
 13
4.746720
 23
3.989480
  0
POLYLINE
  8
0
  6
CONTINUOUS
 66
     1
 40
0.000000
 41
0.000000
  0
VERTEX
  8
0
  6
CONTINUOUS
 10
4.088480
 20
3.624720
  0
VERTEX
  8
0
  6
CONTINUOUS
 10
4.711960
 20
4.000040
  0
VERTEX
  8
0
  6
CONTINUOUS
 10
4.746720
 20
3.989480
  0
VERTEX
  8
0
  6
CONTINUOUS
 10
4.123680
 20
3.614160
  0
VERTEX
  8
0
  6
CONTINUOUS
 10
4.088480
 20
3.624720
  0
SEQEND
  8
0
  0
SOLID
  8
0
 62
    15
 10
4.123680
 20
3.614160
 11
4.746720
 21
3.989480
 12
4.123680
 22
3.516480
 13
4.746720
 23
3.891800
  0
POLYLINE
  8
0
  6
CONTINUOUS
 66
     1
 40
0.000000
 41
0.000000
  0
VERTEX
  8
0
  6
CONTINUOUS
 10
4.123680
 20
3.614160
  0
VERTEX
  8
0
  6
CONTINUOUS
 10
4.746720
 20
3.989480
  0
VERTEX
  8
0
  6
CONTINUOUS
 10
4.746720
 20
3.891800
  0
VERTEX
  8
0
  6
CONTINUOUS
 10
4.123680
 20
3.516480
  0
VERTEX
  8
0
  6
CONTINUOUS
 10
4.123680
 20
3.614160
  0
SEQEND
  8
0
  0
SOLID
  8
0
 62
    15
 10
4.123680
 20
3.516480
 11
4.746720
 21
3.891800
 12
4.173840
 22
3.503280
 13
4.797320
 23
3.878600
  0
POLYLINE
  8
0
  6
CONTINUOUS
 66
     1
 40
0.000000
 41
0.000000
  0
VERTEX
  8
0
  6
CONTINUOUS
 10
4.123680
 20
3.516480
  0
VERTEX
  8
0
  6
CONTINUOUS
 10
4.746720
 20
3.891800
  0
VERTEX
  8
0
  6
CONTINUOUS
 10
4.797320
 20
3.878600
  0
VERTEX
  8
0
  6
CONTINUOUS
 10
4.173840
 20
3.503280
  0
VERTEX
  8
0
  6
CONTINUOUS
 10
4.123680
 20
3.516480
  0
SEQEND
  8
0
  0
SOLID
  8
0
 62
    15
 10
4.173840
 20
3.503280
 11
4.797320
 21
3.878600
 12
4.220040
 22
3.483480
 13
4.843080
 23
3.858800
  0
POLYLINE
  8
0
  6
CONTINUOUS
 66
     1
 40
0.000000
 41
0.000000
  0
VERTEX
  8
0
  6
CONTINUOUS
 10
4.173840
 20
3.503280
  0
VERTEX
  8
0
  6
CONTINUOUS
 10
4.797320
 20
3.878600
  0
VERTEX
  8
0
  6
CONTINUOUS
 10
4.843080
 20
3.858800
  0
VERTEX
  8
0
  6
CONTINUOUS
 10
4.220040
 20
3.483480
  0
VERTEX
  8
0
  6
CONTINUOUS
 10
4.173840
 20
3.503280
  0
SEQEND
  8
0
  0
SOLID
  8
0
 62
    15
 10
4.220040
 20
3.483480
 11
4.843080
 21
3.858800
 12
4.261400
 22
3.458400
 13
4.884440
 23
3.833720
  0
POLYLINE
  8
0
  6
CONTINUOUS
 66
     1
 40
0.000000
 41
0.000000
  0
VERTEX
  8
0
  6
CONTINUOUS
 10
4.220040
 20
3.483480
  0
VERTEX
  8
0
  6
CONTINUOUS
 10
4.843080
 20
3.858800
  0
VERTEX
  8
0
  6
CONTINUOUS
 10
4.884440
 20
3.833720
  0
VERTEX
  8
0
  6
CONTINUOUS
 10
4.261400
 20
3.458400
  0
VERTEX
  8
0
  6
CONTINUOUS
 10
4.220040
 20
3.483480
  0
SEQEND
  8
0
  0
SOLID
  8
0
 62
     7
 10
4.261400
 20
3.458400
 11
4.884440
 21
3.833720
 12
4.297480
 22
3.428480
 13
4.920520
 23
3.803800
  0
POLYLINE
  8
0
  6
CONTINUOUS
 66
     1
 40
0.000000
 41
0.000000
  0
VERTEX
  8
0
  6
CONTINUOUS
 10
4.261400
 20
3.458400
  0
VERTEX
  8
0
  6
CONTINUOUS
 10
4.884440
 20
3.833720
  0
VERTEX
  8
0
  6
CONTINUOUS
 10
4.920520
 20
3.803800
  0
VERTEX
  8
0
  6
CONTINUOUS
 10
4.297480
 20
3.428480
  0
VERTEX
  8
0
  6
CONTINUOUS
 10
4.261400
 20
3.458400
  0
SEQEND
  8
0
  0
SOLID
  8
0
 62
     7
 10
4.297480
 20
3.428480
 11
4.920520
 21
3.803800
 12
4.328280
 22
3.394600
 13
4.951760
 23
3.769920
  0
POLYLINE
  8
0
  6
CONTINUOUS
 66
     1
 40
0.000000
 41
0.000000
  0
VERTEX
  8
0
  6
CONTINUOUS
 10
4.297480
 20
3.428480
  0
VERTEX
  8
0
  6
CONTINUOUS
 10
4.920520
 20
3.803800
  0
VERTEX
  8
0
  6
CONTINUOUS
 10
4.951760
 20
3.769920
  0
VERTEX
  8
0
  6
CONTINUOUS
 10
4.328280
 20
3.394600
  0
VERTEX
  8
0
  6
CONTINUOUS
 10
4.297480
 20
3.428480
  0
SEQEND
  8
0
  0
SOLID
  8
0
 62
     7
 10
4.328280
 20
3.394600
 11
4.951760
 21
3.769920
 12
4.353800
 22
3.358520
 13
4.977280
 23
3.733840
  0
POLYLINE
  8
0
  6
CONTINUOUS
 66
     1
 40
0.000000
 41
0.000000
  0
VERTEX
  8
0
  6
CONTINUOUS
 10
4.328280
 20
3.394600
  0
VERTEX
  8
0
  6
CONTINUOUS
 10
4.951760
 20
3.769920
  0
VERTEX
  8
0
  6
CONTINUOUS
 10
4.977280
 20
3.733840
  0
VERTEX
  8
0
  6
CONTINUOUS
 10
4.353800
 20
3.358520
  0
VERTEX
  8
0
  6
CONTINUOUS
 10
4.328280
 20
3.394600
  0
SEQEND
  8
0
  0
SOLID
  8
0
 62
     7
 10
4.353800
 20
3.358520
 11
4.977280
 21
3.733840
 12
4.374040
 22
3.320680
 13
4.997520
 23
3.696440
  0
POLYLINE
  8
0
  6
CONTINUOUS
 66
     1
 40
0.000000
 41
0.000000
  0
VERTEX
  8
0
  6
CONTINUOUS
 10
4.353800
 20
3.358520
  0
VERTEX
  8
0
  6
CONTINUOUS
 10
4.977280
 20
3.733840
  0
VERTEX
  8
0
  6
CONTINUOUS
 10
4.997520
 20
3.696440
  0
VERTEX
  8
0
  6
CONTINUOUS
 10
4.374040
 20
3.320680
  0
VERTEX
  8
0
  6
CONTINUOUS
 10
4.353800
 20
3.358520
  0
SEQEND
  8
0
  0
SOLID
  8
0
 62
     7
 10
4.374040
 20
3.320680
 11
4.997520
 21
3.696440
 12
4.388120
 22
3.282400
 13
5.011600
 23
3.657720
  0
POLYLINE
  8
0
  6
CONTINUOUS
 66
     1
 40
0.000000
 41
0.000000
  0
VERTEX
  8
0
  6
CONTINUOUS
 10
4.374040
 20
3.320680
  0
VERTEX
  8
0
  6
CONTINUOUS
 10
4.997520
 20
3.696440
  0
VERTEX
  8
0
  6
CONTINUOUS
 10
5.011600
 20
3.657720
  0
VERTEX
  8
0
  6
CONTINUOUS
 10
4.388120
 20
3.282400
  0
VERTEX
  8
0
  6
CONTINUOUS
 10
4.374040
 20
3.320680
  0
SEQEND
  8
0
  0
SOLID
  8
0
 62
    15
 10
4.388120
 20
3.282400
 11
5.011600
 21
3.657720
 12
4.396040
 22
3.244560
 13
5.019520
 23
3.619880
  0
POLYLINE
  8
0
  6
CONTINUOUS
 66
     1
 40
0.000000
 41
0.000000
  0
VERTEX
  8
0
  6
CONTINUOUS
 10
4.388120
 20
3.282400
  0
VERTEX
  8
0
  6
CONTINUOUS
 10
5.011600
 20
3.657720
  0
VERTEX
  8
0
  6
CONTINUOUS
 10
5.019520
 20
3.619880
  0
VERTEX
  8
0
  6
CONTINUOUS
 10
4.396040
 20
3.244560
  0
VERTEX
  8
0
  6
CONTINUOUS
 10
4.388120
 20
3.282400
  0
SEQEND
  8
0
  0
SOLID
  8
0
 62
    15
 10
4.396040
 20
3.244560
 11
5.019520
 21
3.619880
 12
4.397800
 22
3.207600
 13
5.021280
 23
3.583360
  0
POLYLINE
  8
0
  6
CONTINUOUS
 66
     1
 40
0.000000
 41
0.000000
  0
VERTEX
  8
0
  6
CONTINUOUS
 10
4.396040
 20
3.244560
  0
VERTEX
  8
0
  6
CONTINUOUS
 10
5.019520
 20
3.619880
  0
VERTEX
  8
0
  6
CONTINUOUS
 10
5.021280
 20
3.583360
  0
VERTEX
  8
0
  6
CONTINUOUS
 10
4.397800
 20
3.207600
  0
VERTEX
  8
0
  6
CONTINUOUS
 10
4.396040
 20
3.244560
  0
SEQEND
  8
0
  0
SOLID
  8
0
 62
    15
 10
4.397800
 20
3.207600
 11
5.021280
 21
3.583360
 12
4.392960
 22
3.173280
 13
5.016440
 23
3.549040
  0
POLYLINE
  8
0
  6
CONTINUOUS
 66
     1
 40
0.000000
 41
0.000000
  0
VERTEX
  8
0
  6
CONTINUOUS
 10
4.397800
 20
3.207600
  0
VERTEX
  8
0
  6
CONTINUOUS
 10
5.021280
 20
3.583360
  0
VERTEX
  8
0
  6
CONTINUOUS
 10
5.016440
 20
3.549040
  0
VERTEX
  8
0
  6
CONTINUOUS
 10
4.392960
 20
3.173280
  0
VERTEX
  8
0
  6
CONTINUOUS
 10
4.397800
 20
3.207600
  0
SEQEND
  8
0
  0
SOLID
  8
0
 62
    15
 10
4.262720
 20
3.071640
 11
4.886200
 21
3.446960
 12
4.262720
 22
3.035560
 13
4.886200
 23
3.410880
  0
POLYLINE
  8
0
  6
CONTINUOUS
 66
     1
 40
0.000000
 41
0.000000
  0
VERTEX
  8
0
  6
CONTINUOUS
 10
4.262720
 20
3.071640
  0
VERTEX
  8
0
  6
CONTINUOUS
 10
4.886200
 20
3.446960
  0
VERTEX
  8
0
  6
CONTINUOUS
 10
4.886200
 20
3.410880
  0
VERTEX
  8
0
  6
CONTINUOUS
 10
4.262720
 20
3.035560
  0
VERTEX
  8
0
  6
CONTINUOUS
 10
4.262720
 20
3.071640
  0
SEQEND
  8
0
  0
SOLID
  8
0
 62
    15
 10
4.381520
 20
3.142480
 11
5.004560
 21
3.517800
 12
4.362600
 22
3.115640
 13
4.986080
 23
3.490960
  0
POLYLINE
  8
0
  6
CONTINUOUS
 66
     1
 40
0.000000
 41
0.000000
  0
VERTEX
  8
0
  6
CONTINUOUS
 10
4.381520
 20
3.142480
  0
VERTEX
  8
0
  6
CONTINUOUS
 10
5.004560
 20
3.517800
  0
VERTEX
  8
0
  6
CONTINUOUS
 10
4.986080
 20
3.490960
  0
VERTEX
  8
0
  6
CONTINUOUS
 10
4.362600
 20
3.115640
  0
VERTEX
  8
0
  6
CONTINUOUS
 10
4.381520
 20
3.142480
  0
SEQEND
  8
0
  0
SOLID
  8
0
 62
    15
 10
4.362600
 20
3.115640
 11
4.986080
 21
3.490960
 12
4.337080
 22
3.094520
 13
4.960120
 23
3.469840
  0
POLYLINE
  8
0
  6
CONTINUOUS
 66
     1
 40
0.000000
 41
0.000000
  0
VERTEX
  8
0
  6
CONTINUOUS
 10
4.362600
 20
3.115640
  0
VERTEX
  8
0
  6
CONTINUOUS
 10
4.986080
 20
3.490960
  0
VERTEX
  8
0
  6
CONTINUOUS
 10
4.960120
 20
3.469840
  0
VERTEX
  8
0
  6
CONTINUOUS
 10
4.337080
 20
3.094520
  0
VERTEX
  8
0
  6
CONTINUOUS
 10
4.362600
 20
3.115640
  0
SEQEND
  8
0
  0
SOLID
  8
0
 62
    15
 10
4.392960
 20
3.173280
 11
5.016440
 21
3.549040
 12
4.381520
 22
3.142480
 13
5.004560
 23
3.517800
  0
POLYLINE
  8
0
  6
CONTINUOUS
 66
     1
 40
0.000000
 41
0.000000
  0
VERTEX
  8
0
  6
CONTINUOUS
 10
4.392960
 20
3.173280
  0
VERTEX
  8
0
  6
CONTINUOUS
 10
5.016440
 20
3.549040
  0
VERTEX
  8
0
  6
CONTINUOUS
 10
5.004560
 20
3.517800
  0
VERTEX
  8
0
  6
CONTINUOUS
 10
4.381520
 20
3.142480
  0
VERTEX
  8
0
  6
CONTINUOUS
 10
4.392960
 20
3.173280
  0
SEQEND
  8
0
  0
SOLID
  8
0
 62
    15
 10
4.262720
 20
3.035560
 11
4.886200
 21
3.410880
 12
4.262720
 22
3.034680
 13
4.886200
 23
3.410000
  0
POLYLINE
  8
0
  6
CONTINUOUS
 66
     1
 40
0.000000
 41
0.000000
  0
VERTEX
  8
0
  6
CONTINUOUS
 10
4.262720
 20
3.035560
  0
VERTEX
  8
0
  6
CONTINUOUS
 10
4.886200
 20
3.410880
  0
VERTEX
  8
0
  6
CONTINUOUS
 10
4.886200
 20
3.410000
  0
VERTEX
  8
0
  6
CONTINUOUS
 10
4.262720
 20
3.034680
  0
VERTEX
  8
0
  6
CONTINUOUS
 10
4.262720
 20
3.035560
  0
SEQEND
  8
0
  0
POLYLINE
  8
0
  6
CONTINUOUS
 66
     1
 40
0.000000
 41
0.000000
  0
VERTEX
  8
0
  6
CONTINUOUS
 10
4.262720
 20
3.034680
  0
VERTEX
  8
0
  6
CONTINUOUS
 10
3.635720
 20
3.034680
  0
VERTEX
  8
0
  6
CONTINUOUS
 10
3.635720
 20
4.556200
  0
VERTEX
  8
0
  6
CONTINUOUS
 10
3.834160
 20
4.556200
  0
VERTEX
  8
0
  6
CONTINUOUS
 10
3.834160
 20
4.382400
  0
VERTEX
  8
0
  6
CONTINUOUS
 10
3.877280
 20
4.378880
  0
VERTEX
  8
0
  6
CONTINUOUS
 10
3.915120
 20
4.369640
  0
VERTEX
  8
0
  6
CONTINUOUS
 10
3.948120
 20
4.354680
  0
VERTEX
  8
0
  6
CONTINUOUS
 10
3.975840
 20
4.335320
  0
VERTEX
  8
0
  6
CONTINUOUS
 10
3.997840
 20
4.312440
  0
VERTEX
  8
0
  6
CONTINUOUS
 10
4.015000
 20
4.286480
  0
VERTEX
  8
0
  6
CONTINUOUS
 10
4.026880
 20
4.258320
  0
VERTEX
  8
0
  6
CONTINUOUS
 10
4.033480
 20
4.228840
  0
VERTEX
  8
0
  6
CONTINUOUS
 10
4.034360
 20
4.198480
  0
VERTEX
  8
0
  6
CONTINUOUS
 10
4.030400
 20
4.169000
  0
VERTEX
  8
0
  6
CONTINUOUS
 10
4.020720
 20
4.139960
  0
VERTEX
  8
0
  6
CONTINUOUS
 10
4.005320
 20
4.113120
  0
VERTEX
  8
0
  6
CONTINUOUS
 10
3.984640
 20
4.088480
  0
VERTEX
  8
0
  6
CONTINUOUS
 10
3.958680
 20
4.067800
  0
VERTEX
  8
0
  6
CONTINUOUS
 10
3.927000
 20
4.051080
  0
VERTEX
  8
0
  6
CONTINUOUS
 10
3.890040
 20
4.039200
  0
VERTEX
  8
0
  6
CONTINUOUS
 10
3.886080
 20
3.970120
  0
VERTEX
  8
0
  6
CONTINUOUS
 10
3.890480
 20
3.901480
  0
VERTEX
  8
0
  6
CONTINUOUS
 10
3.903240
 20
3.836360
  0
VERTEX
  8
0
  6
CONTINUOUS
 10
3.925680
 20
3.775200
  0
VERTEX
  8
0
  6
CONTINUOUS
 10
3.958240
 20
3.721080
  0
VERTEX
  8
0
  6
CONTINUOUS
 10
3.978480
 20
3.696880
  0
VERTEX
  8
0
  6
CONTINUOUS
 10
4.001800
 20
3.674880
  0
VERTEX
  8
0
  6
CONTINUOUS
 10
4.027760
 20
3.655520
  0
VERTEX
  8
0
  6
CONTINUOUS
 10
4.056360
 20
3.638360
  0
VERTEX
  8
0
  6
CONTINUOUS
 10
4.088480
 20
3.624720
  0
VERTEX
  8
0
  6
CONTINUOUS
 10
4.123680
 20
3.614160
  0
VERTEX
  8
0
  6
CONTINUOUS
 10
4.123680
 20
3.516480
  0
VERTEX
  8
0
  6
CONTINUOUS
 10
4.173840
 20
3.503280
  0
VERTEX
  8
0
  6
CONTINUOUS
 10
4.220040
 20
3.483480
  0
VERTEX
  8
0
  6
CONTINUOUS
 10
4.261400
 20
3.458400
  0
VERTEX
  8
0
  6
CONTINUOUS
 10
4.297480
 20
3.428480
  0
VERTEX
  8
0
  6
CONTINUOUS
 10
4.328280
 20
3.394600
  0
VERTEX
  8
0
  6
CONTINUOUS
 10
4.353800
 20
3.358520
  0
VERTEX
  8
0
  6
CONTINUOUS
 10
4.374040
 20
3.320680
  0
VERTEX
  8
0
  6
CONTINUOUS
 10
4.388120
 20
3.282400
  0
VERTEX
  8
0
  6
CONTINUOUS
 10
4.396040
 20
3.244560
  0
VERTEX
  8
0
  6
CONTINUOUS
 10
4.397800
 20
3.207600
  0
VERTEX
  8
0
  6
CONTINUOUS
 10
4.392960
 20
3.173280
  0
VERTEX
  8
0
  6
CONTINUOUS
 10
4.381520
 20
3.142480
  0
VERTEX
  8
0
  6
CONTINUOUS
 10
4.362600
 20
3.115640
  0
VERTEX
  8
0
  6
CONTINUOUS
 10
4.337080
 20
3.094520
  0
VERTEX
  8
0
  6
CONTINUOUS
 10
4.303640
 20
3.079120
  0
VERTEX
  8
0
  6
CONTINUOUS
 10
4.262720
 20
3.071640
  0
VERTEX
  8
0
  6
CONTINUOUS
 10
4.262720
 20
3.034680
  0
SEQEND
  8
0
  0
TEXT
  8
0
 10
3.985960
 20
2.793120
 40
0.138178
  1
BA  1113
 41
1.000000
  7
SN0
 71
     0
 72
     5
 11
4.669243
 21
2.793120
  0
TEXT
  8
0
 10
3.876400
 20
2.601280
 40
0.138178
  1
3/4" x 1-1/2"
 41
1.000000
  7
SN0
 71
     0
 72
     5
 11
4.778147
 21
2.601280
  0
POLYLINE
  8
0
  6
CONTINUOUS
 66
     1
 40
0.014080
 41
0.014080
  0
VERTEX
  8
0
  6
CONTINUOUS
 10
7.205880
 20
4.302320
  0
VERTEX
  8
0
  6
CONTINUOUS
 10
7.205880
 20
3.674880
  0
VERTEX
  8
0
  6
CONTINUOUS
 10
5.684360
 20
3.674880
  0
VERTEX
  8
0
  6
CONTINUOUS
 10
5.684360
 20
3.873320
  0
VERTEX
  8
0
  6
CONTINUOUS
 10
5.858160
 20
3.873320
  0
VERTEX
  8
0
  6
CONTINUOUS
 10
5.859040
 20
3.895320
  0
VERTEX
  8
0
  6
CONTINUOUS
 10
5.861680
 20
3.916440
  0
VERTEX
  8
0
  6
CONTINUOUS
 10
5.865640
 20
3.936240
  0
VERTEX
  8
0
  6
CONTINUOUS
 10
5.877520
 20
3.971440
  0
VERTEX
  8
0
  6
CONTINUOUS
 10
5.894680
 20
4.001800
  0
VERTEX
  8
0
  6
CONTINUOUS
 10
5.916240
 20
4.026880
  0
VERTEX
  8
0
  6
CONTINUOUS
 10
5.940880
 20
4.046240
  0
VERTEX
  8
0
  6
CONTINUOUS
 10
5.968160
 20
4.060760
  0
VERTEX
  8
0
  6
CONTINUOUS
 10
5.996760
 20
4.070000
  0
VERTEX
  8
0
  6
CONTINUOUS
 10
6.026680
 20
4.073960
  0
VERTEX
  8
0
  6
CONTINUOUS
 10
6.057040
 20
4.072200
  0
VERTEX
  8
0
  6
CONTINUOUS
 10
6.071560
 20
4.069560
  0
VERTEX
  8
0
  6
CONTINUOUS
 10
6.100600
 20
4.059880
  0
VERTEX
  8
0
  6
CONTINUOUS
 10
6.127440
 20
4.044480
  0
VERTEX
  8
0
  6
CONTINUOUS
 10
6.152080
 20
4.023800
  0
VERTEX
  8
0
  6
CONTINUOUS
 10
6.172760
 20
3.997840
  0
VERTEX
  8
0
  6
CONTINUOUS
 10
6.182000
 20
3.982880
  0
VERTEX
  8
0
  6
CONTINUOUS
 10
6.196080
 20
3.948560
  0
VERTEX
  8
0
  6
CONTINUOUS
 10
6.201360
 20
3.929200
  0
VERTEX
  8
0
  6
CONTINUOUS
 10
6.236120
 20
3.926120
  0
VERTEX
  8
0
  6
CONTINUOUS
 10
6.270880
 20
3.925240
  0
VERTEX
  8
0
  6
CONTINUOUS
 10
6.305200
 20
3.926560
  0
VERTEX
  8
0
  6
CONTINUOUS
 10
6.339080
 20
3.929640
  0
VERTEX
  8
0
  6
CONTINUOUS
 10
6.388360
 20
3.938440
  0
VERTEX
  8
0
  6
CONTINUOUS
 10
6.435440
 20
3.952520
  0
VERTEX
  8
0
  6
CONTINUOUS
 10
6.465360
 20
3.964840
  0
VERTEX
  8
0
  6
CONTINUOUS
 10
6.506720
 20
3.988600
  0
VERTEX
  8
0
  6
CONTINUOUS
 10
6.531800
 20
4.007520
  0
VERTEX
  8
0
  6
CONTINUOUS
 10
6.555120
 20
4.029080
  0
VERTEX
  8
0
  6
CONTINUOUS
 10
6.575800
 20
4.053280
  0
VERTEX
  8
0
  6
CONTINUOUS
 10
6.593840
 20
4.081000
  0
VERTEX
  8
0
  6
CONTINUOUS
 10
6.609240
 20
4.111360
  0
VERTEX
  8
0
  6
CONTINUOUS
 10
6.621560
 20
4.144800
  0
VERTEX
  8
0
  6
CONTINUOUS
 10
6.626400
 20
4.162840
  0
VERTEX
  8
0
  6
CONTINUOUS
 10
6.724080
 20
4.162840
  0
VERTEX
  8
0
  6
CONTINUOUS
 10
6.729800
 20
4.188800
  0
VERTEX
  8
0
  6
CONTINUOUS
 10
6.737280
 20
4.213440
  0
VERTEX
  8
0
  6
CONTINUOUS
 10
6.757080
 20
4.259200
  0
VERTEX
  8
0
  6
CONTINUOUS
 10
6.782160
 20
4.300560
  0
VERTEX
  8
0
  6
CONTINUOUS
 10
6.812080
 20
4.336640
  0
VERTEX
  8
0
  6
CONTINUOUS
 10
6.845960
 20
4.367440
  0
VERTEX
  8
0
  6
CONTINUOUS
 10
6.882040
 20
4.393400
  0
VERTEX
  8
0
  6
CONTINUOUS
 10
6.919880
 20
4.413200
  0
VERTEX
  8
0
  6
CONTINUOUS
 10
6.938800
 20
4.421120
  0
VERTEX
  8
0
  6
CONTINUOUS
 10
6.977080
 20
4.432120
  0
VERTEX
  8
0
  6
CONTINUOUS
 10
7.014480
 20
4.436960
  0
VERTEX
  8
0
  6
CONTINUOUS
 10
7.032520
 20
4.436960
  0
VERTEX
  8
0
  6
CONTINUOUS
 10
7.050120
 20
4.435640
  0
VERTEX
  8
0
  6
CONTINUOUS
 10
7.083120
 20
4.427280
  0
VERTEX
  8
0
  6
CONTINUOUS
 10
7.098080
 20
4.420680
  0
VERTEX
  8
0
  6
CONTINUOUS
 10
7.112160
 20
4.412320
  0
VERTEX
  8
0
  6
CONTINUOUS
 10
7.124920
 20
4.402200
  0
VERTEX
  8
0
  6
CONTINUOUS
 10
7.146040
 20
4.376240
  0
VERTEX
  8
0
  6
CONTINUOUS
 10
7.157920
 20
4.352040
  0
VERTEX
  8
0
  6
CONTINUOUS
 10
7.165840
 20
4.323880
  0
VERTEX
  8
0
  6
CONTINUOUS
 10
7.168920
 20
4.302320
  0
VERTEX
  8
0
  6
CONTINUOUS
 10
7.205880
 20
4.302320
  0
SEQEND
  8
0
  0
TEXT
  8
0
 10
6.235240
 20
3.432000
 40
0.138178
  1
BA  1113
 41
1.000000
  7
SN0
 71
     0
 72
     5
 11
6.918523
 21
3.432000
  0
TEXT
  8
0
 10
6.125240
 20
3.240160
 40
0.138178
  1
3/4" x 1-1/2"
 41
1.000000
  7
SN0
 71
     0
 72
     5
 11
7.026987
 21
3.240160
  0
ENDSEC
  0
EOF
