  0
SECTION
  2
HEADER
  9
$ACADVER
  1
AC1006
  9
$EXTMIN
 10
3.182960
 20
0.854040
  9
$EXTMAX
 10
6.924280
 20
3.360280
  9
$LTSCALE
 40
0.044000
  9
$PDMODE
 70
    35
  9
$PDSIZE
 40
0.035200
  0
ENDSEC
  0
SECTION
  2
TABLES
  0
TABLE
  2
LTYPE
 70
     9
  0
LTYPE
  2
CONTINUOUS
 70
    64
  3
Solid line
 72
    65
 73
     0
 40
0.000000
  0
LTYPE
  2
DASHED
 70
    64
  3
__ __ __ __ __ __ __ __ __ __ __ __ __ __ __
 72
    65
 73
     2
 40
0.000330
 49
0.000220
 49
-0.000110
  0
LTYPE
  2
HIDDEN
 70
    64
  3
 _ _ _ _ _ _ _ _ _ _ _ _ _ _ _ _ _ _ _ _ _ _
 72
    65
 73
     2
 40
0.000165
 49
0.000110
 49
-0.000055
  0
LTYPE
  2
CENTER
 70
    64
  3
____ _ ____ _ ____ _ ____ _ ____ _ ____ _ ____
 72
    65
 73
     4
 40
0.000880
 49
0.000550
 49
-0.000110
 49
0.000110
 49
-0.000110
  0
LTYPE
  2
PHANTOM
 70
    64
  3
_____ _ _ _____ _ _ _____ _ _ _____ _ _ ____
 72
    65
 73
     6
 40
0.001100
 49
0.000550
 49
-0.000110
 49
0.000110
 49
-0.000110
 49
0.000110
 49
-0.000110
  0
LTYPE
  2
DOT
 70
    64
  3
...............................................
 72
    65
 73
     2
 40
0.000110
 49
0.000000
 49
-0.000110
  0
LTYPE
  2
DASHDOT
 70
    64
  3
__ . __ . __ . __ . __ . __ . __ . __ . __ . __
 72
    65
 73
     4
 40
0.000440
 49
0.000220
 49
-0.000110
 49
0.000000
 49
-0.000110
  0
LTYPE
  2
BORDER
 70
    64
  3
__ __ . __ __ . __ __ . __ __ . __ __ . __ __
 72
    65
 73
     6
 40
0.000770
 49
0.000220
 49
-0.000110
 49
0.000220
 49
-0.000110
 49
0.000000
 49
-0.000110
  0
LTYPE
  2
DIVIDE
 70
    64
  3
__ . . __ . . __ . . __ . . __ . . __ . . __
 72
    65
 73
     6
 40
0.000550
 49
0.000220
 49
-0.000110
 49
0.000000
 49
-0.000110
 49
0.000000
 49
-0.000110
  0
LTYPE
  2
DOTDOT
 70
    64
  3
 . .  . .  . .  . .  . .  . . 
 72
    65
 73
     5
 40
0.000242
 49
-0.000110
 49
0.000000
 49
-0.000110
 49
0.000000
 49
-0.000110
  0
ENDTAB
  0
TABLE
  2
STYLE
 70
     2
  0
STYLE
 70
     0
  2
SN0
 40
0.000000
 41
0.000440
 50
0.000000
 71
     0
 42
0.000000
  3
ROMAND
  0
STYLE
 70
    68
  2
SV0
 40
0.000000
 41
0.000440
 50
0.000000
 71
     0
 42
0.000000
  3
ROMAND
  0
ENDTAB
  0
TABLE
  2
LAYER
 70
     3
  0
LAYER
  2
FOREGROUND
 70
    64
 62
     7
  6
CONTINUOUS
  0
LAYER
  2
BACKGROUND
 70
    65
 62
    -7
  6
CONTINUOUS
  0
LAYER
  2
0
 70
    64
 62
     7
  6
CONTINUOUS
  0
ENDTAB
  0
ENDSEC
  0
SECTION
  2
ENTITIES
  0
POLYLINE
  8
FOREGROUND
  6
CONTINUOUS
 66
     1
 40
0.000000
 41
0.000000
  0
VERTEX
  8
FOREGROUND
  6
CONTINUOUS
 10
0.000000
 20
4.214320
  0
VERTEX
  8
FOREGROUND
  6
CONTINUOUS
 10
8.499920
 20
4.214320
  0
VERTEX
  8
FOREGROUND
  6
CONTINUOUS
 10
8.499920
 20
-6.785680
  0
VERTEX
  8
FOREGROUND
  6
CONTINUOUS
 10
0.000000
 20
-6.785680
  0
VERTEX
  8
FOREGROUND
  6
CONTINUOUS
 10
0.000000
 20
4.214320
  0
SEQEND
  8
0
  0
POLYLINE
  8
FOREGROUND
  6
CONTINUOUS
 66
     1
 40
0.000000
 41
0.000000
  0
VERTEX
  8
FOREGROUND
  6
CONTINUOUS
 10
0.000000
 20
4.214320
  0
VERTEX
  8
FOREGROUND
  6
CONTINUOUS
 10
8.499920
 20
4.214320
  0
VERTEX
  8
FOREGROUND
  6
CONTINUOUS
 10
8.499920
 20
-6.785680
  0
VERTEX
  8
FOREGROUND
  6
CONTINUOUS
 10
0.000000
 20
-6.785680
  0
VERTEX
  8
FOREGROUND
  6
CONTINUOUS
 10
0.000000
 20
4.214320
  0
SEQEND
  8
0
  0
SOLID
  8
0
 62
     7
 10
3.674440
 20
2.050400
 11
4.322120
 21
2.428360
 12
3.684560
 22
2.038960
 13
4.332240
 23
2.416920
  0
POLYLINE
  8
0
  6
CONTINUOUS
 66
     1
 40
0.000000
 41
0.000000
  0
VERTEX
  8
0
  6
CONTINUOUS
 10
3.674440
 20
2.050400
  0
VERTEX
  8
0
  6
CONTINUOUS
 10
4.322120
 20
2.428360
  0
VERTEX
  8
0
  6
CONTINUOUS
 10
4.332240
 20
2.416920
  0
VERTEX
  8
0
  6
CONTINUOUS
 10
3.684560
 20
2.038960
  0
VERTEX
  8
0
  6
CONTINUOUS
 10
3.674440
 20
2.050400
  0
SEQEND
  8
0
  0
SOLID
  8
0
 62
    15
 10
3.343560
 20
2.973080
 11
3.991240
 21
3.351040
 12
3.393720
 22
2.960320
 13
4.040960
 23
3.337840
  0
POLYLINE
  8
0
  6
CONTINUOUS
 66
     1
 40
0.000000
 41
0.000000
  0
VERTEX
  8
0
  6
CONTINUOUS
 10
3.343560
 20
2.973080
  0
VERTEX
  8
0
  6
CONTINUOUS
 10
3.991240
 20
3.351040
  0
VERTEX
  8
0
  6
CONTINUOUS
 10
4.040960
 20
3.337840
  0
VERTEX
  8
0
  6
CONTINUOUS
 10
3.393720
 20
2.960320
  0
VERTEX
  8
0
  6
CONTINUOUS
 10
3.343560
 20
2.973080
  0
SEQEND
  8
0
  0
SOLID
  8
0
 62
    15
 10
3.393720
 20
2.960320
 11
4.040960
 21
3.337840
 12
3.437720
 22
2.943160
 13
4.085400
 23
3.320680
  0
POLYLINE
  8
0
  6
CONTINUOUS
 66
     1
 40
0.000000
 41
0.000000
  0
VERTEX
  8
0
  6
CONTINUOUS
 10
3.393720
 20
2.960320
  0
VERTEX
  8
0
  6
CONTINUOUS
 10
4.040960
 20
3.337840
  0
VERTEX
  8
0
  6
CONTINUOUS
 10
4.085400
 20
3.320680
  0
VERTEX
  8
0
  6
CONTINUOUS
 10
3.437720
 20
2.943160
  0
VERTEX
  8
0
  6
CONTINUOUS
 10
3.393720
 20
2.960320
  0
SEQEND
  8
0
  0
SOLID
  8
0
 62
    15
 10
3.437720
 20
2.943160
 11
4.085400
 21
3.320680
 12
3.476880
 22
2.921600
 13
4.124120
 23
3.299560
  0
POLYLINE
  8
0
  6
CONTINUOUS
 66
     1
 40
0.000000
 41
0.000000
  0
VERTEX
  8
0
  6
CONTINUOUS
 10
3.437720
 20
2.943160
  0
VERTEX
  8
0
  6
CONTINUOUS
 10
4.085400
 20
3.320680
  0
VERTEX
  8
0
  6
CONTINUOUS
 10
4.124120
 20
3.299560
  0
VERTEX
  8
0
  6
CONTINUOUS
 10
3.476880
 20
2.921600
  0
VERTEX
  8
0
  6
CONTINUOUS
 10
3.437720
 20
2.943160
  0
SEQEND
  8
0
  0
SOLID
  8
0
 62
    15
 10
3.476880
 20
2.921600
 11
4.124120
 21
3.299560
 12
3.510760
 22
2.896520
 13
4.158000
 23
3.274040
  0
POLYLINE
  8
0
  6
CONTINUOUS
 66
     1
 40
0.000000
 41
0.000000
  0
VERTEX
  8
0
  6
CONTINUOUS
 10
3.476880
 20
2.921600
  0
VERTEX
  8
0
  6
CONTINUOUS
 10
4.124120
 20
3.299560
  0
VERTEX
  8
0
  6
CONTINUOUS
 10
4.158000
 20
3.274040
  0
VERTEX
  8
0
  6
CONTINUOUS
 10
3.510760
 20
2.896520
  0
VERTEX
  8
0
  6
CONTINUOUS
 10
3.476880
 20
2.921600
  0
SEQEND
  8
0
  0
SOLID
  8
0
 62
    15
 10
3.510760
 20
2.896520
 11
4.158000
 21
3.274040
 12
3.539360
 22
2.867920
 13
4.187040
 23
3.245440
  0
POLYLINE
  8
0
  6
CONTINUOUS
 66
     1
 40
0.000000
 41
0.000000
  0
VERTEX
  8
0
  6
CONTINUOUS
 10
3.510760
 20
2.896520
  0
VERTEX
  8
0
  6
CONTINUOUS
 10
4.158000
 20
3.274040
  0
VERTEX
  8
0
  6
CONTINUOUS
 10
4.187040
 20
3.245440
  0
VERTEX
  8
0
  6
CONTINUOUS
 10
3.539360
 20
2.867920
  0
VERTEX
  8
0
  6
CONTINUOUS
 10
3.510760
 20
2.896520
  0
SEQEND
  8
0
  0
SOLID
  8
0
 62
    15
 10
3.539360
 20
2.867920
 11
4.187040
 21
3.245440
 12
3.563560
 22
2.835800
 13
4.210800
 23
3.213760
  0
POLYLINE
  8
0
  6
CONTINUOUS
 66
     1
 40
0.000000
 41
0.000000
  0
VERTEX
  8
0
  6
CONTINUOUS
 10
3.539360
 20
2.867920
  0
VERTEX
  8
0
  6
CONTINUOUS
 10
4.187040
 20
3.245440
  0
VERTEX
  8
0
  6
CONTINUOUS
 10
4.210800
 20
3.213760
  0
VERTEX
  8
0
  6
CONTINUOUS
 10
3.563560
 20
2.835800
  0
VERTEX
  8
0
  6
CONTINUOUS
 10
3.539360
 20
2.867920
  0
SEQEND
  8
0
  0
SOLID
  8
0
 62
    15
 10
3.563560
 20
2.835800
 11
4.210800
 21
3.213760
 12
3.582920
 22
2.801040
 13
4.230600
 23
3.178560
  0
POLYLINE
  8
0
  6
CONTINUOUS
 66
     1
 40
0.000000
 41
0.000000
  0
VERTEX
  8
0
  6
CONTINUOUS
 10
3.563560
 20
2.835800
  0
VERTEX
  8
0
  6
CONTINUOUS
 10
4.210800
 20
3.213760
  0
VERTEX
  8
0
  6
CONTINUOUS
 10
4.230600
 20
3.178560
  0
VERTEX
  8
0
  6
CONTINUOUS
 10
3.582920
 20
2.801040
  0
VERTEX
  8
0
  6
CONTINUOUS
 10
3.563560
 20
2.835800
  0
SEQEND
  8
0
  0
SOLID
  8
0
 62
    15
 10
3.582920
 20
2.801040
 11
4.230600
 21
3.178560
 12
3.598320
 22
2.763200
 13
4.245560
 23
3.140720
  0
POLYLINE
  8
0
  6
CONTINUOUS
 66
     1
 40
0.000000
 41
0.000000
  0
VERTEX
  8
0
  6
CONTINUOUS
 10
3.582920
 20
2.801040
  0
VERTEX
  8
0
  6
CONTINUOUS
 10
4.230600
 20
3.178560
  0
VERTEX
  8
0
  6
CONTINUOUS
 10
4.245560
 20
3.140720
  0
VERTEX
  8
0
  6
CONTINUOUS
 10
3.598320
 20
2.763200
  0
VERTEX
  8
0
  6
CONTINUOUS
 10
3.582920
 20
2.801040
  0
SEQEND
  8
0
  0
SOLID
  8
0
 62
    15
 10
3.598320
 20
2.763200
 11
4.245560
 21
3.140720
 12
3.608880
 22
2.722720
 13
4.256560
 23
3.100240
  0
POLYLINE
  8
0
  6
CONTINUOUS
 66
     1
 40
0.000000
 41
0.000000
  0
VERTEX
  8
0
  6
CONTINUOUS
 10
3.598320
 20
2.763200
  0
VERTEX
  8
0
  6
CONTINUOUS
 10
4.245560
 20
3.140720
  0
VERTEX
  8
0
  6
CONTINUOUS
 10
4.256560
 20
3.100240
  0
VERTEX
  8
0
  6
CONTINUOUS
 10
3.608880
 20
2.722720
  0
VERTEX
  8
0
  6
CONTINUOUS
 10
3.598320
 20
2.763200
  0
SEQEND
  8
0
  0
SOLID
  8
0
 62
    15
 10
3.608880
 20
2.722720
 11
4.256560
 21
3.100240
 12
3.615920
 22
2.679600
 13
4.263160
 23
3.057560
  0
POLYLINE
  8
0
  6
CONTINUOUS
 66
     1
 40
0.000000
 41
0.000000
  0
VERTEX
  8
0
  6
CONTINUOUS
 10
3.608880
 20
2.722720
  0
VERTEX
  8
0
  6
CONTINUOUS
 10
4.256560
 20
3.100240
  0
VERTEX
  8
0
  6
CONTINUOUS
 10
4.263160
 20
3.057560
  0
VERTEX
  8
0
  6
CONTINUOUS
 10
3.615920
 20
2.679600
  0
VERTEX
  8
0
  6
CONTINUOUS
 10
3.608880
 20
2.722720
  0
SEQEND
  8
0
  0
SOLID
  8
0
 62
    15
 10
3.615920
 20
2.679600
 11
4.263160
 21
3.057560
 12
3.618560
 22
2.634720
 13
4.266240
 23
3.012680
  0
POLYLINE
  8
0
  6
CONTINUOUS
 66
     1
 40
0.000000
 41
0.000000
  0
VERTEX
  8
0
  6
CONTINUOUS
 10
3.615920
 20
2.679600
  0
VERTEX
  8
0
  6
CONTINUOUS
 10
4.263160
 20
3.057560
  0
VERTEX
  8
0
  6
CONTINUOUS
 10
4.266240
 20
3.012680
  0
VERTEX
  8
0
  6
CONTINUOUS
 10
3.618560
 20
2.634720
  0
VERTEX
  8
0
  6
CONTINUOUS
 10
3.615920
 20
2.679600
  0
SEQEND
  8
0
  0
SOLID
  8
0
 62
    15
 10
3.618560
 20
2.634720
 11
4.266240
 21
3.012680
 12
3.618120
 22
2.588080
 13
4.265360
 23
2.965600
  0
POLYLINE
  8
0
  6
CONTINUOUS
 66
     1
 40
0.000000
 41
0.000000
  0
VERTEX
  8
0
  6
CONTINUOUS
 10
3.618560
 20
2.634720
  0
VERTEX
  8
0
  6
CONTINUOUS
 10
4.266240
 20
3.012680
  0
VERTEX
  8
0
  6
CONTINUOUS
 10
4.265360
 20
2.965600
  0
VERTEX
  8
0
  6
CONTINUOUS
 10
3.618120
 20
2.588080
  0
VERTEX
  8
0
  6
CONTINUOUS
 10
3.618560
 20
2.634720
  0
SEQEND
  8
0
  0
SOLID
  8
0
 62
    15
 10
3.618120
 20
2.588080
 11
4.265360
 21
2.965600
 12
3.613720
 22
2.539680
 13
4.261400
 23
2.917200
  0
POLYLINE
  8
0
  6
CONTINUOUS
 66
     1
 40
0.000000
 41
0.000000
  0
VERTEX
  8
0
  6
CONTINUOUS
 10
3.618120
 20
2.588080
  0
VERTEX
  8
0
  6
CONTINUOUS
 10
4.265360
 20
2.965600
  0
VERTEX
  8
0
  6
CONTINUOUS
 10
4.261400
 20
2.917200
  0
VERTEX
  8
0
  6
CONTINUOUS
 10
3.613720
 20
2.539680
  0
VERTEX
  8
0
  6
CONTINUOUS
 10
3.618120
 20
2.588080
  0
SEQEND
  8
0
  0
SOLID
  8
0
 62
    15
 10
3.613720
 20
2.539680
 11
4.261400
 21
2.917200
 12
3.606240
 22
2.489960
 13
4.253920
 23
2.867480
  0
POLYLINE
  8
0
  6
CONTINUOUS
 66
     1
 40
0.000000
 41
0.000000
  0
VERTEX
  8
0
  6
CONTINUOUS
 10
3.613720
 20
2.539680
  0
VERTEX
  8
0
  6
CONTINUOUS
 10
4.261400
 20
2.917200
  0
VERTEX
  8
0
  6
CONTINUOUS
 10
4.253920
 20
2.867480
  0
VERTEX
  8
0
  6
CONTINUOUS
 10
3.606240
 20
2.489960
  0
VERTEX
  8
0
  6
CONTINUOUS
 10
3.613720
 20
2.539680
  0
SEQEND
  8
0
  0
SOLID
  8
0
 62
    15
 10
3.606240
 20
2.489960
 11
4.253920
 21
2.867480
 12
3.595680
 22
2.438920
 13
4.242920
 23
2.816880
  0
POLYLINE
  8
0
  6
CONTINUOUS
 66
     1
 40
0.000000
 41
0.000000
  0
VERTEX
  8
0
  6
CONTINUOUS
 10
3.606240
 20
2.489960
  0
VERTEX
  8
0
  6
CONTINUOUS
 10
4.253920
 20
2.867480
  0
VERTEX
  8
0
  6
CONTINUOUS
 10
4.242920
 20
2.816880
  0
VERTEX
  8
0
  6
CONTINUOUS
 10
3.595680
 20
2.438920
  0
VERTEX
  8
0
  6
CONTINUOUS
 10
3.606240
 20
2.489960
  0
SEQEND
  8
0
  0
SOLID
  8
0
 62
    15
 10
3.595680
 20
2.438920
 11
4.242920
 21
2.816880
 12
3.586000
 22
2.389200
 13
4.233680
 23
2.766720
  0
POLYLINE
  8
0
  6
CONTINUOUS
 66
     1
 40
0.000000
 41
0.000000
  0
VERTEX
  8
0
  6
CONTINUOUS
 10
3.595680
 20
2.438920
  0
VERTEX
  8
0
  6
CONTINUOUS
 10
4.242920
 20
2.816880
  0
VERTEX
  8
0
  6
CONTINUOUS
 10
4.233680
 20
2.766720
  0
VERTEX
  8
0
  6
CONTINUOUS
 10
3.586000
 20
2.389200
  0
VERTEX
  8
0
  6
CONTINUOUS
 10
3.595680
 20
2.438920
  0
SEQEND
  8
0
  0
SOLID
  8
0
 62
    15
 10
3.586000
 20
2.389200
 11
4.233680
 21
2.766720
 12
3.581600
 22
2.342560
 13
4.228840
 23
2.720080
  0
POLYLINE
  8
0
  6
CONTINUOUS
 66
     1
 40
0.000000
 41
0.000000
  0
VERTEX
  8
0
  6
CONTINUOUS
 10
3.586000
 20
2.389200
  0
VERTEX
  8
0
  6
CONTINUOUS
 10
4.233680
 20
2.766720
  0
VERTEX
  8
0
  6
CONTINUOUS
 10
4.228840
 20
2.720080
  0
VERTEX
  8
0
  6
CONTINUOUS
 10
3.581600
 20
2.342560
  0
VERTEX
  8
0
  6
CONTINUOUS
 10
3.586000
 20
2.389200
  0
SEQEND
  8
0
  0
SOLID
  8
0
 62
    15
 10
3.581600
 20
2.342560
 11
4.228840
 21
2.720080
 12
3.581160
 22
2.299000
 13
4.228840
 23
2.676520
  0
POLYLINE
  8
0
  6
CONTINUOUS
 66
     1
 40
0.000000
 41
0.000000
  0
VERTEX
  8
0
  6
CONTINUOUS
 10
3.581600
 20
2.342560
  0
VERTEX
  8
0
  6
CONTINUOUS
 10
4.228840
 20
2.720080
  0
VERTEX
  8
0
  6
CONTINUOUS
 10
4.228840
 20
2.676520
  0
VERTEX
  8
0
  6
CONTINUOUS
 10
3.581160
 20
2.299000
  0
VERTEX
  8
0
  6
CONTINUOUS
 10
3.581600
 20
2.342560
  0
SEQEND
  8
0
  0
SOLID
  8
0
 62
    15
 10
3.581160
 20
2.299000
 11
4.228840
 21
2.676520
 12
3.584680
 22
2.258520
 13
4.231920
 23
2.636480
  0
POLYLINE
  8
0
  6
CONTINUOUS
 66
     1
 40
0.000000
 41
0.000000
  0
VERTEX
  8
0
  6
CONTINUOUS
 10
3.581160
 20
2.299000
  0
VERTEX
  8
0
  6
CONTINUOUS
 10
4.228840
 20
2.676520
  0
VERTEX
  8
0
  6
CONTINUOUS
 10
4.231920
 20
2.636480
  0
VERTEX
  8
0
  6
CONTINUOUS
 10
3.584680
 20
2.258520
  0
VERTEX
  8
0
  6
CONTINUOUS
 10
3.581160
 20
2.299000
  0
SEQEND
  8
0
  0
SOLID
  8
0
 62
    15
 10
3.584680
 20
2.258520
 11
4.231920
 21
2.636480
 12
3.591280
 22
2.221560
 13
4.238520
 23
2.599080
  0
POLYLINE
  8
0
  6
CONTINUOUS
 66
     1
 40
0.000000
 41
0.000000
  0
VERTEX
  8
0
  6
CONTINUOUS
 10
3.584680
 20
2.258520
  0
VERTEX
  8
0
  6
CONTINUOUS
 10
4.231920
 20
2.636480
  0
VERTEX
  8
0
  6
CONTINUOUS
 10
4.238520
 20
2.599080
  0
VERTEX
  8
0
  6
CONTINUOUS
 10
3.591280
 20
2.221560
  0
VERTEX
  8
0
  6
CONTINUOUS
 10
3.584680
 20
2.258520
  0
SEQEND
  8
0
  0
SOLID
  8
0
 62
    15
 10
3.591280
 20
2.221560
 11
4.238520
 21
2.599080
 12
3.600080
 22
2.187240
 13
4.247760
 23
2.565200
  0
POLYLINE
  8
0
  6
CONTINUOUS
 66
     1
 40
0.000000
 41
0.000000
  0
VERTEX
  8
0
  6
CONTINUOUS
 10
3.591280
 20
2.221560
  0
VERTEX
  8
0
  6
CONTINUOUS
 10
4.238520
 20
2.599080
  0
VERTEX
  8
0
  6
CONTINUOUS
 10
4.247760
 20
2.565200
  0
VERTEX
  8
0
  6
CONTINUOUS
 10
3.600080
 20
2.187240
  0
VERTEX
  8
0
  6
CONTINUOUS
 10
3.591280
 20
2.221560
  0
SEQEND
  8
0
  0
SOLID
  8
0
 62
     7
 10
3.600080
 20
2.187240
 11
4.247760
 21
2.565200
 12
3.611080
 22
2.156440
 13
4.258760
 23
2.534400
  0
POLYLINE
  8
0
  6
CONTINUOUS
 66
     1
 40
0.000000
 41
0.000000
  0
VERTEX
  8
0
  6
CONTINUOUS
 10
3.600080
 20
2.187240
  0
VERTEX
  8
0
  6
CONTINUOUS
 10
4.247760
 20
2.565200
  0
VERTEX
  8
0
  6
CONTINUOUS
 10
4.258760
 20
2.534400
  0
VERTEX
  8
0
  6
CONTINUOUS
 10
3.611080
 20
2.156440
  0
VERTEX
  8
0
  6
CONTINUOUS
 10
3.600080
 20
2.187240
  0
SEQEND
  8
0
  0
SOLID
  8
0
 62
     7
 10
3.611080
 20
2.156440
 11
4.258760
 21
2.534400
 12
3.623400
 22
2.128720
 13
4.271080
 23
2.506680
  0
POLYLINE
  8
0
  6
CONTINUOUS
 66
     1
 40
0.000000
 41
0.000000
  0
VERTEX
  8
0
  6
CONTINUOUS
 10
3.611080
 20
2.156440
  0
VERTEX
  8
0
  6
CONTINUOUS
 10
4.258760
 20
2.534400
  0
VERTEX
  8
0
  6
CONTINUOUS
 10
4.271080
 20
2.506680
  0
VERTEX
  8
0
  6
CONTINUOUS
 10
3.623400
 20
2.128720
  0
VERTEX
  8
0
  6
CONTINUOUS
 10
3.611080
 20
2.156440
  0
SEQEND
  8
0
  0
SOLID
  8
0
 62
     7
 10
3.623400
 20
2.128720
 11
4.271080
 21
2.506680
 12
3.649800
 22
2.083400
 13
4.297480
 23
2.460920
  0
POLYLINE
  8
0
  6
CONTINUOUS
 66
     1
 40
0.000000
 41
0.000000
  0
VERTEX
  8
0
  6
CONTINUOUS
 10
3.623400
 20
2.128720
  0
VERTEX
  8
0
  6
CONTINUOUS
 10
4.271080
 20
2.506680
  0
VERTEX
  8
0
  6
CONTINUOUS
 10
4.297480
 20
2.460920
  0
VERTEX
  8
0
  6
CONTINUOUS
 10
3.649800
 20
2.083400
  0
VERTEX
  8
0
  6
CONTINUOUS
 10
3.623400
 20
2.128720
  0
SEQEND
  8
0
  0
SOLID
  8
0
 62
     7
 10
3.649800
 20
2.083400
 11
4.297480
 21
2.460920
 12
3.662560
 22
2.065360
 13
4.310240
 23
2.442880
  0
POLYLINE
  8
0
  6
CONTINUOUS
 66
     1
 40
0.000000
 41
0.000000
  0
VERTEX
  8
0
  6
CONTINUOUS
 10
3.649800
 20
2.083400
  0
VERTEX
  8
0
  6
CONTINUOUS
 10
4.297480
 20
2.460920
  0
VERTEX
  8
0
  6
CONTINUOUS
 10
4.310240
 20
2.442880
  0
VERTEX
  8
0
  6
CONTINUOUS
 10
3.662560
 20
2.065360
  0
VERTEX
  8
0
  6
CONTINUOUS
 10
3.649800
 20
2.083400
  0
SEQEND
  8
0
  0
SOLID
  8
0
 62
     7
 10
3.662560
 20
2.065360
 11
4.310240
 21
2.442880
 12
3.674440
 22
2.050400
 13
4.322120
 23
2.428360
  0
POLYLINE
  8
0
  6
CONTINUOUS
 66
     1
 40
0.000000
 41
0.000000
  0
VERTEX
  8
0
  6
CONTINUOUS
 10
3.662560
 20
2.065360
  0
VERTEX
  8
0
  6
CONTINUOUS
 10
4.310240
 20
2.442880
  0
VERTEX
  8
0
  6
CONTINUOUS
 10
4.322120
 20
2.428360
  0
VERTEX
  8
0
  6
CONTINUOUS
 10
3.674440
 20
2.050400
  0
VERTEX
  8
0
  6
CONTINUOUS
 10
3.662560
 20
2.065360
  0
SEQEND
  8
0
  0
SOLID
  8
0
 62
    15
 10
3.288120
 20
2.981880
 11
3.935800
 21
3.359400
 12
3.343560
 22
2.973080
 13
3.991240
 23
3.351040
  0
POLYLINE
  8
0
  6
CONTINUOUS
 66
     1
 40
0.000000
 41
0.000000
  0
VERTEX
  8
0
  6
CONTINUOUS
 10
3.288120
 20
2.981880
  0
VERTEX
  8
0
  6
CONTINUOUS
 10
3.935800
 20
3.359400
  0
VERTEX
  8
0
  6
CONTINUOUS
 10
3.991240
 20
3.351040
  0
VERTEX
  8
0
  6
CONTINUOUS
 10
3.343560
 20
2.973080
  0
VERTEX
  8
0
  6
CONTINUOUS
 10
3.288120
 20
2.981880
  0
SEQEND
  8
0
  0
SOLID
  8
0
 62
     7
 10
3.684560
 20
2.038960
 11
4.332240
 21
2.416920
 12
3.692920
 22
2.031040
 13
4.340160
 23
2.408560
  0
POLYLINE
  8
0
  6
CONTINUOUS
 66
     1
 40
0.000000
 41
0.000000
  0
VERTEX
  8
0
  6
CONTINUOUS
 10
3.684560
 20
2.038960
  0
VERTEX
  8
0
  6
CONTINUOUS
 10
4.332240
 20
2.416920
  0
VERTEX
  8
0
  6
CONTINUOUS
 10
4.340160
 20
2.408560
  0
VERTEX
  8
0
  6
CONTINUOUS
 10
3.692920
 20
2.031040
  0
VERTEX
  8
0
  6
CONTINUOUS
 10
3.684560
 20
2.038960
  0
SEQEND
  8
0
  0
SOLID
  8
0
 62
     7
 10
3.692920
 20
2.031040
 11
4.340160
 21
2.408560
 12
3.698200
 22
2.025760
 13
4.345440
 23
2.403720
  0
POLYLINE
  8
0
  6
CONTINUOUS
 66
     1
 40
0.000000
 41
0.000000
  0
VERTEX
  8
0
  6
CONTINUOUS
 10
3.692920
 20
2.031040
  0
VERTEX
  8
0
  6
CONTINUOUS
 10
4.340160
 20
2.408560
  0
VERTEX
  8
0
  6
CONTINUOUS
 10
4.345440
 20
2.403720
  0
VERTEX
  8
0
  6
CONTINUOUS
 10
3.698200
 20
2.025760
  0
VERTEX
  8
0
  6
CONTINUOUS
 10
3.692920
 20
2.031040
  0
SEQEND
  8
0
  0
SOLID
  8
0
 62
     7
 10
3.698200
 20
2.025760
 11
4.345440
 21
2.403720
 12
3.699960
 22
2.024440
 13
4.347200
 23
2.401960
  0
POLYLINE
  8
0
  6
CONTINUOUS
 66
     1
 40
0.000000
 41
0.000000
  0
VERTEX
  8
0
  6
CONTINUOUS
 10
3.698200
 20
2.025760
  0
VERTEX
  8
0
  6
CONTINUOUS
 10
4.345440
 20
2.403720
  0
VERTEX
  8
0
  6
CONTINUOUS
 10
4.347200
 20
2.401960
  0
VERTEX
  8
0
  6
CONTINUOUS
 10
3.699960
 20
2.024440
  0
VERTEX
  8
0
  6
CONTINUOUS
 10
3.698200
 20
2.025760
  0
SEQEND
  8
0
  0
SOLID
  8
0
 62
     7
 10
3.699960
 20
2.024440
 11
4.347200
 21
2.401960
 12
3.702160
 22
2.021800
 13
4.349840
 23
2.399320
  0
POLYLINE
  8
0
  6
CONTINUOUS
 66
     1
 40
0.000000
 41
0.000000
  0
VERTEX
  8
0
  6
CONTINUOUS
 10
3.699960
 20
2.024440
  0
VERTEX
  8
0
  6
CONTINUOUS
 10
4.347200
 20
2.401960
  0
VERTEX
  8
0
  6
CONTINUOUS
 10
4.349840
 20
2.399320
  0
VERTEX
  8
0
  6
CONTINUOUS
 10
3.702160
 20
2.021800
  0
VERTEX
  8
0
  6
CONTINUOUS
 10
3.699960
 20
2.024440
  0
SEQEND
  8
0
  0
SOLID
  8
0
 62
     7
 10
3.702160
 20
2.021800
 11
4.349840
 21
2.399320
 12
3.708760
 22
2.013880
 13
4.356000
 23
2.391400
  0
POLYLINE
  8
0
  6
CONTINUOUS
 66
     1
 40
0.000000
 41
0.000000
  0
VERTEX
  8
0
  6
CONTINUOUS
 10
3.702160
 20
2.021800
  0
VERTEX
  8
0
  6
CONTINUOUS
 10
4.349840
 20
2.399320
  0
VERTEX
  8
0
  6
CONTINUOUS
 10
4.356000
 20
2.391400
  0
VERTEX
  8
0
  6
CONTINUOUS
 10
3.708760
 20
2.013880
  0
VERTEX
  8
0
  6
CONTINUOUS
 10
3.702160
 20
2.021800
  0
SEQEND
  8
0
  0
SOLID
  8
0
 62
     7
 10
3.708760
 20
2.013880
 11
4.356000
 21
2.391400
 12
3.718440
 22
2.001120
 13
4.365680
 23
2.379080
  0
POLYLINE
  8
0
  6
CONTINUOUS
 66
     1
 40
0.000000
 41
0.000000
  0
VERTEX
  8
0
  6
CONTINUOUS
 10
3.708760
 20
2.013880
  0
VERTEX
  8
0
  6
CONTINUOUS
 10
4.356000
 20
2.391400
  0
VERTEX
  8
0
  6
CONTINUOUS
 10
4.365680
 20
2.379080
  0
VERTEX
  8
0
  6
CONTINUOUS
 10
3.718440
 20
2.001120
  0
VERTEX
  8
0
  6
CONTINUOUS
 10
3.708760
 20
2.013880
  0
SEQEND
  8
0
  0
SOLID
  8
0
 62
     7
 10
3.718440
 20
2.001120
 11
4.365680
 21
2.379080
 12
3.730760
 22
1.983960
 13
4.378000
 23
2.361920
  0
POLYLINE
  8
0
  6
CONTINUOUS
 66
     1
 40
0.000000
 41
0.000000
  0
VERTEX
  8
0
  6
CONTINUOUS
 10
3.718440
 20
2.001120
  0
VERTEX
  8
0
  6
CONTINUOUS
 10
4.365680
 20
2.379080
  0
VERTEX
  8
0
  6
CONTINUOUS
 10
4.378000
 20
2.361920
  0
VERTEX
  8
0
  6
CONTINUOUS
 10
3.730760
 20
1.983960
  0
VERTEX
  8
0
  6
CONTINUOUS
 10
3.718440
 20
2.001120
  0
SEQEND
  8
0
  0
SOLID
  8
0
 62
     7
 10
3.730760
 20
1.983960
 11
4.378000
 21
2.361920
 12
3.744840
 22
1.962400
 13
4.392520
 23
2.340360
  0
POLYLINE
  8
0
  6
CONTINUOUS
 66
     1
 40
0.000000
 41
0.000000
  0
VERTEX
  8
0
  6
CONTINUOUS
 10
3.730760
 20
1.983960
  0
VERTEX
  8
0
  6
CONTINUOUS
 10
4.378000
 20
2.361920
  0
VERTEX
  8
0
  6
CONTINUOUS
 10
4.392520
 20
2.340360
  0
VERTEX
  8
0
  6
CONTINUOUS
 10
3.744840
 20
1.962400
  0
VERTEX
  8
0
  6
CONTINUOUS
 10
3.730760
 20
1.983960
  0
SEQEND
  8
0
  0
SOLID
  8
0
 62
     7
 10
3.744840
 20
1.962400
 11
4.392520
 21
2.340360
 12
3.760240
 22
1.937320
 13
4.407920
 23
2.314840
  0
POLYLINE
  8
0
  6
CONTINUOUS
 66
     1
 40
0.000000
 41
0.000000
  0
VERTEX
  8
0
  6
CONTINUOUS
 10
3.744840
 20
1.962400
  0
VERTEX
  8
0
  6
CONTINUOUS
 10
4.392520
 20
2.340360
  0
VERTEX
  8
0
  6
CONTINUOUS
 10
4.407920
 20
2.314840
  0
VERTEX
  8
0
  6
CONTINUOUS
 10
3.760240
 20
1.937320
  0
VERTEX
  8
0
  6
CONTINUOUS
 10
3.744840
 20
1.962400
  0
SEQEND
  8
0
  0
SOLID
  8
0
 62
     7
 10
3.760240
 20
1.937320
 11
4.407920
 21
2.314840
 12
3.776080
 22
1.908280
 13
4.423760
 23
2.285800
  0
POLYLINE
  8
0
  6
CONTINUOUS
 66
     1
 40
0.000000
 41
0.000000
  0
VERTEX
  8
0
  6
CONTINUOUS
 10
3.760240
 20
1.937320
  0
VERTEX
  8
0
  6
CONTINUOUS
 10
4.407920
 20
2.314840
  0
VERTEX
  8
0
  6
CONTINUOUS
 10
4.423760
 20
2.285800
  0
VERTEX
  8
0
  6
CONTINUOUS
 10
3.776080
 20
1.908280
  0
VERTEX
  8
0
  6
CONTINUOUS
 10
3.760240
 20
1.937320
  0
SEQEND
  8
0
  0
SOLID
  8
0
 62
     7
 10
3.776080
 20
1.908280
 11
4.423760
 21
2.285800
 12
3.791480
 22
1.875720
 13
4.439160
 23
2.253240
  0
POLYLINE
  8
0
  6
CONTINUOUS
 66
     1
 40
0.000000
 41
0.000000
  0
VERTEX
  8
0
  6
CONTINUOUS
 10
3.776080
 20
1.908280
  0
VERTEX
  8
0
  6
CONTINUOUS
 10
4.423760
 20
2.285800
  0
VERTEX
  8
0
  6
CONTINUOUS
 10
4.439160
 20
2.253240
  0
VERTEX
  8
0
  6
CONTINUOUS
 10
3.791480
 20
1.875720
  0
VERTEX
  8
0
  6
CONTINUOUS
 10
3.776080
 20
1.908280
  0
SEQEND
  8
0
  0
SOLID
  8
0
 62
     7
 10
3.791480
 20
1.875720
 11
4.439160
 21
2.253240
 12
3.806000
 22
1.840080
 13
4.453240
 23
2.217600
  0
POLYLINE
  8
0
  6
CONTINUOUS
 66
     1
 40
0.000000
 41
0.000000
  0
VERTEX
  8
0
  6
CONTINUOUS
 10
3.791480
 20
1.875720
  0
VERTEX
  8
0
  6
CONTINUOUS
 10
4.439160
 20
2.253240
  0
VERTEX
  8
0
  6
CONTINUOUS
 10
4.453240
 20
2.217600
  0
VERTEX
  8
0
  6
CONTINUOUS
 10
3.806000
 20
1.840080
  0
VERTEX
  8
0
  6
CONTINUOUS
 10
3.791480
 20
1.875720
  0
SEQEND
  8
0
  0
SOLID
  8
0
 62
    15
 10
3.806000
 20
1.840080
 11
4.453240
 21
2.217600
 12
3.818320
 22
1.801800
 13
4.466000
 23
2.179320
  0
POLYLINE
  8
0
  6
CONTINUOUS
 66
     1
 40
0.000000
 41
0.000000
  0
VERTEX
  8
0
  6
CONTINUOUS
 10
3.806000
 20
1.840080
  0
VERTEX
  8
0
  6
CONTINUOUS
 10
4.453240
 20
2.217600
  0
VERTEX
  8
0
  6
CONTINUOUS
 10
4.466000
 20
2.179320
  0
VERTEX
  8
0
  6
CONTINUOUS
 10
3.818320
 20
1.801800
  0
VERTEX
  8
0
  6
CONTINUOUS
 10
3.806000
 20
1.840080
  0
SEQEND
  8
0
  0
SOLID
  8
0
 62
    15
 10
3.818320
 20
1.801800
 11
4.466000
 21
2.179320
 12
3.828440
 22
1.760880
 13
4.476120
 23
2.138400
  0
POLYLINE
  8
0
  6
CONTINUOUS
 66
     1
 40
0.000000
 41
0.000000
  0
VERTEX
  8
0
  6
CONTINUOUS
 10
3.818320
 20
1.801800
  0
VERTEX
  8
0
  6
CONTINUOUS
 10
4.466000
 20
2.179320
  0
VERTEX
  8
0
  6
CONTINUOUS
 10
4.476120
 20
2.138400
  0
VERTEX
  8
0
  6
CONTINUOUS
 10
3.828440
 20
1.760880
  0
VERTEX
  8
0
  6
CONTINUOUS
 10
3.818320
 20
1.801800
  0
SEQEND
  8
0
  0
SOLID
  8
0
 62
    15
 10
3.828440
 20
1.760880
 11
4.476120
 21
2.138400
 12
3.835040
 22
1.717760
 13
4.482720
 23
2.095720
  0
POLYLINE
  8
0
  6
CONTINUOUS
 66
     1
 40
0.000000
 41
0.000000
  0
VERTEX
  8
0
  6
CONTINUOUS
 10
3.828440
 20
1.760880
  0
VERTEX
  8
0
  6
CONTINUOUS
 10
4.476120
 20
2.138400
  0
VERTEX
  8
0
  6
CONTINUOUS
 10
4.482720
 20
2.095720
  0
VERTEX
  8
0
  6
CONTINUOUS
 10
3.835040
 20
1.717760
  0
VERTEX
  8
0
  6
CONTINUOUS
 10
3.828440
 20
1.760880
  0
SEQEND
  8
0
  0
SOLID
  8
0
 62
    15
 10
3.835040
 20
1.717760
 11
4.482720
 21
2.095720
 12
3.837680
 22
1.672880
 13
4.485360
 23
2.050400
  0
POLYLINE
  8
0
  6
CONTINUOUS
 66
     1
 40
0.000000
 41
0.000000
  0
VERTEX
  8
0
  6
CONTINUOUS
 10
3.835040
 20
1.717760
  0
VERTEX
  8
0
  6
CONTINUOUS
 10
4.482720
 20
2.095720
  0
VERTEX
  8
0
  6
CONTINUOUS
 10
4.485360
 20
2.050400
  0
VERTEX
  8
0
  6
CONTINUOUS
 10
3.837680
 20
1.672880
  0
VERTEX
  8
0
  6
CONTINUOUS
 10
3.835040
 20
1.717760
  0
SEQEND
  8
0
  0
SOLID
  8
0
 62
    15
 10
3.837680
 20
1.672880
 11
4.485360
 21
2.050400
 12
3.835920
 22
1.626240
 13
4.483160
 23
2.004200
  0
POLYLINE
  8
0
  6
CONTINUOUS
 66
     1
 40
0.000000
 41
0.000000
  0
VERTEX
  8
0
  6
CONTINUOUS
 10
3.837680
 20
1.672880
  0
VERTEX
  8
0
  6
CONTINUOUS
 10
4.485360
 20
2.050400
  0
VERTEX
  8
0
  6
CONTINUOUS
 10
4.483160
 20
2.004200
  0
VERTEX
  8
0
  6
CONTINUOUS
 10
3.835920
 20
1.626240
  0
VERTEX
  8
0
  6
CONTINUOUS
 10
3.837680
 20
1.672880
  0
SEQEND
  8
0
  0
SOLID
  8
0
 62
    15
 10
3.835920
 20
1.626240
 11
4.483160
 21
2.004200
 12
3.828000
 22
1.578280
 13
4.475680
 23
1.956240
  0
POLYLINE
  8
0
  6
CONTINUOUS
 66
     1
 40
0.000000
 41
0.000000
  0
VERTEX
  8
0
  6
CONTINUOUS
 10
3.835920
 20
1.626240
  0
VERTEX
  8
0
  6
CONTINUOUS
 10
4.483160
 20
2.004200
  0
VERTEX
  8
0
  6
CONTINUOUS
 10
4.475680
 20
1.956240
  0
VERTEX
  8
0
  6
CONTINUOUS
 10
3.828000
 20
1.578280
  0
VERTEX
  8
0
  6
CONTINUOUS
 10
3.835920
 20
1.626240
  0
SEQEND
  8
0
  0
SOLID
  8
0
 62
    15
 10
3.828000
 20
1.578280
 11
4.475680
 21
1.956240
 12
3.814360
 22
1.529440
 13
4.461600
 23
1.906960
  0
POLYLINE
  8
0
  6
CONTINUOUS
 66
     1
 40
0.000000
 41
0.000000
  0
VERTEX
  8
0
  6
CONTINUOUS
 10
3.828000
 20
1.578280
  0
VERTEX
  8
0
  6
CONTINUOUS
 10
4.475680
 20
1.956240
  0
VERTEX
  8
0
  6
CONTINUOUS
 10
4.461600
 20
1.906960
  0
VERTEX
  8
0
  6
CONTINUOUS
 10
3.814360
 20
1.529440
  0
VERTEX
  8
0
  6
CONTINUOUS
 10
3.828000
 20
1.578280
  0
SEQEND
  8
0
  0
SOLID
  8
0
 62
     7
 10
3.814360
 20
1.529440
 11
4.461600
 21
1.906960
 12
3.847800
 22
1.511400
 13
4.495040
 23
1.888920
  0
POLYLINE
  8
0
  6
CONTINUOUS
 66
     1
 40
0.000000
 41
0.000000
  0
VERTEX
  8
0
  6
CONTINUOUS
 10
3.814360
 20
1.529440
  0
VERTEX
  8
0
  6
CONTINUOUS
 10
4.461600
 20
1.906960
  0
VERTEX
  8
0
  6
CONTINUOUS
 10
4.495040
 20
1.888920
  0
VERTEX
  8
0
  6
CONTINUOUS
 10
3.847800
 20
1.511400
  0
VERTEX
  8
0
  6
CONTINUOUS
 10
3.814360
 20
1.529440
  0
SEQEND
  8
0
  0
SOLID
  8
0
 62
     7
 10
3.847800
 20
1.511400
 11
4.495040
 21
1.888920
 12
3.875960
 22
1.489840
 13
4.523200
 23
1.867800
  0
POLYLINE
  8
0
  6
CONTINUOUS
 66
     1
 40
0.000000
 41
0.000000
  0
VERTEX
  8
0
  6
CONTINUOUS
 10
3.847800
 20
1.511400
  0
VERTEX
  8
0
  6
CONTINUOUS
 10
4.495040
 20
1.888920
  0
VERTEX
  8
0
  6
CONTINUOUS
 10
4.523200
 20
1.867800
  0
VERTEX
  8
0
  6
CONTINUOUS
 10
3.875960
 20
1.489840
  0
VERTEX
  8
0
  6
CONTINUOUS
 10
3.847800
 20
1.511400
  0
SEQEND
  8
0
  0
SOLID
  8
0
 62
     7
 10
3.875960
 20
1.489840
 11
4.523200
 21
1.867800
 12
3.898400
 22
1.465200
 13
4.546080
 23
1.843160
  0
POLYLINE
  8
0
  6
CONTINUOUS
 66
     1
 40
0.000000
 41
0.000000
  0
VERTEX
  8
0
  6
CONTINUOUS
 10
3.875960
 20
1.489840
  0
VERTEX
  8
0
  6
CONTINUOUS
 10
4.523200
 20
1.867800
  0
VERTEX
  8
0
  6
CONTINUOUS
 10
4.546080
 20
1.843160
  0
VERTEX
  8
0
  6
CONTINUOUS
 10
3.898400
 20
1.465200
  0
VERTEX
  8
0
  6
CONTINUOUS
 10
3.875960
 20
1.489840
  0
SEQEND
  8
0
  0
SOLID
  8
0
 62
     7
 10
3.898400
 20
1.465200
 11
4.546080
 21
1.843160
 12
3.916880
 22
1.437920
 13
4.564120
 23
1.815880
  0
POLYLINE
  8
0
  6
CONTINUOUS
 66
     1
 40
0.000000
 41
0.000000
  0
VERTEX
  8
0
  6
CONTINUOUS
 10
3.898400
 20
1.465200
  0
VERTEX
  8
0
  6
CONTINUOUS
 10
4.546080
 20
1.843160
  0
VERTEX
  8
0
  6
CONTINUOUS
 10
4.564120
 20
1.815880
  0
VERTEX
  8
0
  6
CONTINUOUS
 10
3.916880
 20
1.437920
  0
VERTEX
  8
0
  6
CONTINUOUS
 10
3.898400
 20
1.465200
  0
SEQEND
  8
0
  0
SOLID
  8
0
 62
     7
 10
3.916880
 20
1.437920
 11
4.564120
 21
1.815880
 12
3.930520
 22
1.408440
 13
4.578200
 23
1.785960
  0
POLYLINE
  8
0
  6
CONTINUOUS
 66
     1
 40
0.000000
 41
0.000000
  0
VERTEX
  8
0
  6
CONTINUOUS
 10
3.916880
 20
1.437920
  0
VERTEX
  8
0
  6
CONTINUOUS
 10
4.564120
 20
1.815880
  0
VERTEX
  8
0
  6
CONTINUOUS
 10
4.578200
 20
1.785960
  0
VERTEX
  8
0
  6
CONTINUOUS
 10
3.930520
 20
1.408440
  0
VERTEX
  8
0
  6
CONTINUOUS
 10
3.916880
 20
1.437920
  0
SEQEND
  8
0
  0
SOLID
  8
0
 62
    15
 10
3.930520
 20
1.408440
 11
4.578200
 21
1.785960
 12
3.940640
 22
1.376320
 13
4.588320
 23
1.753840
  0
POLYLINE
  8
0
  6
CONTINUOUS
 66
     1
 40
0.000000
 41
0.000000
  0
VERTEX
  8
0
  6
CONTINUOUS
 10
3.930520
 20
1.408440
  0
VERTEX
  8
0
  6
CONTINUOUS
 10
4.578200
 20
1.785960
  0
VERTEX
  8
0
  6
CONTINUOUS
 10
4.588320
 20
1.753840
  0
VERTEX
  8
0
  6
CONTINUOUS
 10
3.940640
 20
1.376320
  0
VERTEX
  8
0
  6
CONTINUOUS
 10
3.930520
 20
1.408440
  0
SEQEND
  8
0
  0
SOLID
  8
0
 62
    15
 10
3.940640
 20
1.376320
 11
4.588320
 21
1.753840
 12
3.947240
 22
1.342440
 13
4.594920
 23
1.720400
  0
POLYLINE
  8
0
  6
CONTINUOUS
 66
     1
 40
0.000000
 41
0.000000
  0
VERTEX
  8
0
  6
CONTINUOUS
 10
3.940640
 20
1.376320
  0
VERTEX
  8
0
  6
CONTINUOUS
 10
4.588320
 20
1.753840
  0
VERTEX
  8
0
  6
CONTINUOUS
 10
4.594920
 20
1.720400
  0
VERTEX
  8
0
  6
CONTINUOUS
 10
3.947240
 20
1.342440
  0
VERTEX
  8
0
  6
CONTINUOUS
 10
3.940640
 20
1.376320
  0
SEQEND
  8
0
  0
SOLID
  8
0
 62
    15
 10
3.947240
 20
1.342440
 11
4.594920
 21
1.720400
 12
3.951200
 22
1.307240
 13
4.598880
 23
1.685200
  0
POLYLINE
  8
0
  6
CONTINUOUS
 66
     1
 40
0.000000
 41
0.000000
  0
VERTEX
  8
0
  6
CONTINUOUS
 10
3.947240
 20
1.342440
  0
VERTEX
  8
0
  6
CONTINUOUS
 10
4.594920
 20
1.720400
  0
VERTEX
  8
0
  6
CONTINUOUS
 10
4.598880
 20
1.685200
  0
VERTEX
  8
0
  6
CONTINUOUS
 10
3.951200
 20
1.307240
  0
VERTEX
  8
0
  6
CONTINUOUS
 10
3.947240
 20
1.342440
  0
SEQEND
  8
0
  0
POLYLINE
  8
0
  6
CONTINUOUS
 66
     1
 40
0.000000
 41
0.000000
  0
VERTEX
  8
0
  6
CONTINUOUS
 10
3.951200
 20
1.308560
  0
VERTEX
  8
0
  6
CONTINUOUS
 10
3.288120
 20
1.308560
  0
VERTEX
  8
0
  6
CONTINUOUS
 10
3.288120
 20
2.981880
  0
VERTEX
  8
0
  6
CONTINUOUS
 10
3.343560
 20
2.973080
  0
VERTEX
  8
0
  6
CONTINUOUS
 10
3.393720
 20
2.960320
  0
VERTEX
  8
0
  6
CONTINUOUS
 10
3.437720
 20
2.943160
  0
VERTEX
  8
0
  6
CONTINUOUS
 10
3.476880
 20
2.921600
  0
VERTEX
  8
0
  6
CONTINUOUS
 10
3.510760
 20
2.896520
  0
VERTEX
  8
0
  6
CONTINUOUS
 10
3.539360
 20
2.867920
  0
VERTEX
  8
0
  6
CONTINUOUS
 10
3.563560
 20
2.835800
  0
VERTEX
  8
0
  6
CONTINUOUS
 10
3.582920
 20
2.801040
  0
VERTEX
  8
0
  6
CONTINUOUS
 10
3.598320
 20
2.763200
  0
VERTEX
  8
0
  6
CONTINUOUS
 10
3.608880
 20
2.722720
  0
VERTEX
  8
0
  6
CONTINUOUS
 10
3.615920
 20
2.679600
  0
VERTEX
  8
0
  6
CONTINUOUS
 10
3.618560
 20
2.634720
  0
VERTEX
  8
0
  6
CONTINUOUS
 10
3.618120
 20
2.588080
  0
VERTEX
  8
0
  6
CONTINUOUS
 10
3.613720
 20
2.539680
  0
VERTEX
  8
0
  6
CONTINUOUS
 10
3.606240
 20
2.489960
  0
VERTEX
  8
0
  6
CONTINUOUS
 10
3.586000
 20
2.389200
  0
VERTEX
  8
0
  6
CONTINUOUS
 10
3.581600
 20
2.342560
  0
VERTEX
  8
0
  6
CONTINUOUS
 10
3.581160
 20
2.299000
  0
VERTEX
  8
0
  6
CONTINUOUS
 10
3.584680
 20
2.258520
  0
VERTEX
  8
0
  6
CONTINUOUS
 10
3.591280
 20
2.221560
  0
VERTEX
  8
0
  6
CONTINUOUS
 10
3.600080
 20
2.187240
  0
VERTEX
  8
0
  6
CONTINUOUS
 10
3.611080
 20
2.156440
  0
VERTEX
  8
0
  6
CONTINUOUS
 10
3.623400
 20
2.128720
  0
VERTEX
  8
0
  6
CONTINUOUS
 10
3.649800
 20
2.083400
  0
VERTEX
  8
0
  6
CONTINUOUS
 10
3.674440
 20
2.050400
  0
VERTEX
  8
0
  6
CONTINUOUS
 10
3.708760
 20
2.013880
  0
VERTEX
  8
0
  6
CONTINUOUS
 10
3.744840
 20
1.962400
  0
VERTEX
  8
0
  6
CONTINUOUS
 10
3.776080
 20
1.908280
  0
VERTEX
  8
0
  6
CONTINUOUS
 10
3.791480
 20
1.875720
  0
VERTEX
  8
0
  6
CONTINUOUS
 10
3.806000
 20
1.840080
  0
VERTEX
  8
0
  6
CONTINUOUS
 10
3.818320
 20
1.801800
  0
VERTEX
  8
0
  6
CONTINUOUS
 10
3.828440
 20
1.760880
  0
VERTEX
  8
0
  6
CONTINUOUS
 10
3.835040
 20
1.717760
  0
VERTEX
  8
0
  6
CONTINUOUS
 10
3.837680
 20
1.672880
  0
VERTEX
  8
0
  6
CONTINUOUS
 10
3.835920
 20
1.626240
  0
VERTEX
  8
0
  6
CONTINUOUS
 10
3.828000
 20
1.578280
  0
VERTEX
  8
0
  6
CONTINUOUS
 10
3.814360
 20
1.529440
  0
VERTEX
  8
0
  6
CONTINUOUS
 10
3.847800
 20
1.511400
  0
VERTEX
  8
0
  6
CONTINUOUS
 10
3.875960
 20
1.489840
  0
VERTEX
  8
0
  6
CONTINUOUS
 10
3.898400
 20
1.465200
  0
VERTEX
  8
0
  6
CONTINUOUS
 10
3.916880
 20
1.437920
  0
VERTEX
  8
0
  6
CONTINUOUS
 10
3.930520
 20
1.408440
  0
VERTEX
  8
0
  6
CONTINUOUS
 10
3.940640
 20
1.376320
  0
VERTEX
  8
0
  6
CONTINUOUS
 10
3.947240
 20
1.342440
  0
VERTEX
  8
0
  6
CONTINUOUS
 10
3.951200
 20
1.307240
  0
VERTEX
  8
0
  6
CONTINUOUS
 10
3.951200
 20
1.308560
  0
SEQEND
  8
0
  0
TEXT
  8
0
 10
3.602720
 20
1.089440
 40
0.138216
  1
BA  1112
 41
1.000000
  7
SN0
 71
     0
 72
     5
 11
4.285137
 21
1.089440
  0
TEXT
  8
0
 10
3.308360
 20
0.897600
 40
0.138216
  1
11/16" x 1-11/16"
 41
1.000000
  7
SN0
 71
     0
 72
     5
 11
4.577416
 21
0.897600
  0
POLYLINE
  8
0
  6
CONTINUOUS
 66
     1
 40
0.014080
 41
0.014080
  0
VERTEX
  8
0
  6
CONTINUOUS
 10
6.917240
 20
2.426160
  0
VERTEX
  8
0
  6
CONTINUOUS
 10
6.917240
 20
1.763080
  0
VERTEX
  8
0
  6
CONTINUOUS
 10
5.243920
 20
1.763080
  0
VERTEX
  8
0
  6
CONTINUOUS
 10
5.247440
 20
1.791680
  0
VERTEX
  8
0
  6
CONTINUOUS
 10
5.252280
 20
1.818520
  0
VERTEX
  8
0
  6
CONTINUOUS
 10
5.265480
 20
1.868240
  0
VERTEX
  8
0
  6
CONTINUOUS
 10
5.273400
 20
1.891120
  0
VERTEX
  8
0
  6
CONTINUOUS
 10
5.292760
 20
1.932920
  0
VERTEX
  8
0
  6
CONTINUOUS
 10
5.316080
 20
1.969000
  0
VERTEX
  8
0
  6
CONTINUOUS
 10
5.343360
 20
2.000680
  0
VERTEX
  8
0
  6
CONTINUOUS
 10
5.373720
 20
2.027080
  0
VERTEX
  8
0
  6
CONTINUOUS
 10
5.407160
 20
2.048640
  0
VERTEX
  8
0
  6
CONTINUOUS
 10
5.443680
 20
2.065800
  0
VERTEX
  8
0
  6
CONTINUOUS
 10
5.482840
 20
2.079000
  0
VERTEX
  8
0
  6
CONTINUOUS
 10
5.524640
 20
2.087800
  0
VERTEX
  8
0
  6
CONTINUOUS
 10
5.568200
 20
2.092640
  0
VERTEX
  8
0
  6
CONTINUOUS
 10
5.614400
 20
2.093960
  0
VERTEX
  8
0
  6
CONTINUOUS
 10
5.661920
 20
2.091320
  0
VERTEX
  8
0
  6
CONTINUOUS
 10
5.710760
 20
2.085600
  0
VERTEX
  8
0
  6
CONTINUOUS
 10
5.836600
 20
2.060960
  0
VERTEX
  8
0
  6
CONTINUOUS
 10
5.883240
 20
2.056560
  0
VERTEX
  8
0
  6
CONTINUOUS
 10
5.926800
 20
2.056120
  0
VERTEX
  8
0
  6
CONTINUOUS
 10
5.967280
 20
2.059640
  0
VERTEX
  8
0
  6
CONTINUOUS
 10
6.021840
 20
2.070200
  0
VERTEX
  8
0
  6
CONTINUOUS
 10
6.069360
 20
2.086040
  0
VERTEX
  8
0
  6
CONTINUOUS
 10
6.109400
 20
2.104960
  0
VERTEX
  8
0
  6
CONTINUOUS
 10
6.152080
 20
2.131360
  0
VERTEX
  8
0
  6
CONTINUOUS
 10
6.181120
 20
2.154680
  0
VERTEX
  8
0
  6
CONTINUOUS
 10
6.211920
 20
2.183720
  0
VERTEX
  8
0
  6
CONTINUOUS
 10
6.262960
 20
2.219800
  0
VERTEX
  8
0
  6
CONTINUOUS
 10
6.317520
 20
2.251040
  0
VERTEX
  8
0
  6
CONTINUOUS
 10
6.367240
 20
2.273920
  0
VERTEX
  8
0
  6
CONTINUOUS
 10
6.424000
 20
2.293720
  0
VERTEX
  8
0
  6
CONTINUOUS
 10
6.464920
 20
2.303400
  0
VERTEX
  8
0
  6
CONTINUOUS
 10
6.508040
 20
2.310440
  0
VERTEX
  8
0
  6
CONTINUOUS
 10
6.552920
 20
2.313080
  0
VERTEX
  8
0
  6
CONTINUOUS
 10
6.599560
 20
2.310880
  0
VERTEX
  8
0
  6
CONTINUOUS
 10
6.647520
 20
2.303400
  0
VERTEX
  8
0
  6
CONTINUOUS
 10
6.696360
 20
2.289320
  0
VERTEX
  8
0
  6
CONTINUOUS
 10
6.704720
 20
2.306920
  0
VERTEX
  8
0
  6
CONTINUOUS
 10
6.724520
 20
2.337280
  0
VERTEX
  8
0
  6
CONTINUOUS
 10
6.747840
 20
2.362800
  0
VERTEX
  8
0
  6
CONTINUOUS
 10
6.760160
 20
2.373800
  0
VERTEX
  8
0
  6
CONTINUOUS
 10
6.787880
 20
2.391840
  0
VERTEX
  8
0
  6
CONTINUOUS
 10
6.817360
 20
2.405480
  0
VERTEX
  8
0
  6
CONTINUOUS
 10
6.849480
 20
2.415600
  0
VERTEX
  8
0
  6
CONTINUOUS
 10
6.883360
 20
2.422200
  0
VERTEX
  8
0
  6
CONTINUOUS
 10
6.918560
 20
2.426160
  0
VERTEX
  8
0
  6
CONTINUOUS
 10
6.917240
 20
2.426160
  0
SEQEND
  8
0
  0
TEXT
  8
0
 10
5.772800
 20
1.559360
 40
0.138216
  1
BA  1112
 41
1.000000
  7
SN0
 71
     0
 72
     5
 11
6.455217
 21
1.559360
  0
TEXT
  8
0
 10
5.478880
 20
1.367960
 40
0.138216
  1
11/16" x 1-11/16"
 41
1.000000
  7
SN0
 71
     0
 72
     5
 11
6.747936
 21
1.367960
  0
ENDSEC
  0
EOF
