  0
SECTION
  2
HEADER
  9
$ACADVER
  1
AC1006
  9
$EXTMIN
 10
2.906200
 20
1.183160
  9
$EXTMAX
 10
5.557640
 20
8.681640
  9
$LTSCALE
 40
0.044000
  9
$PDMODE
 70
    35
  9
$PDSIZE
 40
0.035200
  0
ENDSEC
  0
SECTION
  2
TABLES
  0
TABLE
  2
LTYPE
 70
     9
  0
LTYPE
  2
CONTINUOUS
 70
    64
  3
Solid line
 72
    65
 73
     0
 40
0.000000
  0
LTYPE
  2
DASHED
 70
    64
  3
__ __ __ __ __ __ __ __ __ __ __ __ __ __ __
 72
    65
 73
     2
 40
0.000330
 49
0.000220
 49
-0.000110
  0
LTYPE
  2
HIDDEN
 70
    64
  3
 _ _ _ _ _ _ _ _ _ _ _ _ _ _ _ _ _ _ _ _ _ _
 72
    65
 73
     2
 40
0.000165
 49
0.000110
 49
-0.000055
  0
LTYPE
  2
CENTER
 70
    64
  3
____ _ ____ _ ____ _ ____ _ ____ _ ____ _ ____
 72
    65
 73
     4
 40
0.000880
 49
0.000550
 49
-0.000110
 49
0.000110
 49
-0.000110
  0
LTYPE
  2
PHANTOM
 70
    64
  3
_____ _ _ _____ _ _ _____ _ _ _____ _ _ ____
 72
    65
 73
     6
 40
0.001100
 49
0.000550
 49
-0.000110
 49
0.000110
 49
-0.000110
 49
0.000110
 49
-0.000110
  0
LTYPE
  2
DOT
 70
    64
  3
...............................................
 72
    65
 73
     2
 40
0.000110
 49
0.000000
 49
-0.000110
  0
LTYPE
  2
DASHDOT
 70
    64
  3
__ . __ . __ . __ . __ . __ . __ . __ . __ . __
 72
    65
 73
     4
 40
0.000440
 49
0.000220
 49
-0.000110
 49
0.000000
 49
-0.000110
  0
LTYPE
  2
BORDER
 70
    64
  3
__ __ . __ __ . __ __ . __ __ . __ __ . __ __
 72
    65
 73
     6
 40
0.000770
 49
0.000220
 49
-0.000110
 49
0.000220
 49
-0.000110
 49
0.000000
 49
-0.000110
  0
LTYPE
  2
DIVIDE
 70
    64
  3
__ . . __ . . __ . . __ . . __ . . __ . . __
 72
    65
 73
     6
 40
0.000550
 49
0.000220
 49
-0.000110
 49
0.000000
 49
-0.000110
 49
0.000000
 49
-0.000110
  0
LTYPE
  2
DOTDOT
 70
    64
  3
 . .  . .  . .  . .  . .  . . 
 72
    65
 73
     5
 40
0.000242
 49
-0.000110
 49
0.000000
 49
-0.000110
 49
0.000000
 49
-0.000110
  0
ENDTAB
  0
TABLE
  2
STYLE
 70
     2
  0
STYLE
 70
     0
  2
SN0
 40
0.000000
 41
0.000440
 50
0.000000
 71
     0
 42
0.000000
  3
ROMAND
  0
STYLE
 70
    68
  2
SV0
 40
0.000000
 41
0.000440
 50
0.000000
 71
     0
 42
0.000000
  3
ROMAND
  0
ENDTAB
  0
TABLE
  2
LAYER
 70
     3
  0
LAYER
  2
FOREGROUND
 70
    64
 62
     7
  6
CONTINUOUS
  0
LAYER
  2
BACKGROUND
 70
    65
 62
    -7
  6
CONTINUOUS
  0
LAYER
  2
0
 70
    64
 62
     7
  6
CONTINUOUS
  0
ENDTAB
  0
ENDSEC
  0
SECTION
  2
ENTITIES
  0
POLYLINE
  8
FOREGROUND
  6
CONTINUOUS
 66
     1
 40
0.000000
 41
0.000000
  0
VERTEX
  8
FOREGROUND
  6
CONTINUOUS
 10
0.000000
 20
9.864800
  0
VERTEX
  8
FOREGROUND
  6
CONTINUOUS
 10
8.499920
 20
9.864800
  0
VERTEX
  8
FOREGROUND
  6
CONTINUOUS
 10
8.499920
 20
-1.135200
  0
VERTEX
  8
FOREGROUND
  6
CONTINUOUS
 10
0.000000
 20
-1.135200
  0
VERTEX
  8
FOREGROUND
  6
CONTINUOUS
 10
0.000000
 20
9.864800
  0
SEQEND
  8
0
  0
POLYLINE
  8
FOREGROUND
  6
CONTINUOUS
 66
     1
 40
0.000000
 41
0.000000
  0
VERTEX
  8
FOREGROUND
  6
CONTINUOUS
 10
0.000000
 20
9.864800
  0
VERTEX
  8
FOREGROUND
  6
CONTINUOUS
 10
8.499920
 20
9.864800
  0
VERTEX
  8
FOREGROUND
  6
CONTINUOUS
 10
8.499920
 20
-1.135200
  0
VERTEX
  8
FOREGROUND
  6
CONTINUOUS
 10
0.000000
 20
-1.135200
  0
VERTEX
  8
FOREGROUND
  6
CONTINUOUS
 10
0.000000
 20
9.864800
  0
SEQEND
  8
0
  0
POLYLINE
  8
0
  6
CONTINUOUS
 66
     1
 40
0.000000
 41
0.000000
  0
VERTEX
  8
0
  6
CONTINUOUS
 10
5.309040
 20
4.708000
  0
VERTEX
  8
0
  6
CONTINUOUS
 10
5.309040
 20
4.555320
  0
VERTEX
  8
0
  6
CONTINUOUS
 10
5.518920
 20
4.540800
  0
VERTEX
  8
0
  6
CONTINUOUS
 10
5.526400
 20
4.538600
  0
VERTEX
  8
0
  6
CONTINUOUS
 10
5.538720
 20
4.529800
  0
VERTEX
  8
0
  6
CONTINUOUS
 10
5.547520
 20
4.517040
  0
VERTEX
  8
0
  6
CONTINUOUS
 10
5.550600
 20
4.501640
  0
VERTEX
  8
0
  6
CONTINUOUS
 10
5.550600
 20
4.424200
  0
VERTEX
  8
0
  6
CONTINUOUS
 10
5.547520
 20
4.408800
  0
VERTEX
  8
0
  6
CONTINUOUS
 10
5.538720
 20
4.396040
  0
VERTEX
  8
0
  6
CONTINUOUS
 10
5.526400
 20
4.387680
  0
VERTEX
  8
0
  6
CONTINUOUS
 10
5.511000
 20
4.384600
  0
VERTEX
  8
0
  6
CONTINUOUS
 10
5.267240
 20
4.368320
  0
VERTEX
  8
0
  6
CONTINUOUS
 10
5.267240
 20
4.220040
  0
VERTEX
  8
0
  6
CONTINUOUS
 10
2.913680
 20
4.220040
  0
VERTEX
  8
0
  6
CONTINUOUS
 10
2.914120
 20
4.371840
  0
VERTEX
  8
0
  6
CONTINUOUS
 10
3.123560
 20
4.385040
  0
VERTEX
  8
0
  6
CONTINUOUS
 10
3.131040
 20
4.387240
  0
VERTEX
  8
0
  6
CONTINUOUS
 10
3.143800
 20
4.396040
  0
VERTEX
  8
0
  6
CONTINUOUS
 10
3.152160
 20
4.408800
  0
VERTEX
  8
0
  6
CONTINUOUS
 10
3.155240
 20
4.424200
  0
VERTEX
  8
0
  6
CONTINUOUS
 10
3.155240
 20
4.501640
  0
VERTEX
  8
0
  6
CONTINUOUS
 10
3.152160
 20
4.517040
  0
VERTEX
  8
0
  6
CONTINUOUS
 10
3.143800
 20
4.529800
  0
VERTEX
  8
0
  6
CONTINUOUS
 10
3.131040
 20
4.538160
  0
VERTEX
  8
0
  6
CONTINUOUS
 10
3.115640
 20
4.541240
  0
VERTEX
  8
0
  6
CONTINUOUS
 10
2.913680
 20
4.555320
  0
VERTEX
  8
0
  6
CONTINUOUS
 10
2.913680
 20
4.717240
  0
VERTEX
  8
0
  6
CONTINUOUS
 10
2.914120
 20
4.716800
  0
VERTEX
  8
0
  6
CONTINUOUS
 10
2.967360
 20
4.835160
  0
VERTEX
  8
0
  6
CONTINUOUS
 10
4.852760
 20
4.835160
  0
VERTEX
  8
0
  6
CONTINUOUS
 10
4.904680
 20
4.708440
  0
VERTEX
  8
0
  6
CONTINUOUS
 10
4.919200
 20
4.746280
  0
VERTEX
  8
0
  6
CONTINUOUS
 10
4.931520
 20
4.766520
  0
VERTEX
  8
0
  6
CONTINUOUS
 10
4.953080
 20
4.790280
  0
VERTEX
  8
0
  6
CONTINUOUS
 10
4.977280
 20
4.806120
  0
VERTEX
  8
0
  6
CONTINUOUS
 10
4.994000
 20
4.812280
  0
VERTEX
  8
0
  6
CONTINUOUS
 10
5.011160
 20
4.815360
  0
VERTEX
  8
0
  6
CONTINUOUS
 10
5.036240
 20
4.814040
  0
VERTEX
  8
0
  6
CONTINUOUS
 10
5.060000
 20
4.805680
  0
VERTEX
  8
0
  6
CONTINUOUS
 10
5.080240
 20
4.791600
  0
VERTEX
  8
0
  6
CONTINUOUS
 10
5.096960
 20
4.771360
  0
VERTEX
  8
0
  6
CONTINUOUS
 10
5.104880
 20
4.754640
  0
VERTEX
  8
0
  6
CONTINUOUS
 10
5.110160
 20
4.735720
  0
VERTEX
  8
0
  6
CONTINUOUS
 10
5.111480
 20
4.725600
  0
VERTEX
  8
0
  6
CONTINUOUS
 10
5.115880
 20
4.749800
  0
VERTEX
  8
0
  6
CONTINUOUS
 10
5.122920
 20
4.764760
  0
VERTEX
  8
0
  6
CONTINUOUS
 10
5.132160
 20
4.778840
  0
VERTEX
  8
0
  6
CONTINUOUS
 10
5.150200
 20
4.796000
  0
VERTEX
  8
0
  6
CONTINUOUS
 10
5.171760
 20
4.808760
  0
VERTEX
  8
0
  6
CONTINUOUS
 10
5.187600
 20
4.814040
  0
VERTEX
  8
0
  6
CONTINUOUS
 10
5.203880
 20
4.816240
  0
VERTEX
  8
0
  6
CONTINUOUS
 10
5.220600
 20
4.815360
  0
VERTEX
  8
0
  6
CONTINUOUS
 10
5.237320
 20
4.810520
  0
VERTEX
  8
0
  6
CONTINUOUS
 10
5.253160
 20
4.802160
  0
VERTEX
  8
0
  6
CONTINUOUS
 10
5.268560
 20
4.789840
  0
VERTEX
  8
0
  6
CONTINUOUS
 10
5.282200
 20
4.772680
  0
VERTEX
  8
0
  6
CONTINUOUS
 10
5.294520
 20
4.751120
  0
VERTEX
  8
0
  6
CONTINUOUS
 10
5.309040
 20
4.708440
  0
VERTEX
  8
0
  6
CONTINUOUS
 10
5.309040
 20
4.708000
  0
SEQEND
  8
0
  0
POLYLINE
  8
0
  6
CONTINUOUS
 66
     1
 40
0.000000
 41
0.000000
  0
VERTEX
  8
0
  6
CONTINUOUS
 10
3.155240
 20
1.671120
  0
VERTEX
  8
0
  6
CONTINUOUS
 10
3.155240
 20
1.518880
  0
VERTEX
  8
0
  6
CONTINUOUS
 10
2.945800
 20
1.503920
  0
VERTEX
  8
0
  6
CONTINUOUS
 10
2.931280
 20
1.498200
  0
VERTEX
  8
0
  6
CONTINUOUS
 10
2.920720
 20
1.487200
  0
VERTEX
  8
0
  6
CONTINUOUS
 10
2.916760
 20
1.480600
  0
VERTEX
  8
0
  6
CONTINUOUS
 10
2.913680
 20
1.465200
  0
VERTEX
  8
0
  6
CONTINUOUS
 10
2.913680
 20
1.387760
  0
VERTEX
  8
0
  6
CONTINUOUS
 10
2.916760
 20
1.372360
  0
VERTEX
  8
0
  6
CONTINUOUS
 10
2.925560
 20
1.359600
  0
VERTEX
  8
0
  6
CONTINUOUS
 10
2.938320
 20
1.351240
  0
VERTEX
  8
0
  6
CONTINUOUS
 10
2.953720
 20
1.348160
  0
VERTEX
  8
0
  6
CONTINUOUS
 10
3.197040
 20
1.331880
  0
VERTEX
  8
0
  6
CONTINUOUS
 10
3.197040
 20
1.183160
  0
VERTEX
  8
0
  6
CONTINUOUS
 10
5.550600
 20
1.183160
  0
VERTEX
  8
0
  6
CONTINUOUS
 10
5.550160
 20
1.334960
  0
VERTEX
  8
0
  6
CONTINUOUS
 10
5.340720
 20
1.348600
  0
VERTEX
  8
0
  6
CONTINUOUS
 10
5.326640
 20
1.354320
  0
VERTEX
  8
0
  6
CONTINUOUS
 10
5.320480
 20
1.359160
  0
VERTEX
  8
0
  6
CONTINUOUS
 10
5.312120
 20
1.371920
  0
VERTEX
  8
0
  6
CONTINUOUS
 10
5.309040
 20
1.387320
  0
VERTEX
  8
0
  6
CONTINUOUS
 10
5.309040
 20
1.464760
  0
VERTEX
  8
0
  6
CONTINUOUS
 10
5.312120
 20
1.480160
  0
VERTEX
  8
0
  6
CONTINUOUS
 10
5.315640
 20
1.487200
  0
VERTEX
  8
0
  6
CONTINUOUS
 10
5.326640
 20
1.497760
  0
VERTEX
  8
0
  6
CONTINUOUS
 10
5.333240
 20
1.501720
  0
VERTEX
  8
0
  6
CONTINUOUS
 10
5.348640
 20
1.504800
  0
VERTEX
  8
0
  6
CONTINUOUS
 10
5.550600
 20
1.518440
  0
VERTEX
  8
0
  6
CONTINUOUS
 10
5.550600
 20
1.680800
  0
VERTEX
  8
0
  6
CONTINUOUS
 10
5.550160
 20
1.680360
  0
VERTEX
  8
0
  6
CONTINUOUS
 10
5.496920
 20
1.798280
  0
VERTEX
  8
0
  6
CONTINUOUS
 10
3.611960
 20
1.798280
  0
VERTEX
  8
0
  6
CONTINUOUS
 10
3.559600
 20
1.672000
  0
VERTEX
  8
0
  6
CONTINUOUS
 10
3.545080
 20
1.709840
  0
VERTEX
  8
0
  6
CONTINUOUS
 10
3.532760
 20
1.730080
  0
VERTEX
  8
0
  6
CONTINUOUS
 10
3.511200
 20
1.753840
  0
VERTEX
  8
0
  6
CONTINUOUS
 10
3.487000
 20
1.769240
  0
VERTEX
  8
0
  6
CONTINUOUS
 10
3.461480
 20
1.777600
  0
VERTEX
  8
0
  6
CONTINUOUS
 10
3.444760
 20
1.778920
  0
VERTEX
  8
0
  6
CONTINUOUS
 10
3.419680
 20
1.775400
  0
VERTEX
  8
0
  6
CONTINUOUS
 10
3.397240
 20
1.765280
  0
VERTEX
  8
0
  6
CONTINUOUS
 10
3.377880
 20
1.749000
  0
VERTEX
  8
0
  6
CONTINUOUS
 10
3.362920
 20
1.727000
  0
VERTEX
  8
0
  6
CONTINUOUS
 10
3.356320
 20
1.708960
  0
VERTEX
  8
0
  6
CONTINUOUS
 10
3.352800
 20
1.689160
  0
VERTEX
  8
0
  6
CONTINUOUS
 10
3.348400
 20
1.713360
  0
VERTEX
  8
0
  6
CONTINUOUS
 10
3.341360
 20
1.728320
  0
VERTEX
  8
0
  6
CONTINUOUS
 10
3.332120
 20
1.742400
  0
VERTEX
  8
0
  6
CONTINUOUS
 10
3.314080
 20
1.759560
  0
VERTEX
  8
0
  6
CONTINUOUS
 10
3.292520
 20
1.772320
  0
VERTEX
  8
0
  6
CONTINUOUS
 10
3.276680
 20
1.777600
  0
VERTEX
  8
0
  6
CONTINUOUS
 10
3.260400
 20
1.779800
  0
VERTEX
  8
0
  6
CONTINUOUS
 10
3.243680
 20
1.778920
  0
VERTEX
  8
0
  6
CONTINUOUS
 10
3.226960
 20
1.774080
  0
VERTEX
  8
0
  6
CONTINUOUS
 10
3.211120
 20
1.765720
  0
VERTEX
  8
0
  6
CONTINUOUS
 10
3.195720
 20
1.753400
  0
VERTEX
  8
0
  6
CONTINUOUS
 10
3.182080
 20
1.736240
  0
VERTEX
  8
0
  6
CONTINUOUS
 10
3.169760
 20
1.714680
  0
VERTEX
  8
0
  6
CONTINUOUS
 10
3.155240
 20
1.672000
  0
VERTEX
  8
0
  6
CONTINUOUS
 10
3.155240
 20
1.671120
  0
SEQEND
  8
0
  0
POLYLINE
  8
0
  6
CONTINUOUS
 66
     1
 40
0.000000
 41
0.000000
  0
VERTEX
  8
0
  6
CONTINUOUS
 10
3.155240
 20
2.683560
  0
VERTEX
  8
0
  6
CONTINUOUS
 10
3.155240
 20
2.530880
  0
VERTEX
  8
0
  6
CONTINUOUS
 10
2.945800
 20
2.516360
  0
VERTEX
  8
0
  6
CONTINUOUS
 10
2.938320
 20
2.514160
  0
VERTEX
  8
0
  6
CONTINUOUS
 10
2.925560
 20
2.505360
  0
VERTEX
  8
0
  6
CONTINUOUS
 10
2.916760
 20
2.492600
  0
VERTEX
  8
0
  6
CONTINUOUS
 10
2.913680
 20
2.477200
  0
VERTEX
  8
0
  6
CONTINUOUS
 10
2.913680
 20
2.477640
  0
VERTEX
  8
0
  6
CONTINUOUS
 10
2.913680
 20
2.399760
  0
VERTEX
  8
0
  6
CONTINUOUS
 10
2.916760
 20
2.384360
  0
VERTEX
  8
0
  6
CONTINUOUS
 10
2.925560
 20
2.371600
  0
VERTEX
  8
0
  6
CONTINUOUS
 10
2.938320
 20
2.363240
  0
VERTEX
  8
0
  6
CONTINUOUS
 10
2.953720
 20
2.360160
  0
VERTEX
  8
0
  6
CONTINUOUS
 10
3.197040
 20
2.343880
  0
VERTEX
  8
0
  6
CONTINUOUS
 10
3.197040
 20
2.195600
  0
VERTEX
  8
0
  6
CONTINUOUS
 10
5.550600
 20
2.195600
  0
VERTEX
  8
0
  6
CONTINUOUS
 10
5.550160
 20
2.347400
  0
VERTEX
  8
0
  6
CONTINUOUS
 10
5.340720
 20
2.360600
  0
VERTEX
  8
0
  6
CONTINUOUS
 10
5.333240
 20
2.362800
  0
VERTEX
  8
0
  6
CONTINUOUS
 10
5.320480
 20
2.371600
  0
VERTEX
  8
0
  6
CONTINUOUS
 10
5.315640
 20
2.377320
  0
VERTEX
  8
0
  6
CONTINUOUS
 10
5.309920
 20
2.391840
  0
VERTEX
  8
0
  6
CONTINUOUS
 10
5.309040
 20
2.399760
  0
VERTEX
  8
0
  6
CONTINUOUS
 10
5.309040
 20
2.477200
  0
VERTEX
  8
0
  6
CONTINUOUS
 10
5.312120
 20
2.492600
  0
VERTEX
  8
0
  6
CONTINUOUS
 10
5.320480
 20
2.505360
  0
VERTEX
  8
0
  6
CONTINUOUS
 10
5.333240
 20
2.513720
  0
VERTEX
  8
0
  6
CONTINUOUS
 10
5.348640
 20
2.516800
  0
VERTEX
  8
0
  6
CONTINUOUS
 10
5.550600
 20
2.530880
  0
VERTEX
  8
0
  6
CONTINUOUS
 10
5.550600
 20
2.692800
  0
VERTEX
  8
0
  6
CONTINUOUS
 10
5.550160
 20
2.692360
  0
VERTEX
  8
0
  6
CONTINUOUS
 10
5.496920
 20
2.810720
  0
VERTEX
  8
0
  6
CONTINUOUS
 10
3.611960
 20
2.810720
  0
VERTEX
  8
0
  6
CONTINUOUS
 10
3.559600
 20
2.684440
  0
VERTEX
  8
0
  6
CONTINUOUS
 10
3.545080
 20
2.722280
  0
VERTEX
  8
0
  6
CONTINUOUS
 10
3.532760
 20
2.742520
  0
VERTEX
  8
0
  6
CONTINUOUS
 10
3.518680
 20
2.759240
  0
VERTEX
  8
0
  6
CONTINUOUS
 10
3.495360
 20
2.777280
  0
VERTEX
  8
0
  6
CONTINUOUS
 10
3.470280
 20
2.787840
  0
VERTEX
  8
0
  6
CONTINUOUS
 10
3.453120
 20
2.790920
  0
VERTEX
  8
0
  6
CONTINUOUS
 10
3.428040
 20
2.789600
  0
VERTEX
  8
0
  6
CONTINUOUS
 10
3.404280
 20
2.781240
  0
VERTEX
  8
0
  6
CONTINUOUS
 10
3.384040
 20
2.767160
  0
VERTEX
  8
0
  6
CONTINUOUS
 10
3.367320
 20
2.746920
  0
VERTEX
  8
0
  6
CONTINUOUS
 10
3.359400
 20
2.730200
  0
VERTEX
  8
0
  6
CONTINUOUS
 10
3.354120
 20
2.711280
  0
VERTEX
  8
0
  6
CONTINUOUS
 10
3.352800
 20
2.701160
  0
VERTEX
  8
0
  6
CONTINUOUS
 10
3.348400
 20
2.725360
  0
VERTEX
  8
0
  6
CONTINUOUS
 10
3.341360
 20
2.740320
  0
VERTEX
  8
0
  6
CONTINUOUS
 10
3.332120
 20
2.754400
  0
VERTEX
  8
0
  6
CONTINUOUS
 10
3.314080
 20
2.771560
  0
VERTEX
  8
0
  6
CONTINUOUS
 10
3.292520
 20
2.784320
  0
VERTEX
  8
0
  6
CONTINUOUS
 10
3.276680
 20
2.789600
  0
VERTEX
  8
0
  6
CONTINUOUS
 10
3.260400
 20
2.791800
  0
VERTEX
  8
0
  6
CONTINUOUS
 10
3.243680
 20
2.790920
  0
VERTEX
  8
0
  6
CONTINUOUS
 10
3.226960
 20
2.786520
  0
VERTEX
  8
0
  6
CONTINUOUS
 10
3.203200
 20
2.772440
  0
VERTEX
  8
0
  6
CONTINUOUS
 10
3.182080
 20
2.748680
  0
VERTEX
  8
0
  6
CONTINUOUS
 10
3.169760
 20
2.726680
  0
VERTEX
  8
0
  6
CONTINUOUS
 10
3.159640
 20
2.699840
  0
VERTEX
  8
0
  6
CONTINUOUS
 10
3.155240
 20
2.683560
  0
SEQEND
  8
0
  0
POLYLINE
  8
0
  6
CONTINUOUS
 66
     1
 40
0.000000
 41
0.000000
  0
VERTEX
  8
0
  6
CONTINUOUS
 10
5.309040
 20
3.695560
  0
VERTEX
  8
0
  6
CONTINUOUS
 10
5.309040
 20
3.543320
  0
VERTEX
  8
0
  6
CONTINUOUS
 10
5.518920
 20
3.528360
  0
VERTEX
  8
0
  6
CONTINUOUS
 10
5.533000
 20
3.522640
  0
VERTEX
  8
0
  6
CONTINUOUS
 10
5.543560
 20
3.511640
  0
VERTEX
  8
0
  6
CONTINUOUS
 10
5.547520
 20
3.505040
  0
VERTEX
  8
0
  6
CONTINUOUS
 10
5.550600
 20
3.489640
  0
VERTEX
  8
0
  6
CONTINUOUS
 10
5.550600
 20
3.412200
  0
VERTEX
  8
0
  6
CONTINUOUS
 10
5.547520
 20
3.396800
  0
VERTEX
  8
0
  6
CONTINUOUS
 10
5.538720
 20
3.384040
  0
VERTEX
  8
0
  6
CONTINUOUS
 10
5.526400
 20
3.375240
  0
VERTEX
  8
0
  6
CONTINUOUS
 10
5.511000
 20
3.372160
  0
VERTEX
  8
0
  6
CONTINUOUS
 10
5.267240
 20
3.356320
  0
VERTEX
  8
0
  6
CONTINUOUS
 10
5.267240
 20
3.207600
  0
VERTEX
  8
0
  6
CONTINUOUS
 10
2.913680
 20
3.207600
  0
VERTEX
  8
0
  6
CONTINUOUS
 10
2.914120
 20
3.359400
  0
VERTEX
  8
0
  6
CONTINUOUS
 10
3.123560
 20
3.373040
  0
VERTEX
  8
0
  6
CONTINUOUS
 10
3.137640
 20
3.378760
  0
VERTEX
  8
0
  6
CONTINUOUS
 10
3.148640
 20
3.389760
  0
VERTEX
  8
0
  6
CONTINUOUS
 10
3.154360
 20
3.403840
  0
VERTEX
  8
0
  6
CONTINUOUS
 10
3.155240
 20
3.411760
  0
VERTEX
  8
0
  6
CONTINUOUS
 10
3.155240
 20
3.489200
  0
VERTEX
  8
0
  6
CONTINUOUS
 10
3.152160
 20
3.504600
  0
VERTEX
  8
0
  6
CONTINUOUS
 10
3.143800
 20
3.517360
  0
VERTEX
  8
0
  6
CONTINUOUS
 10
3.131040
 20
3.525720
  0
VERTEX
  8
0
  6
CONTINUOUS
 10
3.115640
 20
3.528800
  0
VERTEX
  8
0
  6
CONTINUOUS
 10
2.913680
 20
3.542880
  0
VERTEX
  8
0
  6
CONTINUOUS
 10
2.913680
 20
3.705240
  0
VERTEX
  8
0
  6
CONTINUOUS
 10
2.914120
 20
3.704800
  0
VERTEX
  8
0
  6
CONTINUOUS
 10
2.967360
 20
3.822720
  0
VERTEX
  8
0
  6
CONTINUOUS
 10
4.852760
 20
3.822720
  0
VERTEX
  8
0
  6
CONTINUOUS
 10
4.904680
 20
3.696440
  0
VERTEX
  8
0
  6
CONTINUOUS
 10
4.919200
 20
3.734280
  0
VERTEX
  8
0
  6
CONTINUOUS
 10
4.931520
 20
3.754520
  0
VERTEX
  8
0
  6
CONTINUOUS
 10
4.953080
 20
3.778280
  0
VERTEX
  8
0
  6
CONTINUOUS
 10
4.977280
 20
3.793680
  0
VERTEX
  8
0
  6
CONTINUOUS
 10
5.002800
 20
3.802040
  0
VERTEX
  8
0
  6
CONTINUOUS
 10
5.019520
 20
3.803360
  0
VERTEX
  8
0
  6
CONTINUOUS
 10
5.044600
 20
3.799840
  0
VERTEX
  8
0
  6
CONTINUOUS
 10
5.067040
 20
3.789720
  0
VERTEX
  8
0
  6
CONTINUOUS
 10
5.086400
 20
3.773440
  0
VERTEX
  8
0
  6
CONTINUOUS
 10
5.101360
 20
3.751440
  0
VERTEX
  8
0
  6
CONTINUOUS
 10
5.107960
 20
3.733400
  0
VERTEX
  8
0
  6
CONTINUOUS
 10
5.111480
 20
3.713600
  0
VERTEX
  8
0
  6
CONTINUOUS
 10
5.115880
 20
3.737800
  0
VERTEX
  8
0
  6
CONTINUOUS
 10
5.122920
 20
3.752760
  0
VERTEX
  8
0
  6
CONTINUOUS
 10
5.132160
 20
3.766840
  0
VERTEX
  8
0
  6
CONTINUOUS
 10
5.150200
 20
3.784000
  0
VERTEX
  8
0
  6
CONTINUOUS
 10
5.171760
 20
3.796760
  0
VERTEX
  8
0
  6
CONTINUOUS
 10
5.187600
 20
3.802040
  0
VERTEX
  8
0
  6
CONTINUOUS
 10
5.203880
 20
3.804240
  0
VERTEX
  8
0
  6
CONTINUOUS
 10
5.220600
 20
3.803360
  0
VERTEX
  8
0
  6
CONTINUOUS
 10
5.237320
 20
3.798520
  0
VERTEX
  8
0
  6
CONTINUOUS
 10
5.253160
 20
3.790160
  0
VERTEX
  8
0
  6
CONTINUOUS
 10
5.268560
 20
3.777840
  0
VERTEX
  8
0
  6
CONTINUOUS
 10
5.282200
 20
3.760680
  0
VERTEX
  8
0
  6
CONTINUOUS
 10
5.294520
 20
3.739120
  0
VERTEX
  8
0
  6
CONTINUOUS
 10
5.309040
 20
3.696440
  0
VERTEX
  8
0
  6
CONTINUOUS
 10
5.309040
 20
3.695560
  0
SEQEND
  8
0
  0
SOLID
  8
0
 62
    15
 10
4.985640
 20
6.517720
 11
4.985640
 21
7.263080
 12
5.002800
 22
6.522120
 13
5.002360
 23
7.267920
  0
POLYLINE
  8
0
  6
CONTINUOUS
 66
     1
 40
0.000000
 41
0.000000
  0
VERTEX
  8
0
  6
CONTINUOUS
 10
4.985640
 20
6.517720
  0
VERTEX
  8
0
  6
CONTINUOUS
 10
4.985640
 20
7.263080
  0
VERTEX
  8
0
  6
CONTINUOUS
 10
5.002360
 20
7.267920
  0
VERTEX
  8
0
  6
CONTINUOUS
 10
5.002800
 20
6.522120
  0
VERTEX
  8
0
  6
CONTINUOUS
 10
4.985640
 20
6.517720
  0
SEQEND
  8
0
  0
SOLID
  8
0
 62
    15
 10
5.511000
 20
6.249760
 11
5.510560
 21
6.995120
 12
5.526400
 22
6.246680
 13
5.525960
 23
6.992040
  0
POLYLINE
  8
0
  6
CONTINUOUS
 66
     1
 40
0.000000
 41
0.000000
  0
VERTEX
  8
0
  6
CONTINUOUS
 10
5.511000
 20
6.249760
  0
VERTEX
  8
0
  6
CONTINUOUS
 10
5.510560
 20
6.995120
  0
VERTEX
  8
0
  6
CONTINUOUS
 10
5.525960
 20
6.992040
  0
VERTEX
  8
0
  6
CONTINUOUS
 10
5.526400
 20
6.246680
  0
VERTEX
  8
0
  6
CONTINUOUS
 10
5.511000
 20
6.249760
  0
SEQEND
  8
0
  0
SOLID
  8
0
 62
    15
 10
5.526400
 20
6.246680
 11
5.525960
 21
6.992040
 12
5.539160
 22
6.237880
 13
5.538720
 23
6.983680
  0
POLYLINE
  8
0
  6
CONTINUOUS
 66
     1
 40
0.000000
 41
0.000000
  0
VERTEX
  8
0
  6
CONTINUOUS
 10
5.526400
 20
6.246680
  0
VERTEX
  8
0
  6
CONTINUOUS
 10
5.525960
 20
6.992040
  0
VERTEX
  8
0
  6
CONTINUOUS
 10
5.538720
 20
6.983680
  0
VERTEX
  8
0
  6
CONTINUOUS
 10
5.539160
 20
6.237880
  0
VERTEX
  8
0
  6
CONTINUOUS
 10
5.526400
 20
6.246680
  0
SEQEND
  8
0
  0
SOLID
  8
0
 62
    15
 10
5.539160
 20
6.237880
 11
5.538720
 21
6.983680
 12
5.547520
 22
6.225560
 13
5.547080
 23
6.970920
  0
POLYLINE
  8
0
  6
CONTINUOUS
 66
     1
 40
0.000000
 41
0.000000
  0
VERTEX
  8
0
  6
CONTINUOUS
 10
5.539160
 20
6.237880
  0
VERTEX
  8
0
  6
CONTINUOUS
 10
5.538720
 20
6.983680
  0
VERTEX
  8
0
  6
CONTINUOUS
 10
5.547080
 20
6.970920
  0
VERTEX
  8
0
  6
CONTINUOUS
 10
5.547520
 20
6.225560
  0
VERTEX
  8
0
  6
CONTINUOUS
 10
5.539160
 20
6.237880
  0
SEQEND
  8
0
  0
SOLID
  8
0
 62
    15
 10
5.547520
 20
6.225560
 11
5.547080
 21
6.970920
 12
5.550600
 22
6.210160
 13
5.550600
 23
6.955520
  0
POLYLINE
  8
0
  6
CONTINUOUS
 66
     1
 40
0.000000
 41
0.000000
  0
VERTEX
  8
0
  6
CONTINUOUS
 10
5.547520
 20
6.225560
  0
VERTEX
  8
0
  6
CONTINUOUS
 10
5.547080
 20
6.970920
  0
VERTEX
  8
0
  6
CONTINUOUS
 10
5.550600
 20
6.955520
  0
VERTEX
  8
0
  6
CONTINUOUS
 10
5.550600
 20
6.210160
  0
VERTEX
  8
0
  6
CONTINUOUS
 10
5.547520
 20
6.225560
  0
SEQEND
  8
0
  0
SOLID
  8
0
 62
    15
 10
2.913680
 20
5.928120
 11
2.913680
 21
6.673480
 12
2.914120
 22
5.928560
 13
2.913680
 23
6.673920
  0
POLYLINE
  8
0
  6
CONTINUOUS
 66
     1
 40
0.000000
 41
0.000000
  0
VERTEX
  8
0
  6
CONTINUOUS
 10
2.913680
 20
5.928120
  0
VERTEX
  8
0
  6
CONTINUOUS
 10
2.913680
 20
6.673480
  0
VERTEX
  8
0
  6
CONTINUOUS
 10
2.913680
 20
6.673920
  0
VERTEX
  8
0
  6
CONTINUOUS
 10
2.914120
 20
5.928560
  0
VERTEX
  8
0
  6
CONTINUOUS
 10
2.913680
 20
5.928120
  0
SEQEND
  8
0
  0
SOLID
  8
0
 62
    15
 10
2.914120
 20
5.928560
 11
2.913680
 21
6.673920
 12
2.914120
 22
6.079920
 13
2.913680
 23
6.825280
  0
POLYLINE
  8
0
  6
CONTINUOUS
 66
     1
 40
0.000000
 41
0.000000
  0
VERTEX
  8
0
  6
CONTINUOUS
 10
2.914120
 20
5.928560
  0
VERTEX
  8
0
  6
CONTINUOUS
 10
2.913680
 20
6.673920
  0
VERTEX
  8
0
  6
CONTINUOUS
 10
2.913680
 20
6.825280
  0
VERTEX
  8
0
  6
CONTINUOUS
 10
2.914120
 20
6.079920
  0
VERTEX
  8
0
  6
CONTINUOUS
 10
2.914120
 20
5.928560
  0
SEQEND
  8
0
  0
SOLID
  8
0
 62
    15
 10
2.914120
 20
6.079920
 11
2.913680
 21
6.825280
 12
3.115640
 22
6.092240
 13
3.115200
 23
6.838040
  0
POLYLINE
  8
0
  6
CONTINUOUS
 66
     1
 40
0.000000
 41
0.000000
  0
VERTEX
  8
0
  6
CONTINUOUS
 10
2.914120
 20
6.079920
  0
VERTEX
  8
0
  6
CONTINUOUS
 10
2.913680
 20
6.825280
  0
VERTEX
  8
0
  6
CONTINUOUS
 10
3.115200
 20
6.838040
  0
VERTEX
  8
0
  6
CONTINUOUS
 10
3.115640
 20
6.092240
  0
VERTEX
  8
0
  6
CONTINUOUS
 10
2.914120
 20
6.079920
  0
SEQEND
  8
0
  0
SOLID
  8
0
 62
    15
 10
3.115640
 20
6.092240
 11
3.115200
 21
6.838040
 12
3.131040
 22
6.095320
 13
3.131040
 23
6.841120
  0
POLYLINE
  8
0
  6
CONTINUOUS
 66
     1
 40
0.000000
 41
0.000000
  0
VERTEX
  8
0
  6
CONTINUOUS
 10
3.115640
 20
6.092240
  0
VERTEX
  8
0
  6
CONTINUOUS
 10
3.115200
 20
6.838040
  0
VERTEX
  8
0
  6
CONTINUOUS
 10
3.131040
 20
6.841120
  0
VERTEX
  8
0
  6
CONTINUOUS
 10
3.131040
 20
6.095320
  0
VERTEX
  8
0
  6
CONTINUOUS
 10
3.115640
 20
6.092240
  0
SEQEND
  8
0
  0
SOLID
  8
0
 62
    15
 10
3.131040
 20
6.095320
 11
3.131040
 21
6.841120
 12
3.143800
 22
6.104120
 13
3.143360
 23
6.849480
  0
POLYLINE
  8
0
  6
CONTINUOUS
 66
     1
 40
0.000000
 41
0.000000
  0
VERTEX
  8
0
  6
CONTINUOUS
 10
3.131040
 20
6.095320
  0
VERTEX
  8
0
  6
CONTINUOUS
 10
3.131040
 20
6.841120
  0
VERTEX
  8
0
  6
CONTINUOUS
 10
3.143360
 20
6.849480
  0
VERTEX
  8
0
  6
CONTINUOUS
 10
3.143800
 20
6.104120
  0
VERTEX
  8
0
  6
CONTINUOUS
 10
3.131040
 20
6.095320
  0
SEQEND
  8
0
  0
SOLID
  8
0
 62
    15
 10
3.143800
 20
6.104120
 11
3.143360
 21
6.849480
 12
3.152160
 22
6.116880
 13
3.152160
 23
6.862240
  0
POLYLINE
  8
0
  6
CONTINUOUS
 66
     1
 40
0.000000
 41
0.000000
  0
VERTEX
  8
0
  6
CONTINUOUS
 10
3.143800
 20
6.104120
  0
VERTEX
  8
0
  6
CONTINUOUS
 10
3.143360
 20
6.849480
  0
VERTEX
  8
0
  6
CONTINUOUS
 10
3.152160
 20
6.862240
  0
VERTEX
  8
0
  6
CONTINUOUS
 10
3.152160
 20
6.116880
  0
VERTEX
  8
0
  6
CONTINUOUS
 10
3.143800
 20
6.104120
  0
SEQEND
  8
0
  0
SOLID
  8
0
 62
    15
 10
3.152160
 20
6.116880
 11
3.152160
 21
6.862240
 12
3.155240
 22
6.132280
 13
3.155240
 23
6.877640
  0
POLYLINE
  8
0
  6
CONTINUOUS
 66
     1
 40
0.000000
 41
0.000000
  0
VERTEX
  8
0
  6
CONTINUOUS
 10
3.152160
 20
6.116880
  0
VERTEX
  8
0
  6
CONTINUOUS
 10
3.152160
 20
6.862240
  0
VERTEX
  8
0
  6
CONTINUOUS
 10
3.155240
 20
6.877640
  0
VERTEX
  8
0
  6
CONTINUOUS
 10
3.155240
 20
6.132280
  0
VERTEX
  8
0
  6
CONTINUOUS
 10
3.152160
 20
6.116880
  0
SEQEND
  8
0
  0
SOLID
  8
0
 62
    15
 10
3.155240
 20
6.132280
 11
3.155240
 21
6.877640
 12
3.155240
 22
6.209720
 13
3.155240
 23
6.955080
  0
POLYLINE
  8
0
  6
CONTINUOUS
 66
     1
 40
0.000000
 41
0.000000
  0
VERTEX
  8
0
  6
CONTINUOUS
 10
3.155240
 20
6.132280
  0
VERTEX
  8
0
  6
CONTINUOUS
 10
3.155240
 20
6.877640
  0
VERTEX
  8
0
  6
CONTINUOUS
 10
3.155240
 20
6.955080
  0
VERTEX
  8
0
  6
CONTINUOUS
 10
3.155240
 20
6.209720
  0
VERTEX
  8
0
  6
CONTINUOUS
 10
3.155240
 20
6.132280
  0
SEQEND
  8
0
  0
SOLID
  8
0
 62
    15
 10
2.914120
 20
6.263400
 11
2.913680
 21
7.008760
 12
2.914120
 22
6.425320
 13
2.913680
 23
7.171120
  0
POLYLINE
  8
0
  6
CONTINUOUS
 66
     1
 40
0.000000
 41
0.000000
  0
VERTEX
  8
0
  6
CONTINUOUS
 10
2.914120
 20
6.263400
  0
VERTEX
  8
0
  6
CONTINUOUS
 10
2.913680
 20
7.008760
  0
VERTEX
  8
0
  6
CONTINUOUS
 10
2.913680
 20
7.171120
  0
VERTEX
  8
0
  6
CONTINUOUS
 10
2.914120
 20
6.425320
  0
VERTEX
  8
0
  6
CONTINUOUS
 10
2.914120
 20
6.263400
  0
SEQEND
  8
0
  0
SOLID
  8
0
 62
    15
 10
2.914120
 20
6.425320
 11
2.913680
 21
7.171120
 12
2.914120
 22
6.424880
 13
2.914120
 23
7.170680
  0
POLYLINE
  8
0
  6
CONTINUOUS
 66
     1
 40
0.000000
 41
0.000000
  0
VERTEX
  8
0
  6
CONTINUOUS
 10
2.914120
 20
6.425320
  0
VERTEX
  8
0
  6
CONTINUOUS
 10
2.913680
 20
7.171120
  0
VERTEX
  8
0
  6
CONTINUOUS
 10
2.914120
 20
7.170680
  0
VERTEX
  8
0
  6
CONTINUOUS
 10
2.914120
 20
6.424880
  0
VERTEX
  8
0
  6
CONTINUOUS
 10
2.914120
 20
6.425320
  0
SEQEND
  8
0
  0
SOLID
  8
0
 62
    15
 10
2.914120
 20
6.424880
 11
2.914120
 21
7.170680
 12
2.967800
 22
6.543240
 13
2.967360
 23
7.288600
  0
POLYLINE
  8
0
  6
CONTINUOUS
 66
     1
 40
0.000000
 41
0.000000
  0
VERTEX
  8
0
  6
CONTINUOUS
 10
2.914120
 20
6.424880
  0
VERTEX
  8
0
  6
CONTINUOUS
 10
2.914120
 20
7.170680
  0
VERTEX
  8
0
  6
CONTINUOUS
 10
2.967360
 20
7.288600
  0
VERTEX
  8
0
  6
CONTINUOUS
 10
2.967800
 20
6.543240
  0
VERTEX
  8
0
  6
CONTINUOUS
 10
2.914120
 20
6.424880
  0
SEQEND
  8
0
  0
SOLID
  8
0
 62
    15
 10
2.967800
 20
6.543240
 11
2.967360
 21
7.288600
 12
4.852760
 22
6.543240
 13
4.852320
 23
7.288600
  0
POLYLINE
  8
0
  6
CONTINUOUS
 66
     1
 40
0.000000
 41
0.000000
  0
VERTEX
  8
0
  6
CONTINUOUS
 10
2.967800
 20
6.543240
  0
VERTEX
  8
0
  6
CONTINUOUS
 10
2.967360
 20
7.288600
  0
VERTEX
  8
0
  6
CONTINUOUS
 10
4.852320
 20
7.288600
  0
VERTEX
  8
0
  6
CONTINUOUS
 10
4.852760
 20
6.543240
  0
VERTEX
  8
0
  6
CONTINUOUS
 10
2.967800
 20
6.543240
  0
SEQEND
  8
0
  0
SOLID
  8
0
 62
    15
 10
4.852760
 20
6.543240
 11
4.852320
 21
7.288600
 12
4.904680
 22
6.416960
 13
4.904680
 23
7.162320
  0
POLYLINE
  8
0
  6
CONTINUOUS
 66
     1
 40
0.000000
 41
0.000000
  0
VERTEX
  8
0
  6
CONTINUOUS
 10
4.852760
 20
6.543240
  0
VERTEX
  8
0
  6
CONTINUOUS
 10
4.852320
 20
7.288600
  0
VERTEX
  8
0
  6
CONTINUOUS
 10
4.904680
 20
7.162320
  0
VERTEX
  8
0
  6
CONTINUOUS
 10
4.904680
 20
6.416960
  0
VERTEX
  8
0
  6
CONTINUOUS
 10
4.852760
 20
6.543240
  0
SEQEND
  8
0
  0
SOLID
  8
0
 62
    15
 10
4.904680
 20
6.416960
 11
4.904680
 21
7.162320
 12
4.913920
 22
6.442920
 13
4.913920
 23
7.188280
  0
POLYLINE
  8
0
  6
CONTINUOUS
 66
     1
 40
0.000000
 41
0.000000
  0
VERTEX
  8
0
  6
CONTINUOUS
 10
4.904680
 20
6.416960
  0
VERTEX
  8
0
  6
CONTINUOUS
 10
4.904680
 20
7.162320
  0
VERTEX
  8
0
  6
CONTINUOUS
 10
4.913920
 20
7.188280
  0
VERTEX
  8
0
  6
CONTINUOUS
 10
4.913920
 20
6.442920
  0
VERTEX
  8
0
  6
CONTINUOUS
 10
4.904680
 20
6.416960
  0
SEQEND
  8
0
  0
SOLID
  8
0
 62
    15
 10
4.913920
 20
6.442920
 11
4.913920
 21
7.188280
 12
4.925360
 22
6.464920
 13
4.924920
 23
7.210720
  0
POLYLINE
  8
0
  6
CONTINUOUS
 66
     1
 40
0.000000
 41
0.000000
  0
VERTEX
  8
0
  6
CONTINUOUS
 10
4.913920
 20
6.442920
  0
VERTEX
  8
0
  6
CONTINUOUS
 10
4.913920
 20
7.188280
  0
VERTEX
  8
0
  6
CONTINUOUS
 10
4.924920
 20
7.210720
  0
VERTEX
  8
0
  6
CONTINUOUS
 10
4.925360
 20
6.464920
  0
VERTEX
  8
0
  6
CONTINUOUS
 10
4.913920
 20
6.442920
  0
SEQEND
  8
0
  0
SOLID
  8
0
 62
    15
 10
4.925360
 20
6.464920
 11
4.924920
 21
7.210720
 12
4.938560
 22
6.483400
 13
4.938120
 23
7.229200
  0
POLYLINE
  8
0
  6
CONTINUOUS
 66
     1
 40
0.000000
 41
0.000000
  0
VERTEX
  8
0
  6
CONTINUOUS
 10
4.925360
 20
6.464920
  0
VERTEX
  8
0
  6
CONTINUOUS
 10
4.924920
 20
7.210720
  0
VERTEX
  8
0
  6
CONTINUOUS
 10
4.938120
 20
7.229200
  0
VERTEX
  8
0
  6
CONTINUOUS
 10
4.938560
 20
6.483400
  0
VERTEX
  8
0
  6
CONTINUOUS
 10
4.925360
 20
6.464920
  0
SEQEND
  8
0
  0
SOLID
  8
0
 62
    15
 10
4.938560
 20
6.483400
 11
4.938120
 21
7.229200
 12
4.953080
 22
6.498360
 13
4.953080
 23
7.244160
  0
POLYLINE
  8
0
  6
CONTINUOUS
 66
     1
 40
0.000000
 41
0.000000
  0
VERTEX
  8
0
  6
CONTINUOUS
 10
4.938560
 20
6.483400
  0
VERTEX
  8
0
  6
CONTINUOUS
 10
4.938120
 20
7.229200
  0
VERTEX
  8
0
  6
CONTINUOUS
 10
4.953080
 20
7.244160
  0
VERTEX
  8
0
  6
CONTINUOUS
 10
4.953080
 20
6.498360
  0
VERTEX
  8
0
  6
CONTINUOUS
 10
4.938560
 20
6.483400
  0
SEQEND
  8
0
  0
SOLID
  8
0
 62
    15
 10
4.953080
 20
6.498360
 11
4.953080
 21
7.244160
 12
4.968920
 22
6.509800
 13
4.968920
 23
7.255160
  0
POLYLINE
  8
0
  6
CONTINUOUS
 66
     1
 40
0.000000
 41
0.000000
  0
VERTEX
  8
0
  6
CONTINUOUS
 10
4.953080
 20
6.498360
  0
VERTEX
  8
0
  6
CONTINUOUS
 10
4.953080
 20
7.244160
  0
VERTEX
  8
0
  6
CONTINUOUS
 10
4.968920
 20
7.255160
  0
VERTEX
  8
0
  6
CONTINUOUS
 10
4.968920
 20
6.509800
  0
VERTEX
  8
0
  6
CONTINUOUS
 10
4.953080
 20
6.498360
  0
SEQEND
  8
0
  0
SOLID
  8
0
 62
    15
 10
4.968920
 20
6.509800
 11
4.968920
 21
7.255160
 12
4.985640
 22
6.517720
 13
4.985640
 23
7.263080
  0
POLYLINE
  8
0
  6
CONTINUOUS
 66
     1
 40
0.000000
 41
0.000000
  0
VERTEX
  8
0
  6
CONTINUOUS
 10
4.968920
 20
6.509800
  0
VERTEX
  8
0
  6
CONTINUOUS
 10
4.968920
 20
7.255160
  0
VERTEX
  8
0
  6
CONTINUOUS
 10
4.985640
 20
7.263080
  0
VERTEX
  8
0
  6
CONTINUOUS
 10
4.985640
 20
6.517720
  0
VERTEX
  8
0
  6
CONTINUOUS
 10
4.968920
 20
6.509800
  0
SEQEND
  8
0
  0
SOLID
  8
0
 62
    15
 10
5.309040
 20
6.263400
 11
5.309040
 21
7.009200
 12
5.511000
 22
6.249760
 13
5.510560
 23
6.995120
  0
POLYLINE
  8
0
  6
CONTINUOUS
 66
     1
 40
0.000000
 41
0.000000
  0
VERTEX
  8
0
  6
CONTINUOUS
 10
5.309040
 20
6.263400
  0
VERTEX
  8
0
  6
CONTINUOUS
 10
5.309040
 20
7.009200
  0
VERTEX
  8
0
  6
CONTINUOUS
 10
5.510560
 20
6.995120
  0
VERTEX
  8
0
  6
CONTINUOUS
 10
5.511000
 20
6.249760
  0
VERTEX
  8
0
  6
CONTINUOUS
 10
5.309040
 20
6.263400
  0
SEQEND
  8
0
  0
SOLID
  8
0
 62
    15
 10
5.002800
 20
6.522120
 11
5.002360
 21
7.267920
 12
5.019960
 22
6.523440
 13
5.019520
 23
7.269240
  0
POLYLINE
  8
0
  6
CONTINUOUS
 66
     1
 40
0.000000
 41
0.000000
  0
VERTEX
  8
0
  6
CONTINUOUS
 10
5.002800
 20
6.522120
  0
VERTEX
  8
0
  6
CONTINUOUS
 10
5.002360
 20
7.267920
  0
VERTEX
  8
0
  6
CONTINUOUS
 10
5.019520
 20
7.269240
  0
VERTEX
  8
0
  6
CONTINUOUS
 10
5.019960
 20
6.523440
  0
VERTEX
  8
0
  6
CONTINUOUS
 10
5.002800
 20
6.522120
  0
SEQEND
  8
0
  0
SOLID
  8
0
 62
    15
 10
5.019960
 20
6.523440
 11
5.019520
 21
7.269240
 12
5.036240
 22
6.522120
 13
5.036240
 23
7.267480
  0
POLYLINE
  8
0
  6
CONTINUOUS
 66
     1
 40
0.000000
 41
0.000000
  0
VERTEX
  8
0
  6
CONTINUOUS
 10
5.019960
 20
6.523440
  0
VERTEX
  8
0
  6
CONTINUOUS
 10
5.019520
 20
7.269240
  0
VERTEX
  8
0
  6
CONTINUOUS
 10
5.036240
 20
7.267480
  0
VERTEX
  8
0
  6
CONTINUOUS
 10
5.036240
 20
6.522120
  0
VERTEX
  8
0
  6
CONTINUOUS
 10
5.019960
 20
6.523440
  0
SEQEND
  8
0
  0
SOLID
  8
0
 62
    15
 10
5.036240
 20
6.522120
 11
5.036240
 21
7.267480
 12
5.052520
 22
6.517280
 13
5.052080
 23
7.263080
  0
POLYLINE
  8
0
  6
CONTINUOUS
 66
     1
 40
0.000000
 41
0.000000
  0
VERTEX
  8
0
  6
CONTINUOUS
 10
5.036240
 20
6.522120
  0
VERTEX
  8
0
  6
CONTINUOUS
 10
5.036240
 20
7.267480
  0
VERTEX
  8
0
  6
CONTINUOUS
 10
5.052080
 20
7.263080
  0
VERTEX
  8
0
  6
CONTINUOUS
 10
5.052520
 20
6.517280
  0
VERTEX
  8
0
  6
CONTINUOUS
 10
5.036240
 20
6.522120
  0
SEQEND
  8
0
  0
SOLID
  8
0
 62
    15
 10
5.052520
 20
6.517280
 11
5.052080
 21
7.263080
 12
5.067040
 22
6.509800
 13
5.067040
 23
7.255600
  0
POLYLINE
  8
0
  6
CONTINUOUS
 66
     1
 40
0.000000
 41
0.000000
  0
VERTEX
  8
0
  6
CONTINUOUS
 10
5.052520
 20
6.517280
  0
VERTEX
  8
0
  6
CONTINUOUS
 10
5.052080
 20
7.263080
  0
VERTEX
  8
0
  6
CONTINUOUS
 10
5.067040
 20
7.255600
  0
VERTEX
  8
0
  6
CONTINUOUS
 10
5.067040
 20
6.509800
  0
VERTEX
  8
0
  6
CONTINUOUS
 10
5.052520
 20
6.517280
  0
SEQEND
  8
0
  0
SOLID
  8
0
 62
    15
 10
5.067040
 20
6.509800
 11
5.067040
 21
7.255600
 12
5.080680
 22
6.499680
 13
5.080240
 23
7.245040
  0
POLYLINE
  8
0
  6
CONTINUOUS
 66
     1
 40
0.000000
 41
0.000000
  0
VERTEX
  8
0
  6
CONTINUOUS
 10
5.067040
 20
6.509800
  0
VERTEX
  8
0
  6
CONTINUOUS
 10
5.067040
 20
7.255600
  0
VERTEX
  8
0
  6
CONTINUOUS
 10
5.080240
 20
7.245040
  0
VERTEX
  8
0
  6
CONTINUOUS
 10
5.080680
 20
6.499680
  0
VERTEX
  8
0
  6
CONTINUOUS
 10
5.067040
 20
6.509800
  0
SEQEND
  8
0
  0
SOLID
  8
0
 62
    15
 10
5.080680
 20
6.499680
 11
5.080240
 21
7.245040
 12
5.092120
 22
6.486920
 13
5.091680
 23
7.232280
  0
POLYLINE
  8
0
  6
CONTINUOUS
 66
     1
 40
0.000000
 41
0.000000
  0
VERTEX
  8
0
  6
CONTINUOUS
 10
5.080680
 20
6.499680
  0
VERTEX
  8
0
  6
CONTINUOUS
 10
5.080240
 20
7.245040
  0
VERTEX
  8
0
  6
CONTINUOUS
 10
5.091680
 20
7.232280
  0
VERTEX
  8
0
  6
CONTINUOUS
 10
5.092120
 20
6.486920
  0
VERTEX
  8
0
  6
CONTINUOUS
 10
5.080680
 20
6.499680
  0
SEQEND
  8
0
  0
SOLID
  8
0
 62
    15
 10
5.092120
 20
6.486920
 11
5.091680
 21
7.232280
 12
5.101360
 22
6.471520
 13
5.100920
 23
7.216880
  0
POLYLINE
  8
0
  6
CONTINUOUS
 66
     1
 40
0.000000
 41
0.000000
  0
VERTEX
  8
0
  6
CONTINUOUS
 10
5.092120
 20
6.486920
  0
VERTEX
  8
0
  6
CONTINUOUS
 10
5.091680
 20
7.232280
  0
VERTEX
  8
0
  6
CONTINUOUS
 10
5.100920
 20
7.216880
  0
VERTEX
  8
0
  6
CONTINUOUS
 10
5.101360
 20
6.471520
  0
VERTEX
  8
0
  6
CONTINUOUS
 10
5.092120
 20
6.486920
  0
SEQEND
  8
0
  0
SOLID
  8
0
 62
    15
 10
5.101360
 20
6.471520
 11
5.100920
 21
7.216880
 12
5.107960
 22
6.453920
 13
5.107520
 23
7.199280
  0
POLYLINE
  8
0
  6
CONTINUOUS
 66
     1
 40
0.000000
 41
0.000000
  0
VERTEX
  8
0
  6
CONTINUOUS
 10
5.101360
 20
6.471520
  0
VERTEX
  8
0
  6
CONTINUOUS
 10
5.100920
 20
7.216880
  0
VERTEX
  8
0
  6
CONTINUOUS
 10
5.107520
 20
7.199280
  0
VERTEX
  8
0
  6
CONTINUOUS
 10
5.107960
 20
6.453920
  0
VERTEX
  8
0
  6
CONTINUOUS
 10
5.101360
 20
6.471520
  0
SEQEND
  8
0
  0
SOLID
  8
0
 62
    15
 10
5.107960
 20
6.453920
 11
5.107520
 21
7.199280
 12
5.111480
 22
6.433680
 13
5.111480
 23
7.179480
  0
POLYLINE
  8
0
  6
CONTINUOUS
 66
     1
 40
0.000000
 41
0.000000
  0
VERTEX
  8
0
  6
CONTINUOUS
 10
5.107960
 20
6.453920
  0
VERTEX
  8
0
  6
CONTINUOUS
 10
5.107520
 20
7.199280
  0
VERTEX
  8
0
  6
CONTINUOUS
 10
5.111480
 20
7.179480
  0
VERTEX
  8
0
  6
CONTINUOUS
 10
5.111480
 20
6.433680
  0
VERTEX
  8
0
  6
CONTINUOUS
 10
5.107960
 20
6.453920
  0
SEQEND
  8
0
  0
SOLID
  8
0
 62
    15
 10
5.111480
 20
6.433680
 11
5.111480
 21
7.179480
 12
5.113680
 22
6.450400
 13
5.113680
 23
7.195760
  0
POLYLINE
  8
0
  6
CONTINUOUS
 66
     1
 40
0.000000
 41
0.000000
  0
VERTEX
  8
0
  6
CONTINUOUS
 10
5.111480
 20
6.433680
  0
VERTEX
  8
0
  6
CONTINUOUS
 10
5.111480
 20
7.179480
  0
VERTEX
  8
0
  6
CONTINUOUS
 10
5.113680
 20
7.195760
  0
VERTEX
  8
0
  6
CONTINUOUS
 10
5.113680
 20
6.450400
  0
VERTEX
  8
0
  6
CONTINUOUS
 10
5.111480
 20
6.433680
  0
SEQEND
  8
0
  0
SOLID
  8
0
 62
    15
 10
5.113680
 20
6.450400
 11
5.113680
 21
7.195760
 12
5.119400
 22
6.465800
 13
5.118960
 23
7.211160
  0
POLYLINE
  8
0
  6
CONTINUOUS
 66
     1
 40
0.000000
 41
0.000000
  0
VERTEX
  8
0
  6
CONTINUOUS
 10
5.113680
 20
6.450400
  0
VERTEX
  8
0
  6
CONTINUOUS
 10
5.113680
 20
7.195760
  0
VERTEX
  8
0
  6
CONTINUOUS
 10
5.118960
 20
7.211160
  0
VERTEX
  8
0
  6
CONTINUOUS
 10
5.119400
 20
6.465800
  0
VERTEX
  8
0
  6
CONTINUOUS
 10
5.113680
 20
6.450400
  0
SEQEND
  8
0
  0
SOLID
  8
0
 62
    15
 10
5.119400
 20
6.465800
 11
5.118960
 21
7.211160
 12
5.137880
 22
6.493080
 13
5.137440
 23
7.238880
  0
POLYLINE
  8
0
  6
CONTINUOUS
 66
     1
 40
0.000000
 41
0.000000
  0
VERTEX
  8
0
  6
CONTINUOUS
 10
5.119400
 20
6.465800
  0
VERTEX
  8
0
  6
CONTINUOUS
 10
5.118960
 20
7.211160
  0
VERTEX
  8
0
  6
CONTINUOUS
 10
5.137440
 20
7.238880
  0
VERTEX
  8
0
  6
CONTINUOUS
 10
5.137880
 20
6.493080
  0
VERTEX
  8
0
  6
CONTINUOUS
 10
5.119400
 20
6.465800
  0
SEQEND
  8
0
  0
SOLID
  8
0
 62
    15
 10
5.137880
 20
6.493080
 11
5.137440
 21
7.238880
 12
5.164280
 22
6.513320
 13
5.164280
 23
7.258680
  0
POLYLINE
  8
0
  6
CONTINUOUS
 66
     1
 40
0.000000
 41
0.000000
  0
VERTEX
  8
0
  6
CONTINUOUS
 10
5.137880
 20
6.493080
  0
VERTEX
  8
0
  6
CONTINUOUS
 10
5.137440
 20
7.238880
  0
VERTEX
  8
0
  6
CONTINUOUS
 10
5.164280
 20
7.258680
  0
VERTEX
  8
0
  6
CONTINUOUS
 10
5.164280
 20
6.513320
  0
VERTEX
  8
0
  6
CONTINUOUS
 10
5.137880
 20
6.493080
  0
SEQEND
  8
0
  0
SOLID
  8
0
 62
    15
 10
5.164280
 20
6.513320
 11
5.164280
 21
7.258680
 12
5.179680
 22
6.519920
 13
5.179240
 23
7.265280
  0
POLYLINE
  8
0
  6
CONTINUOUS
 66
     1
 40
0.000000
 41
0.000000
  0
VERTEX
  8
0
  6
CONTINUOUS
 10
5.164280
 20
6.513320
  0
VERTEX
  8
0
  6
CONTINUOUS
 10
5.164280
 20
7.258680
  0
VERTEX
  8
0
  6
CONTINUOUS
 10
5.179240
 20
7.265280
  0
VERTEX
  8
0
  6
CONTINUOUS
 10
5.179680
 20
6.519920
  0
VERTEX
  8
0
  6
CONTINUOUS
 10
5.164280
 20
6.513320
  0
SEQEND
  8
0
  0
SOLID
  8
0
 62
    15
 10
5.179680
 20
6.519920
 11
5.179240
 21
7.265280
 12
5.195960
 22
6.523440
 13
5.195520
 23
7.269240
  0
POLYLINE
  8
0
  6
CONTINUOUS
 66
     1
 40
0.000000
 41
0.000000
  0
VERTEX
  8
0
  6
CONTINUOUS
 10
5.179680
 20
6.519920
  0
VERTEX
  8
0
  6
CONTINUOUS
 10
5.179240
 20
7.265280
  0
VERTEX
  8
0
  6
CONTINUOUS
 10
5.195520
 20
7.269240
  0
VERTEX
  8
0
  6
CONTINUOUS
 10
5.195960
 20
6.523440
  0
VERTEX
  8
0
  6
CONTINUOUS
 10
5.179680
 20
6.519920
  0
SEQEND
  8
0
  0
SOLID
  8
0
 62
    15
 10
5.195960
 20
6.523440
 11
5.195520
 21
7.269240
 12
5.212240
 22
6.524320
 13
5.212240
 23
7.269680
  0
POLYLINE
  8
0
  6
CONTINUOUS
 66
     1
 40
0.000000
 41
0.000000
  0
VERTEX
  8
0
  6
CONTINUOUS
 10
5.195960
 20
6.523440
  0
VERTEX
  8
0
  6
CONTINUOUS
 10
5.195520
 20
7.269240
  0
VERTEX
  8
0
  6
CONTINUOUS
 10
5.212240
 20
7.269680
  0
VERTEX
  8
0
  6
CONTINUOUS
 10
5.212240
 20
6.524320
  0
VERTEX
  8
0
  6
CONTINUOUS
 10
5.195960
 20
6.523440
  0
SEQEND
  8
0
  0
SOLID
  8
0
 62
    15
 10
5.212240
 20
6.524320
 11
5.212240
 21
7.269680
 12
5.228960
 22
6.521680
 13
5.228960
 23
7.267040
  0
POLYLINE
  8
0
  6
CONTINUOUS
 66
     1
 40
0.000000
 41
0.000000
  0
VERTEX
  8
0
  6
CONTINUOUS
 10
5.212240
 20
6.524320
  0
VERTEX
  8
0
  6
CONTINUOUS
 10
5.212240
 20
7.269680
  0
VERTEX
  8
0
  6
CONTINUOUS
 10
5.228960
 20
7.267040
  0
VERTEX
  8
0
  6
CONTINUOUS
 10
5.228960
 20
6.521680
  0
VERTEX
  8
0
  6
CONTINUOUS
 10
5.212240
 20
6.524320
  0
SEQEND
  8
0
  0
SOLID
  8
0
 62
    15
 10
5.228960
 20
6.521680
 11
5.228960
 21
7.267040
 12
5.245240
 22
6.515080
 13
5.245240
 23
7.260880
  0
POLYLINE
  8
0
  6
CONTINUOUS
 66
     1
 40
0.000000
 41
0.000000
  0
VERTEX
  8
0
  6
CONTINUOUS
 10
5.228960
 20
6.521680
  0
VERTEX
  8
0
  6
CONTINUOUS
 10
5.228960
 20
7.267040
  0
VERTEX
  8
0
  6
CONTINUOUS
 10
5.245240
 20
7.260880
  0
VERTEX
  8
0
  6
CONTINUOUS
 10
5.245240
 20
6.515080
  0
VERTEX
  8
0
  6
CONTINUOUS
 10
5.228960
 20
6.521680
  0
SEQEND
  8
0
  0
SOLID
  8
0
 62
    15
 10
5.245240
 20
6.515080
 11
5.245240
 21
7.260880
 12
5.261080
 22
6.504960
 13
5.260640
 23
7.250320
  0
POLYLINE
  8
0
  6
CONTINUOUS
 66
     1
 40
0.000000
 41
0.000000
  0
VERTEX
  8
0
  6
CONTINUOUS
 10
5.245240
 20
6.515080
  0
VERTEX
  8
0
  6
CONTINUOUS
 10
5.245240
 20
7.260880
  0
VERTEX
  8
0
  6
CONTINUOUS
 10
5.260640
 20
7.250320
  0
VERTEX
  8
0
  6
CONTINUOUS
 10
5.261080
 20
6.504960
  0
VERTEX
  8
0
  6
CONTINUOUS
 10
5.245240
 20
6.515080
  0
SEQEND
  8
0
  0
SOLID
  8
0
 62
    15
 10
5.261080
 20
6.504960
 11
5.260640
 21
7.250320
 12
5.275600
 22
6.490000
 13
5.275160
 23
7.235800
  0
POLYLINE
  8
0
  6
CONTINUOUS
 66
     1
 40
0.000000
 41
0.000000
  0
VERTEX
  8
0
  6
CONTINUOUS
 10
5.261080
 20
6.504960
  0
VERTEX
  8
0
  6
CONTINUOUS
 10
5.260640
 20
7.250320
  0
VERTEX
  8
0
  6
CONTINUOUS
 10
5.275160
 20
7.235800
  0
VERTEX
  8
0
  6
CONTINUOUS
 10
5.275600
 20
6.490000
  0
VERTEX
  8
0
  6
CONTINUOUS
 10
5.261080
 20
6.504960
  0
SEQEND
  8
0
  0
SOLID
  8
0
 62
    15
 10
5.275600
 20
6.490000
 11
5.275160
 21
7.235800
 12
5.288800
 22
6.470640
 13
5.288360
 23
7.216440
  0
POLYLINE
  8
0
  6
CONTINUOUS
 66
     1
 40
0.000000
 41
0.000000
  0
VERTEX
  8
0
  6
CONTINUOUS
 10
5.275600
 20
6.490000
  0
VERTEX
  8
0
  6
CONTINUOUS
 10
5.275160
 20
7.235800
  0
VERTEX
  8
0
  6
CONTINUOUS
 10
5.288360
 20
7.216440
  0
VERTEX
  8
0
  6
CONTINUOUS
 10
5.288800
 20
6.470640
  0
VERTEX
  8
0
  6
CONTINUOUS
 10
5.275600
 20
6.490000
  0
SEQEND
  8
0
  0
SOLID
  8
0
 62
    15
 10
5.288800
 20
6.470640
 11
5.288360
 21
7.216440
 12
5.299800
 22
6.446440
 13
5.299800
 23
7.191800
  0
POLYLINE
  8
0
  6
CONTINUOUS
 66
     1
 40
0.000000
 41
0.000000
  0
VERTEX
  8
0
  6
CONTINUOUS
 10
5.288800
 20
6.470640
  0
VERTEX
  8
0
  6
CONTINUOUS
 10
5.288360
 20
7.216440
  0
VERTEX
  8
0
  6
CONTINUOUS
 10
5.299800
 20
7.191800
  0
VERTEX
  8
0
  6
CONTINUOUS
 10
5.299800
 20
6.446440
  0
VERTEX
  8
0
  6
CONTINUOUS
 10
5.288800
 20
6.470640
  0
SEQEND
  8
0
  0
SOLID
  8
0
 62
    15
 10
5.299800
 20
6.446440
 11
5.299800
 21
7.191800
 12
5.309040
 22
6.416960
 13
5.308600
 23
7.162320
  0
POLYLINE
  8
0
  6
CONTINUOUS
 66
     1
 40
0.000000
 41
0.000000
  0
VERTEX
  8
0
  6
CONTINUOUS
 10
5.299800
 20
6.446440
  0
VERTEX
  8
0
  6
CONTINUOUS
 10
5.299800
 20
7.191800
  0
VERTEX
  8
0
  6
CONTINUOUS
 10
5.308600
 20
7.162320
  0
VERTEX
  8
0
  6
CONTINUOUS
 10
5.309040
 20
6.416960
  0
VERTEX
  8
0
  6
CONTINUOUS
 10
5.299800
 20
6.446440
  0
SEQEND
  8
0
  0
SOLID
  8
0
 62
    15
 10
5.309040
 20
6.416960
 11
5.308600
 21
7.162320
 12
5.309040
 22
6.416080
 13
5.309040
 23
7.161440
  0
POLYLINE
  8
0
  6
CONTINUOUS
 66
     1
 40
0.000000
 41
0.000000
  0
VERTEX
  8
0
  6
CONTINUOUS
 10
5.309040
 20
6.416960
  0
VERTEX
  8
0
  6
CONTINUOUS
 10
5.308600
 20
7.162320
  0
VERTEX
  8
0
  6
CONTINUOUS
 10
5.309040
 20
7.161440
  0
VERTEX
  8
0
  6
CONTINUOUS
 10
5.309040
 20
6.416080
  0
VERTEX
  8
0
  6
CONTINUOUS
 10
5.309040
 20
6.416960
  0
SEQEND
  8
0
  0
POLYLINE
  8
0
  6
CONTINUOUS
 66
     1
 40
0.000000
 41
0.000000
  0
VERTEX
  8
0
  6
CONTINUOUS
 10
5.309040
 20
6.416080
  0
VERTEX
  8
0
  6
CONTINUOUS
 10
5.309040
 20
6.263400
  0
VERTEX
  8
0
  6
CONTINUOUS
 10
5.511000
 20
6.249760
  0
VERTEX
  8
0
  6
CONTINUOUS
 10
5.526400
 20
6.246680
  0
VERTEX
  8
0
  6
CONTINUOUS
 10
5.539160
 20
6.237880
  0
VERTEX
  8
0
  6
CONTINUOUS
 10
5.547520
 20
6.225560
  0
VERTEX
  8
0
  6
CONTINUOUS
 10
5.550600
 20
6.210160
  0
VERTEX
  8
0
  6
CONTINUOUS
 10
5.550600
 20
6.132280
  0
VERTEX
  8
0
  6
CONTINUOUS
 10
5.547520
 20
6.116880
  0
VERTEX
  8
0
  6
CONTINUOUS
 10
5.539160
 20
6.104120
  0
VERTEX
  8
0
  6
CONTINUOUS
 10
5.526400
 20
6.095760
  0
VERTEX
  8
0
  6
CONTINUOUS
 10
5.511000
 20
6.092680
  0
VERTEX
  8
0
  6
CONTINUOUS
 10
5.267240
 20
6.076400
  0
VERTEX
  8
0
  6
CONTINUOUS
 10
5.267240
 20
5.928120
  0
VERTEX
  8
0
  6
CONTINUOUS
 10
2.913680
 20
5.928120
  0
VERTEX
  8
0
  6
CONTINUOUS
 10
2.914120
 20
6.079920
  0
VERTEX
  8
0
  6
CONTINUOUS
 10
3.115640
 20
6.092240
  0
VERTEX
  8
0
  6
CONTINUOUS
 10
3.131040
 20
6.095320
  0
VERTEX
  8
0
  6
CONTINUOUS
 10
3.143800
 20
6.104120
  0
VERTEX
  8
0
  6
CONTINUOUS
 10
3.152160
 20
6.116880
  0
VERTEX
  8
0
  6
CONTINUOUS
 10
3.155240
 20
6.132280
  0
VERTEX
  8
0
  6
CONTINUOUS
 10
3.155240
 20
6.209720
  0
VERTEX
  8
0
  6
CONTINUOUS
 10
3.152160
 20
6.225120
  0
VERTEX
  8
0
  6
CONTINUOUS
 10
3.143800
 20
6.237880
  0
VERTEX
  8
0
  6
CONTINUOUS
 10
3.131040
 20
6.246240
  0
VERTEX
  8
0
  6
CONTINUOUS
 10
3.115640
 20
6.249320
  0
VERTEX
  8
0
  6
CONTINUOUS
 10
2.914120
 20
6.263400
  0
VERTEX
  8
0
  6
CONTINUOUS
 10
2.914120
 20
6.425320
  0
VERTEX
  8
0
  6
CONTINUOUS
 10
2.914120
 20
6.424880
  0
VERTEX
  8
0
  6
CONTINUOUS
 10
2.967800
 20
6.543240
  0
VERTEX
  8
0
  6
CONTINUOUS
 10
4.852760
 20
6.543240
  0
VERTEX
  8
0
  6
CONTINUOUS
 10
4.904680
 20
6.416960
  0
VERTEX
  8
0
  6
CONTINUOUS
 10
4.913920
 20
6.442920
  0
VERTEX
  8
0
  6
CONTINUOUS
 10
4.925360
 20
6.464920
  0
VERTEX
  8
0
  6
CONTINUOUS
 10
4.938560
 20
6.483400
  0
VERTEX
  8
0
  6
CONTINUOUS
 10
4.953080
 20
6.498360
  0
VERTEX
  8
0
  6
CONTINUOUS
 10
4.968920
 20
6.509800
  0
VERTEX
  8
0
  6
CONTINUOUS
 10
4.985640
 20
6.517720
  0
VERTEX
  8
0
  6
CONTINUOUS
 10
5.002800
 20
6.522120
  0
VERTEX
  8
0
  6
CONTINUOUS
 10
5.019960
 20
6.523440
  0
VERTEX
  8
0
  6
CONTINUOUS
 10
5.036240
 20
6.522120
  0
VERTEX
  8
0
  6
CONTINUOUS
 10
5.052520
 20
6.517280
  0
VERTEX
  8
0
  6
CONTINUOUS
 10
5.067040
 20
6.509800
  0
VERTEX
  8
0
  6
CONTINUOUS
 10
5.080680
 20
6.499680
  0
VERTEX
  8
0
  6
CONTINUOUS
 10
5.092120
 20
6.486920
  0
VERTEX
  8
0
  6
CONTINUOUS
 10
5.101360
 20
6.471520
  0
VERTEX
  8
0
  6
CONTINUOUS
 10
5.107960
 20
6.453920
  0
VERTEX
  8
0
  6
CONTINUOUS
 10
5.111480
 20
6.433680
  0
VERTEX
  8
0
  6
CONTINUOUS
 10
5.113680
 20
6.450400
  0
VERTEX
  8
0
  6
CONTINUOUS
 10
5.119400
 20
6.465800
  0
VERTEX
  8
0
  6
CONTINUOUS
 10
5.137880
 20
6.493080
  0
VERTEX
  8
0
  6
CONTINUOUS
 10
5.164280
 20
6.513320
  0
VERTEX
  8
0
  6
CONTINUOUS
 10
5.179680
 20
6.519920
  0
VERTEX
  8
0
  6
CONTINUOUS
 10
5.195960
 20
6.523440
  0
VERTEX
  8
0
  6
CONTINUOUS
 10
5.212240
 20
6.524320
  0
VERTEX
  8
0
  6
CONTINUOUS
 10
5.228960
 20
6.521680
  0
VERTEX
  8
0
  6
CONTINUOUS
 10
5.245240
 20
6.515080
  0
VERTEX
  8
0
  6
CONTINUOUS
 10
5.261080
 20
6.504960
  0
VERTEX
  8
0
  6
CONTINUOUS
 10
5.275600
 20
6.490000
  0
VERTEX
  8
0
  6
CONTINUOUS
 10
5.288800
 20
6.470640
  0
VERTEX
  8
0
  6
CONTINUOUS
 10
5.299800
 20
6.446440
  0
VERTEX
  8
0
  6
CONTINUOUS
 10
5.309040
 20
6.416080
  0
SEQEND
  8
0
  0
TEXT
  8
0
 10
3.890040
 20
5.672920
 40
0.138165
  1
BA  1111
 41
1.000000
  7
SN0
 71
     0
 72
     5
 11
4.572027
 21
5.672920
  0
TEXT
  8
0
 10
3.780480
 20
5.481520
 40
0.138165
  1
5/8" x 2-5/8"
 41
1.000000
  7
SN0
 71
     0
 72
     5
 11
4.680673
 21
5.481520
  0
TEXT
  8
0
 10
3.424080
 20
8.350760
 40
0.138165
  1
BA  1111
 41
1.000000
  7
SN0
 71
     0
 72
     5
 11
4.106067
 21
8.350760
  0
TEXT
  8
0
 10
3.314520
 20
8.158920
 40
0.138165
  1
5/8" x 2-5/8"
 41
1.000000
  7
SN0
 71
     0
 72
     5
 11
4.214713
 21
8.158920
  0
POLYLINE
  8
0
  6
CONTINUOUS
 66
     1
 40
0.014080
 41
0.014080
  0
VERTEX
  8
0
  6
CONTINUOUS
 10
5.309040
 20
8.546560
  0
VERTEX
  8
0
  6
CONTINUOUS
 10
5.309040
 20
8.394320
  0
VERTEX
  8
0
  6
CONTINUOUS
 10
5.518920
 20
8.379360
  0
VERTEX
  8
0
  6
CONTINUOUS
 10
5.533000
 20
8.373640
  0
VERTEX
  8
0
  6
CONTINUOUS
 10
5.543560
 20
8.362640
  0
VERTEX
  8
0
  6
CONTINUOUS
 10
5.547520
 20
8.356040
  0
VERTEX
  8
0
  6
CONTINUOUS
 10
5.550600
 20
8.340640
  0
VERTEX
  8
0
  6
CONTINUOUS
 10
5.550600
 20
8.263200
  0
VERTEX
  8
0
  6
CONTINUOUS
 10
5.547520
 20
8.247800
  0
VERTEX
  8
0
  6
CONTINUOUS
 10
5.538720
 20
8.235040
  0
VERTEX
  8
0
  6
CONTINUOUS
 10
5.526400
 20
8.226680
  0
VERTEX
  8
0
  6
CONTINUOUS
 10
5.511000
 20
8.223600
  0
VERTEX
  8
0
  6
CONTINUOUS
 10
5.267240
 20
8.207320
  0
VERTEX
  8
0
  6
CONTINUOUS
 10
5.267240
 20
8.059040
  0
VERTEX
  8
0
  6
CONTINUOUS
 10
2.913680
 20
8.059040
  0
VERTEX
  8
0
  6
CONTINUOUS
 10
2.914120
 20
8.210840
  0
VERTEX
  8
0
  6
CONTINUOUS
 10
3.123560
 20
8.224040
  0
VERTEX
  8
0
  6
CONTINUOUS
 10
3.131040
 20
8.226240
  0
VERTEX
  8
0
  6
CONTINUOUS
 10
3.143800
 20
8.235040
  0
VERTEX
  8
0
  6
CONTINUOUS
 10
3.152160
 20
8.247800
  0
VERTEX
  8
0
  6
CONTINUOUS
 10
3.155240
 20
8.263200
  0
VERTEX
  8
0
  6
CONTINUOUS
 10
3.155240
 20
8.340640
  0
VERTEX
  8
0
  6
CONTINUOUS
 10
3.155240
 20
8.340200
  0
VERTEX
  8
0
  6
CONTINUOUS
 10
3.152160
 20
8.355600
  0
VERTEX
  8
0
  6
CONTINUOUS
 10
3.143800
 20
8.368360
  0
VERTEX
  8
0
  6
CONTINUOUS
 10
3.131040
 20
8.377160
  0
VERTEX
  8
0
  6
CONTINUOUS
 10
3.115640
 20
8.380240
  0
VERTEX
  8
0
  6
CONTINUOUS
 10
2.913680
 20
8.394320
  0
VERTEX
  8
0
  6
CONTINUOUS
 10
2.913680
 20
8.556240
  0
VERTEX
  8
0
  6
CONTINUOUS
 10
2.914120
 20
8.555800
  0
VERTEX
  8
0
  6
CONTINUOUS
 10
2.967360
 20
8.673720
  0
VERTEX
  8
0
  6
CONTINUOUS
 10
4.852760
 20
8.673720
  0
VERTEX
  8
0
  6
CONTINUOUS
 10
4.904680
 20
8.547440
  0
VERTEX
  8
0
  6
CONTINUOUS
 10
4.919200
 20
8.585280
  0
VERTEX
  8
0
  6
CONTINUOUS
 10
4.931520
 20
8.605520
  0
VERTEX
  8
0
  6
CONTINUOUS
 10
4.953080
 20
8.629280
  0
VERTEX
  8
0
  6
CONTINUOUS
 10
4.977280
 20
8.644680
  0
VERTEX
  8
0
  6
CONTINUOUS
 10
5.002800
 20
8.653040
  0
VERTEX
  8
0
  6
CONTINUOUS
 10
5.019520
 20
8.654360
  0
VERTEX
  8
0
  6
CONTINUOUS
 10
5.044600
 20
8.650840
  0
VERTEX
  8
0
  6
CONTINUOUS
 10
5.067040
 20
8.640720
  0
VERTEX
  8
0
  6
CONTINUOUS
 10
5.086400
 20
8.624440
  0
VERTEX
  8
0
  6
CONTINUOUS
 10
5.101360
 20
8.602440
  0
VERTEX
  8
0
  6
CONTINUOUS
 10
5.107960
 20
8.584400
  0
VERTEX
  8
0
  6
CONTINUOUS
 10
5.111480
 20
8.564600
  0
VERTEX
  8
0
  6
CONTINUOUS
 10
5.115880
 20
8.588800
  0
VERTEX
  8
0
  6
CONTINUOUS
 10
5.122920
 20
8.603760
  0
VERTEX
  8
0
  6
CONTINUOUS
 10
5.132160
 20
8.617840
  0
VERTEX
  8
0
  6
CONTINUOUS
 10
5.150200
 20
8.635000
  0
VERTEX
  8
0
  6
CONTINUOUS
 10
5.171760
 20
8.647760
  0
VERTEX
  8
0
  6
CONTINUOUS
 10
5.187600
 20
8.653040
  0
VERTEX
  8
0
  6
CONTINUOUS
 10
5.203880
 20
8.655240
  0
VERTEX
  8
0
  6
CONTINUOUS
 10
5.220600
 20
8.654360
  0
VERTEX
  8
0
  6
CONTINUOUS
 10
5.237320
 20
8.649520
  0
VERTEX
  8
0
  6
CONTINUOUS
 10
5.253160
 20
8.641160
  0
VERTEX
  8
0
  6
CONTINUOUS
 10
5.268560
 20
8.628840
  0
VERTEX
  8
0
  6
CONTINUOUS
 10
5.282200
 20
8.611680
  0
VERTEX
  8
0
  6
CONTINUOUS
 10
5.294520
 20
8.590120
  0
VERTEX
  8
0
  6
CONTINUOUS
 10
5.309040
 20
8.547440
  0
VERTEX
  8
0
  6
CONTINUOUS
 10
5.309040
 20
8.546560
  0
SEQEND
  8
0
  0
TEXT
  8
0
 10
4.486240
 20
8.355600
 40
0.138165
  1
Sides 
 41
1.000000
  7
SN0
 71
     0
 72
     5
 11
4.947022
 21
8.355600
  0
TEXT
  8
0
 10
4.486240
 20
8.164200
 40
0.138165
  1
BA  1123
 41
1.000000
  7
SN0
 71
     0
 72
     5
 11
5.168227
 21
8.164200
  0
ENDSEC
  0
EOF
